  0
SECTION
  2
HEADER
  9
$ACADVER
  1
AC1015
  9
$ACADMAINTVER
 70
    13
  9
$DWGCODEPAGE
  3
ANSI_1252
  9
$INSBASE
 10
0.0
 20
0.0
 30
0.0
  9
$EXTMIN
 10
-565.034482232335
 20
-916.3661618283626
 30
-0.0015258207003583
  9
$EXTMAX
 10
565.0344874943075
 20
721.4597849871188
 30
0.0000000349246037
  9
$LIMMIN
 10
0.0
 20
0.0
  9
$LIMMAX
 10
12.0
 20
9.0
  9
$ORTHOMODE
 70
     0
  9
$REGENMODE
 70
     1
  9
$FILLMODE
 70
     1
  9
$QTEXTMODE
 70
     0
  9
$MIRRTEXT
 70
     1
  9
$LTSCALE
 40
1.0
  9
$ATTMODE
 70
     1
  9
$TEXTSIZE
 40
0.2
  9
$TRACEWID
 40
0.05
  9
$TEXTSTYLE
  7
Standard
  9
$CLAYER
  8
0
  9
$CELTYPE
  6
Continuous
  9
$CECOLOR
 62
   256
  9
$CELTSCALE
 40
1.0
  9
$DISPSILH
 70
     0
  9
$DIMSCALE
 40
1.0
  9
$DIMASZ
 40
0.18
  9
$DIMEXO
 40
0.0625
  9
$DIMDLI
 40
0.38
  9
$DIMRND
 40
0.0
  9
$DIMDLE
 40
0.0
  9
$DIMEXE
 40
0.18
  9
$DIMTP
 40
0.0
  9
$DIMTM
 40
0.0
  9
$DIMTXT
 40
0.18
  9
$DIMCEN
 40
0.09
  9
$DIMTSZ
 40
0.0
  9
$DIMTOL
 70
     0
  9
$DIMLIM
 70
     0
  9
$DIMTIH
 70
     1
  9
$DIMTOH
 70
     1
  9
$DIMSE1
 70
     0
  9
$DIMSE2
 70
     0
  9
$DIMTAD
 70
     0
  9
$DIMZIN
 70
     0
  9
$DIMBLK
  1

  9
$DIMASO
 70
     1
  9
$DIMSHO
 70
     1
  9
$DIMPOST
  1

  9
$DIMAPOST
  1

  9
$DIMALT
 70
     0
  9
$DIMALTD
 70
     2
  9
$DIMALTF
 40
25.4
  9
$DIMLFAC
 40
1.0
  9
$DIMTOFL
 70
     0
  9
$DIMTVP
 40
0.0
  9
$DIMTIX
 70
     0
  9
$DIMSOXD
 70
     0
  9
$DIMSAH
 70
     0
  9
$DIMBLK1
  1

  9
$DIMBLK2
  1

  9
$DIMSTYLE
  2
Standard
  9
$DIMCLRD
 70
     0
  9
$DIMCLRE
 70
     0
  9
$DIMCLRT
 70
     0
  9
$DIMTFAC
 40
1.0
  9
$DIMGAP
 40
0.09
  9
$DIMJUST
 70
     0
  9
$DIMSD1
 70
     0
  9
$DIMSD2
 70
     0
  9
$DIMTOLJ
 70
     1
  9
$DIMTZIN
 70
     0
  9
$DIMALTZ
 70
     0
  9
$DIMALTTZ
 70
     0
  9
$DIMUPT
 70
     0
  9
$DIMDEC
 70
     4
  9
$DIMTDEC
 70
     4
  9
$DIMALTU
 70
     2
  9
$DIMALTTD
 70
     2
  9
$DIMTXSTY
  7
Standard
  9
$DIMAUNIT
 70
     0
  9
$DIMADEC
 70
     0
  9
$DIMALTRND
 40
0.0
  9
$DIMAZIN
 70
     0
  9
$DIMDSEP
 70
    46
  9
$DIMATFIT
 70
     3
  9
$DIMFRAC
 70
     0
  9
$DIMLDRBLK
  1

  9
$DIMLUNIT
 70
     2
  9
$DIMLWD
 70
    -2
  9
$DIMLWE
 70
    -2
  9
$DIMTMOVE
 70
     0
  9
$LUNITS
 70
     2
  9
$LUPREC
 70
     4
  9
$SKETCHINC
 40
0.1
  9
$FILLETRAD
 40
0.0
  9
$AUNITS
 70
     0
  9
$AUPREC
 70
     0
  9
$MENU
  1
.
  9
$ELEVATION
 40
0.0
  9
$PELEVATION
 40
0.0
  9
$THICKNESS
 40
0.0
  9
$LIMCHECK
 70
     0
  9
$CHAMFERA
 40
0.0
  9
$CHAMFERB
 40
0.0
  9
$CHAMFERC
 40
0.0
  9
$CHAMFERD
 40
0.0
  9
$SKPOLY
 70
     0
  9
$TDCREATE
 40
2459801.617990486
  9
$TDUCREATE
 40
2459801.534657152
  9
$TDUPDATE
 40
2459801.662770752
  9
$TDUUPDATE
 40
2459801.579437419
  9
$TDINDWG
 40
0.0447807292
  9
$TDUSRTIMER
 40
0.0447807292
  9
$USRTIMER
 70
     1
  9
$ANGBASE
 50
0.0
  9
$ANGDIR
 70
     0
  9
$PDMODE
 70
     0
  9
$PDSIZE
 40
0.0
  9
$PLINEWID
 40
0.0
  9
$SPLFRAME
 70
     0
  9
$SPLINETYPE
 70
     6
  9
$SPLINESEGS
 70
     8
  9
$HANDSEED
  5
938
  9
$SURFTAB1
 70
     6
  9
$SURFTAB2
 70
     6
  9
$SURFTYPE
 70
     6
  9
$SURFU
 70
     6
  9
$SURFV
 70
     6
  9
$UCSBASE
  2

  9
$UCSNAME
  2

  9
$UCSORG
 10
0.0
 20
0.0
 30
0.0
  9
$UCSXDIR
 10
1.0
 20
0.0
 30
0.0
  9
$UCSYDIR
 10
0.0
 20
1.0
 30
0.0
  9
$UCSORTHOREF
  2

  9
$UCSORTHOVIEW
 70
     0
  9
$UCSORGTOP
 10
0.0
 20
0.0
 30
0.0
  9
$UCSORGBOTTOM
 10
0.0
 20
0.0
 30
0.0
  9
$UCSORGLEFT
 10
0.0
 20
0.0
 30
0.0
  9
$UCSORGRIGHT
 10
0.0
 20
0.0
 30
0.0
  9
$UCSORGFRONT
 10
0.0
 20
0.0
 30
0.0
  9
$UCSORGBACK
 10
0.0
 20
0.0
 30
0.0
  9
$PUCSBASE
  2

  9
$PUCSNAME
  2

  9
$PUCSORG
 10
0.0
 20
0.0
 30
0.0
  9
$PUCSXDIR
 10
1.0
 20
0.0
 30
0.0
  9
$PUCSYDIR
 10
0.0
 20
1.0
 30
0.0
  9
$PUCSORTHOREF
  2

  9
$PUCSORTHOVIEW
 70
     0
  9
$PUCSORGTOP
 10
0.0
 20
0.0
 30
0.0
  9
$PUCSORGBOTTOM
 10
0.0
 20
0.0
 30
0.0
  9
$PUCSORGLEFT
 10
0.0
 20
0.0
 30
0.0
  9
$PUCSORGRIGHT
 10
0.0
 20
0.0
 30
0.0
  9
$PUCSORGFRONT
 10
0.0
 20
0.0
 30
0.0
  9
$PUCSORGBACK
 10
0.0
 20
0.0
 30
0.0
  9
$USERI1
 70
     0
  9
$USERI2
 70
     0
  9
$USERI3
 70
     0
  9
$USERI4
 70
     0
  9
$USERI5
 70
     0
  9
$USERR1
 40
0.0
  9
$USERR2
 40
0.0
  9
$USERR3
 40
0.0
  9
$USERR4
 40
0.0
  9
$USERR5
 40
0.0
  9
$WORLDVIEW
 70
     1
  9
$SHADEDGE
 70
     3
  9
$SHADEDIF
 70
    70
  9
$TILEMODE
 70
     1
  9
$MAXACTVP
 70
    64
  9
$PINSBASE
 10
0.0
 20
0.0
 30
0.0
  9
$PLIMCHECK
 70
     0
  9
$PEXTMIN
 10
1.000000000000000E+20
 20
1.000000000000000E+20
 30
1.000000000000000E+20
  9
$PEXTMAX
 10
-1.000000000000000E+20
 20
-1.000000000000000E+20
 30
-1.000000000000000E+20
  9
$PLIMMIN
 10
0.0
 20
0.0
  9
$PLIMMAX
 10
12.0
 20
9.0
  9
$UNITMODE
 70
     0
  9
$VISRETAIN
 70
     1
  9
$PLINEGEN
 70
     0
  9
$PSLTSCALE
 70
     1
  9
$TREEDEPTH
 70
  3020
  9
$CMLSTYLE
  2
Standard
  9
$CMLJUST
 70
     0
  9
$CMLSCALE
 40
1.0
  9
$PROXYGRAPHICS
 70
     1
  9
$MEASUREMENT
 70
     0
  9
$CELWEIGHT
370
    -1
  9
$ENDCAPS
280
     0
  9
$JOINSTYLE
280
     0
  9
$LWDISPLAY
290
     0
  9
$INSUNITS
 70
     0
  9
$HYPERLINKBASE
  1

  9
$STYLESHEET
  1

  9
$XEDIT
290
     1
  9
$CEPSNTYPE
380
     0
  9
$PSTYLEMODE
290
     1
  9
$FINGERPRINTGUID
  2
{F4006CFF-D9F1-4B1D-8B94-168B8A15ADA6}
  9
$VERSIONGUID
  2
{30F3B7EA-5E94-40B2-AE47-7D0151875EC6}
  9
$EXTNAMES
290
     1
  9
$PSVPSCALE
 40
0.0
  9
$OLESTARTUP
290
     0
  0
ENDSEC
  0
SECTION
  2
CLASSES
  0
CLASS
  1
ACDBDICTIONARYWDFLT
  2
AcDbDictionaryWithDefault
  3
AutoCAD 2000
 90
        0
280
     0
281
     0
  0
CLASS
  1
ACDBPLACEHOLDER
  2
AcDbPlaceHolder
  3
AutoCAD 2000
 90
        0
280
     0
281
     0
  0
CLASS
  1
LAYOUT
  2
AcDbLayout
  3
AutoCAD 2000
 90
        0
280
     0
281
     0
  0
CLASS
  1
DICTIONARYVAR
  2
AcDbDictionaryVar
  3
AutoCAD 2000
 90
        0
280
     0
281
     0
  0
ENDSEC
  0
SECTION
  2
TABLES
  0
TABLE
  2
VPORT
  5
8
330
0
100
AcDbSymbolTable
 70
     3
  0
VPORT
  5
937
330
8
100
AcDbSymbolTableRecord
100
AcDbViewportTableRecord
  2
*Active
 70
     0
 10
0.0
 20
0.0
 11
1.0
 21
1.0
 12
481.0395032370388
 22
-60.98437028608237
 13
0.0
 23
0.0
 14
1.0
 24
1.0
 15
0.0
 25
0.0
 16
0.0
 26
0.0
 36
1.0
 17
0.0
 27
0.0
 37
0.0
 40
2437.067081958579
 41
2.111801242236024
 42
50.0
 43
0.0
 44
0.0
 50
0.0
 51
0.0
 71
     0
 72
   100
 73
     1
 74
     3
 75
     0
 76
     0
 77
     0
 78
     0
281
     0
 65
     1
110
0.0
120
0.0
130
0.0
111
1.0
121
0.0
131
0.0
112
0.0
122
1.0
132
0.0
 79
     0
146
0.0
  0
ENDTAB
  0
TABLE
  2
LTYPE
  5
5
330
0
100
AcDbSymbolTable
 70
     1
  0
LTYPE
  5
13
330
5
100
AcDbSymbolTableRecord
100
AcDbLinetypeTableRecord
  2
ByBlock
 70
     0
  3

 72
    65
 73
     0
 40
0.0
  0
LTYPE
  5
14
330
5
100
AcDbSymbolTableRecord
100
AcDbLinetypeTableRecord
  2
ByLayer
 70
     0
  3

 72
    65
 73
     0
 40
0.0
  0
LTYPE
  5
15
330
5
100
AcDbSymbolTableRecord
100
AcDbLinetypeTableRecord
  2
Continuous
 70
     0
  3
Solid line
 72
    65
 73
     0
 40
0.0
  0
ENDTAB
  0
TABLE
  2
LAYER
  5
2
330
0
100
AcDbSymbolTable
 70
     2
  0
LAYER
  5
10
330
2
100
AcDbSymbolTableRecord
100
AcDbLayerTableRecord
  2
0
 70
     0
 62
     7
  6
Continuous
370
    -3
390
F
  0
LAYER
  5
22
330
2
100
AcDbSymbolTableRecord
100
AcDbLayerTableRecord
  2
default
 70
     0
 62
     7
  6
Continuous
370
    -3
390
F
  0
ENDTAB
  0
TABLE
  2
STYLE
  5
3
330
0
100
AcDbSymbolTable
 70
     1
  0
STYLE
  5
11
330
3
100
AcDbSymbolTableRecord
100
AcDbTextStyleTableRecord
  2
Standard
 70
     0
 40
0.0
 41
1.0
 50
0.0
 71
     0
 42
0.2
  3
txt
  4

  0
ENDTAB
  0
TABLE
  2
VIEW
  5
6
330
0
100
AcDbSymbolTable
 70
     0
  0
ENDTAB
  0
TABLE
  2
UCS
  5
7
330
0
100
AcDbSymbolTable
 70
     0
  0
ENDTAB
  0
TABLE
  2
APPID
  5
9
330
0
100
AcDbSymbolTable
 70
     3
  0
APPID
  5
12
330
9
100
AcDbSymbolTableRecord
100
AcDbRegAppTableRecord
  2
ACAD
 70
     0
  0
APPID
  5
92E
330
9
100
AcDbSymbolTableRecord
100
AcDbRegAppTableRecord
  2
DCO15
 70
     0
  0
APPID
  5
930
330
9
100
AcDbSymbolTableRecord
100
AcDbRegAppTableRecord
  2
ADE
 70
     0
  0
ENDTAB
  0
TABLE
  2
DIMSTYLE
  5
A
330
0
100
AcDbSymbolTable
 70
     1
100
AcDbDimStyleTable
 71
     0
  0
DIMSTYLE
105
553
330
A
100
AcDbSymbolTableRecord
100
AcDbDimStyleTableRecord
  2
Standard
 70
     0
340
11
  0
ENDTAB
  0
TABLE
  2
BLOCK_RECORD
  5
1
330
0
100
AcDbSymbolTable
 70
     0
  0
BLOCK_RECORD
  5
1E
330
1
100
AcDbSymbolTableRecord
100
AcDbBlockTableRecord
  2
*Model_Space
340
21
  0
BLOCK_RECORD
  5
1A
330
1
100
AcDbSymbolTableRecord
100
AcDbBlockTableRecord
  2
*Paper_Space
340
1D
  0
ENDTAB
  0
ENDSEC
  0
SECTION
  2
BLOCKS
  0
BLOCK
  5
1F
330
1E
100
AcDbEntity
  8
0
100
AcDbBlockBegin
  2
*Model_Space
 70
     0
 10
0.0
 20
0.0
 30
0.0
  3
*Model_Space
  1

  0
ENDBLK
  5
20
330
1E
100
AcDbEntity
  8
0
100
AcDbBlockEnd
  0
BLOCK
  5
1B
330
1A
100
AcDbEntity
 67
     1
  8
0
100
AcDbBlockBegin
  2
*Paper_Space
 70
     0
 10
0.0
 20
0.0
 30
0.0
  3
*Paper_Space
  1

  0
ENDBLK
  5
1C
330
1A
100
AcDbEntity
 67
     1
  8
0
100
AcDbBlockEnd
  0
ENDSEC
  0
SECTION
  2
ENTITIES
  0
LINE
  5
23
330
1E
100
AcDbEntity
  8
default
  6
Continuous
 62
     1
100
AcDbLine
 10
0.0
 20
0.0
 30
0.0
 11
6.07
 21
-0.01
 31
0.0
  0
LINE
  5
24
330
1E
100
AcDbEntity
  8
default
  6
Continuous
 62
     1
100
AcDbLine
 10
0.0
 20
0.0
 30
0.0
 11
-6.07
 21
-0.01
 31
0.0
  0
LINE
  5
25
330
1E
100
AcDbEntity
  8
default
  6
Continuous
 62
     1
100
AcDbLine
 10
6.07
 20
-0.01
 30
0.0
 11
12.13
 21
-0.04
 31
0.0
  0
LINE
  5
26
330
1E
100
AcDbEntity
  8
default
  6
Continuous
 62
     1
100
AcDbLine
 10
-6.07
 20
-0.01
 30
0.0
 11
-12.13
 21
-0.04
 31
0.0
  0
LINE
  5
27
330
1E
100
AcDbEntity
  8
default
  6
Continuous
 62
     1
100
AcDbLine
 10
12.13
 20
-0.04
 30
0.0
 11
18.2
 21
-0.09
 31
0.0
  0
LINE
  5
28
330
1E
100
AcDbEntity
  8
default
  6
Continuous
 62
     1
100
AcDbLine
 10
-12.13
 20
-0.04
 30
0.0
 11
-18.2
 21
-0.09
 31
0.0
  0
LINE
  5
29
330
1E
100
AcDbEntity
  8
default
  6
Continuous
 62
     1
100
AcDbLine
 10
18.2
 20
-0.09
 30
0.0
 11
24.26
 21
-0.15
 31
0.0
  0
LINE
  5
2A
330
1E
100
AcDbEntity
  8
default
  6
Continuous
 62
     1
100
AcDbLine
 10
-18.2
 20
-0.09
 30
0.0
 11
-24.26
 21
-0.15
 31
0.0
  0
LINE
  5
2B
330
1E
100
AcDbEntity
  8
default
  6
Continuous
 62
     1
100
AcDbLine
 10
24.26
 20
-0.15
 30
0.0
 11
30.32
 21
-0.24
 31
0.0
  0
LINE
  5
2C
330
1E
100
AcDbEntity
  8
default
  6
Continuous
 62
     1
100
AcDbLine
 10
-24.26
 20
-0.15
 30
0.0
 11
-30.32
 21
-0.24
 31
0.0
  0
LINE
  5
2D
330
1E
100
AcDbEntity
  8
default
  6
Continuous
 62
     1
100
AcDbLine
 10
30.32
 20
-0.24
 30
0.0
 11
36.38
 21
-0.35
 31
0.0
  0
LINE
  5
2E
330
1E
100
AcDbEntity
  8
default
  6
Continuous
 62
     1
100
AcDbLine
 10
-30.32
 20
-0.24
 30
0.0
 11
-36.38
 21
-0.35
 31
0.0
  0
LINE
  5
2F
330
1E
100
AcDbEntity
  8
default
  6
Continuous
 62
     1
100
AcDbLine
 10
36.38
 20
-0.35
 30
0.0
 11
42.43999999999999
 21
-0.47
 31
0.0
  0
LINE
  5
30
330
1E
100
AcDbEntity
  8
default
  6
Continuous
 62
     1
100
AcDbLine
 10
-36.38
 20
-0.35
 30
0.0
 11
-42.43999999999999
 21
-0.47
 31
0.0
  0
LINE
  5
31
330
1E
100
AcDbEntity
  8
default
  6
Continuous
 62
     1
100
AcDbLine
 10
42.43999999999999
 20
-0.47
 30
0.0
 11
48.49
 21
-0.6200000000000001
 31
0.0
  0
LINE
  5
32
330
1E
100
AcDbEntity
  8
default
  6
Continuous
 62
     1
100
AcDbLine
 10
-42.43999999999999
 20
-0.47
 30
0.0
 11
-48.49
 21
-0.6200000000000001
 31
0.0
  0
LINE
  5
33
330
1E
100
AcDbEntity
  8
default
  6
Continuous
 62
     1
100
AcDbLine
 10
48.49
 20
-0.6200000000000001
 30
0.0
 11
54.53
 21
-0.7800000000000001
 31
0.0
  0
LINE
  5
34
330
1E
100
AcDbEntity
  8
default
  6
Continuous
 62
     1
100
AcDbLine
 10
-48.49
 20
-0.6200000000000001
 30
0.0
 11
-54.53
 21
-0.7800000000000001
 31
0.0
  0
LINE
  5
35
330
1E
100
AcDbEntity
  8
default
  6
Continuous
 62
     1
100
AcDbLine
 10
54.53
 20
-0.7800000000000001
 30
0.0
 11
60.57
 21
-0.9599999999999999
 31
0.0
  0
LINE
  5
36
330
1E
100
AcDbEntity
  8
default
  6
Continuous
 62
     1
100
AcDbLine
 10
-54.53
 20
-0.7800000000000001
 30
0.0
 11
-60.57
 21
-0.9599999999999999
 31
0.0
  0
LINE
  5
37
330
1E
100
AcDbEntity
  8
default
  6
Continuous
 62
     1
100
AcDbLine
 10
60.57
 20
-0.9599999999999999
 30
0.0
 11
66.61
 21
-1.169999999999999
 31
0.0
  0
LINE
  5
38
330
1E
100
AcDbEntity
  8
default
  6
Continuous
 62
     1
100
AcDbLine
 10
-60.57
 20
-0.9599999999999999
 30
0.0
 11
-66.61
 21
-1.169999999999999
 31
0.0
  0
LINE
  5
39
330
1E
100
AcDbEntity
  8
default
  6
Continuous
 62
     1
100
AcDbLine
 10
66.61
 20
-1.169999999999999
 30
0.0
 11
72.62999999999999
 21
-1.389999999999999
 31
0.0
  0
LINE
  5
3A
330
1E
100
AcDbEntity
  8
default
  6
Continuous
 62
     1
100
AcDbLine
 10
-66.61
 20
-1.169999999999999
 30
0.0
 11
-72.62999999999999
 21
-1.389999999999999
 31
0.0
  0
LINE
  5
3B
330
1E
100
AcDbEntity
  8
default
  6
Continuous
 62
     1
100
AcDbLine
 10
72.62999999999999
 20
-1.389999999999999
 30
0.0
 11
78.65000000000001
 21
-1.629999999999999
 31
0.0
  0
LINE
  5
3C
330
1E
100
AcDbEntity
  8
default
  6
Continuous
 62
     1
100
AcDbLine
 10
-72.62999999999999
 20
-1.389999999999999
 30
0.0
 11
-78.65000000000001
 21
-1.629999999999999
 31
0.0
  0
LINE
  5
3D
330
1E
100
AcDbEntity
  8
default
  6
Continuous
 62
     1
100
AcDbLine
 10
78.65000000000001
 20
-1.629999999999999
 30
0.0
 11
84.65999999999999
 21
-1.889999999999999
 31
0.0
  0
LINE
  5
3E
330
1E
100
AcDbEntity
  8
default
  6
Continuous
 62
     1
100
AcDbLine
 10
-78.65000000000001
 20
-1.629999999999999
 30
0.0
 11
-84.65999999999999
 21
-1.889999999999999
 31
0.0
  0
LINE
  5
3F
330
1E
100
AcDbEntity
  8
default
  6
Continuous
 62
     1
100
AcDbLine
 10
84.65999999999999
 20
-1.889999999999999
 30
0.0
 11
90.67
 21
-2.169999999999999
 31
0.0
  0
LINE
  5
40
330
1E
100
AcDbEntity
  8
default
  6
Continuous
 62
     1
100
AcDbLine
 10
-84.65999999999999
 20
-1.889999999999999
 30
0.0
 11
-90.67
 21
-2.169999999999999
 31
0.0
  0
LINE
  5
41
330
1E
100
AcDbEntity
  8
default
  6
Continuous
 62
     1
100
AcDbLine
 10
90.67
 20
-2.169999999999999
 30
0.0
 11
96.66
 21
-2.47
 31
0.0
  0
LINE
  5
42
330
1E
100
AcDbEntity
  8
default
  6
Continuous
 62
     1
100
AcDbLine
 10
-90.67
 20
-2.169999999999999
 30
0.0
 11
-96.66
 21
-2.47
 31
0.0
  0
LINE
  5
43
330
1E
100
AcDbEntity
  8
default
  6
Continuous
 62
     1
100
AcDbLine
 10
96.66
 20
-2.47
 30
0.0
 11
102.6499999999999
 21
-2.779999999999999
 31
0.0
  0
LINE
  5
44
330
1E
100
AcDbEntity
  8
default
  6
Continuous
 62
     1
100
AcDbLine
 10
-96.66
 20
-2.47
 30
0.0
 11
-102.6499999999999
 21
-2.779999999999999
 31
0.0
  0
LINE
  5
45
330
1E
100
AcDbEntity
  8
default
  6
Continuous
 62
     1
100
AcDbLine
 10
102.6499999999999
 20
-2.779999999999999
 30
0.0
 11
108.62
 21
-3.12
 31
0.0
  0
LINE
  5
46
330
1E
100
AcDbEntity
  8
default
  6
Continuous
 62
     1
100
AcDbLine
 10
-102.6499999999999
 20
-2.779999999999999
 30
0.0
 11
-108.62
 21
-3.12
 31
0.0
  0
LINE
  5
47
330
1E
100
AcDbEntity
  8
default
  6
Continuous
 62
     1
100
AcDbLine
 10
108.62
 20
-3.12
 30
0.0
 11
114.59
 21
-3.479999999999999
 31
0.0
  0
LINE
  5
48
330
1E
100
AcDbEntity
  8
default
  6
Continuous
 62
     1
100
AcDbLine
 10
-108.62
 20
-3.12
 30
0.0
 11
-114.59
 21
-3.479999999999999
 31
0.0
  0
LINE
  5
49
330
1E
100
AcDbEntity
  8
default
  6
Continuous
 62
     1
100
AcDbLine
 10
114.59
 20
-3.479999999999999
 30
0.0
 11
120.54
 21
-3.85
 31
0.0
  0
LINE
  5
4A
330
1E
100
AcDbEntity
  8
default
  6
Continuous
 62
     1
100
AcDbLine
 10
-114.59
 20
-3.479999999999999
 30
0.0
 11
-120.54
 21
-3.85
 31
0.0
  0
LINE
  5
4B
330
1E
100
AcDbEntity
  8
default
  6
Continuous
 62
     1
100
AcDbLine
 10
120.54
 20
-3.85
 30
0.0
 11
126.48
 21
-4.24
 31
0.0
  0
LINE
  5
4C
330
1E
100
AcDbEntity
  8
default
  6
Continuous
 62
     1
100
AcDbLine
 10
-120.54
 20
-3.85
 30
0.0
 11
-126.48
 21
-4.24
 31
0.0
  0
LINE
  5
4D
330
1E
100
AcDbEntity
  8
default
  6
Continuous
 62
     1
100
AcDbLine
 10
126.48
 20
-4.24
 30
0.0
 11
132.41
 21
-4.66
 31
0.0
  0
LINE
  5
4E
330
1E
100
AcDbEntity
  8
default
  6
Continuous
 62
     1
100
AcDbLine
 10
-126.48
 20
-4.24
 30
0.0
 11
-132.41
 21
-4.66
 31
0.0
  0
LINE
  5
4F
330
1E
100
AcDbEntity
  8
default
  6
Continuous
 62
     1
100
AcDbLine
 10
132.41
 20
-4.66
 30
0.0
 11
138.3199999999999
 21
-5.089999999999999
 31
0.0
  0
LINE
  5
50
330
1E
100
AcDbEntity
  8
default
  6
Continuous
 62
     1
100
AcDbLine
 10
-132.41
 20
-4.66
 30
0.0
 11
-138.3199999999999
 21
-5.089999999999999
 31
0.0
  0
LINE
  5
51
330
1E
100
AcDbEntity
  8
default
  6
Continuous
 62
     1
100
AcDbLine
 10
138.3199999999999
 20
-5.089999999999999
 30
0.0
 11
144.2199999999999
 21
-5.54
 31
0.0
  0
LINE
  5
52
330
1E
100
AcDbEntity
  8
default
  6
Continuous
 62
     1
100
AcDbLine
 10
-138.3199999999999
 20
-5.089999999999999
 30
0.0
 11
-144.2199999999999
 21
-5.54
 31
0.0
  0
LINE
  5
53
330
1E
100
AcDbEntity
  8
default
  6
Continuous
 62
     1
100
AcDbLine
 10
144.2199999999999
 20
-5.54
 30
0.0
 11
150.11
 21
-6.0
 31
0.0
  0
LINE
  5
54
330
1E
100
AcDbEntity
  8
default
  6
Continuous
 62
     1
100
AcDbLine
 10
-144.2199999999999
 20
-5.54
 30
0.0
 11
-150.11
 21
-6.0
 31
0.0
  0
LINE
  5
55
330
1E
100
AcDbEntity
  8
default
  6
Continuous
 62
     1
100
AcDbLine
 10
150.11
 20
-6.0
 30
0.0
 11
155.9799999999999
 21
-6.49
 31
0.0
  0
LINE
  5
56
330
1E
100
AcDbEntity
  8
default
  6
Continuous
 62
     1
100
AcDbLine
 10
-150.11
 20
-6.0
 30
0.0
 11
-155.9799999999999
 21
-6.49
 31
0.0
  0
LINE
  5
57
330
1E
100
AcDbEntity
  8
default
  6
Continuous
 62
     1
100
AcDbLine
 10
155.9799999999999
 20
-6.49
 30
0.0
 11
161.83
 21
-7.0
 31
0.0
  0
LINE
  5
58
330
1E
100
AcDbEntity
  8
default
  6
Continuous
 62
     1
100
AcDbLine
 10
-155.9799999999999
 20
-6.49
 30
0.0
 11
-161.83
 21
-7.0
 31
0.0
  0
LINE
  5
59
330
1E
100
AcDbEntity
  8
default
  6
Continuous
 62
     1
100
AcDbLine
 10
161.83
 20
-7.0
 30
0.0
 11
167.6699999999999
 21
-7.519999999999999
 31
0.0
  0
LINE
  5
5A
330
1E
100
AcDbEntity
  8
default
  6
Continuous
 62
     1
100
AcDbLine
 10
-161.83
 20
-7.0
 30
0.0
 11
-167.6699999999999
 21
-7.519999999999999
 31
0.0
  0
LINE
  5
5B
330
1E
100
AcDbEntity
  8
default
  6
Continuous
 62
     1
100
AcDbLine
 10
167.6699999999999
 20
-7.519999999999999
 30
0.0
 11
173.5
 21
-8.06
 31
0.0
  0
LINE
  5
5C
330
1E
100
AcDbEntity
  8
default
  6
Continuous
 62
     1
100
AcDbLine
 10
-167.6699999999999
 20
-7.519999999999999
 30
0.0
 11
-173.5
 21
-8.06
 31
0.0
  0
LINE
  5
5D
330
1E
100
AcDbEntity
  8
default
  6
Continuous
 62
     1
100
AcDbLine
 10
173.5
 20
-8.06
 30
0.0
 11
179.3
 21
-8.63
 31
0.0
  0
LINE
  5
5E
330
1E
100
AcDbEntity
  8
default
  6
Continuous
 62
     1
100
AcDbLine
 10
-173.5
 20
-8.06
 30
0.0
 11
-179.3
 21
-8.63
 31
0.0
  0
LINE
  5
5F
330
1E
100
AcDbEntity
  8
default
  6
Continuous
 62
     1
100
AcDbLine
 10
179.3
 20
-8.63
 30
0.0
 11
185.09
 21
-9.21
 31
0.0
  0
LINE
  5
60
330
1E
100
AcDbEntity
  8
default
  6
Continuous
 62
     1
100
AcDbLine
 10
-179.3
 20
-8.63
 30
0.0
 11
-185.09
 21
-9.21
 31
0.0
  0
LINE
  5
61
330
1E
100
AcDbEntity
  8
default
  6
Continuous
 62
     1
100
AcDbLine
 10
185.09
 20
-9.21
 30
0.0
 11
190.86
 21
-9.8
 31
0.0
  0
LINE
  5
62
330
1E
100
AcDbEntity
  8
default
  6
Continuous
 62
     1
100
AcDbLine
 10
-185.09
 20
-9.21
 30
0.0
 11
-190.86
 21
-9.8
 31
0.0
  0
LINE
  5
63
330
1E
100
AcDbEntity
  8
default
  6
Continuous
 62
     1
100
AcDbLine
 10
190.86
 20
-9.8
 30
0.0
 11
196.61
 21
-10.42
 31
0.0
  0
LINE
  5
64
330
1E
100
AcDbEntity
  8
default
  6
Continuous
 62
     1
100
AcDbLine
 10
-190.86
 20
-9.8
 30
0.0
 11
-196.61
 21
-10.42
 31
0.0
  0
LINE
  5
65
330
1E
100
AcDbEntity
  8
default
  6
Continuous
 62
     1
100
AcDbLine
 10
196.61
 20
-10.42
 30
0.0
 11
202.34
 21
-11.06
 31
0.0
  0
LINE
  5
66
330
1E
100
AcDbEntity
  8
default
  6
Continuous
 62
     1
100
AcDbLine
 10
-196.61
 20
-10.42
 30
0.0
 11
-202.34
 21
-11.06
 31
0.0
  0
LINE
  5
67
330
1E
100
AcDbEntity
  8
default
  6
Continuous
 62
     1
100
AcDbLine
 10
202.34
 20
-11.06
 30
0.0
 11
208.05
 21
-11.71
 31
0.0
  0
LINE
  5
68
330
1E
100
AcDbEntity
  8
default
  6
Continuous
 62
     1
100
AcDbLine
 10
-202.34
 20
-11.06
 30
0.0
 11
-208.05
 21
-11.71
 31
0.0
  0
LINE
  5
69
330
1E
100
AcDbEntity
  8
default
  6
Continuous
 62
     1
100
AcDbLine
 10
208.05
 20
-11.71
 30
0.0
 11
213.7399999999999
 21
-12.38
 31
0.0
  0
LINE
  5
6A
330
1E
100
AcDbEntity
  8
default
  6
Continuous
 62
     1
100
AcDbLine
 10
-208.05
 20
-11.71
 30
0.0
 11
-213.7399999999999
 21
-12.38
 31
0.0
  0
LINE
  5
6B
330
1E
100
AcDbEntity
  8
default
  6
Continuous
 62
     1
100
AcDbLine
 10
213.7399999999999
 20
-12.38
 30
0.0
 11
219.3999999999999
 21
-13.07
 31
0.0
  0
LINE
  5
6C
330
1E
100
AcDbEntity
  8
default
  6
Continuous
 62
     1
100
AcDbLine
 10
-213.7399999999999
 20
-12.38
 30
0.0
 11
-219.3999999999999
 21
-13.07
 31
0.0
  0
LINE
  5
6D
330
1E
100
AcDbEntity
  8
default
  6
Continuous
 62
     1
100
AcDbLine
 10
219.3999999999999
 20
-13.07
 30
0.0
 11
225.05
 21
-13.78
 31
0.0
  0
LINE
  5
6E
330
1E
100
AcDbEntity
  8
default
  6
Continuous
 62
     1
100
AcDbLine
 10
-219.3999999999999
 20
-13.07
 30
0.0
 11
-225.05
 21
-13.78
 31
0.0
  0
LINE
  5
6F
330
1E
100
AcDbEntity
  8
default
  6
Continuous
 62
     1
100
AcDbLine
 10
225.05
 20
-13.78
 30
0.0
 11
230.6699999999999
 21
-14.5
 31
0.0
  0
LINE
  5
70
330
1E
100
AcDbEntity
  8
default
  6
Continuous
 62
     1
100
AcDbLine
 10
-225.05
 20
-13.78
 30
0.0
 11
-230.6699999999999
 21
-14.5
 31
0.0
  0
LINE
  5
71
330
1E
100
AcDbEntity
  8
default
  6
Continuous
 62
     1
100
AcDbLine
 10
230.6699999999999
 20
-14.5
 30
0.0
 11
236.27
 21
-15.25
 31
0.0
  0
LINE
  5
72
330
1E
100
AcDbEntity
  8
default
  6
Continuous
 62
     1
100
AcDbLine
 10
-230.6699999999999
 20
-14.5
 30
0.0
 11
-236.27
 21
-15.25
 31
0.0
  0
LINE
  5
73
330
1E
100
AcDbEntity
  8
default
  6
Continuous
 62
     1
100
AcDbLine
 10
236.27
 20
-15.25
 30
0.0
 11
241.8499999999999
 21
-16.01
 31
0.0
  0
LINE
  5
74
330
1E
100
AcDbEntity
  8
default
  6
Continuous
 62
     1
100
AcDbLine
 10
-236.27
 20
-15.25
 30
0.0
 11
-241.8499999999999
 21
-16.01
 31
0.0
  0
LINE
  5
75
330
1E
100
AcDbEntity
  8
default
  6
Continuous
 62
     1
100
AcDbLine
 10
241.8499999999999
 20
-16.01
 30
0.0
 11
247.4
 21
-16.79
 31
0.0
  0
LINE
  5
76
330
1E
100
AcDbEntity
  8
default
  6
Continuous
 62
     1
100
AcDbLine
 10
-241.8499999999999
 20
-16.01
 30
0.0
 11
-247.4
 21
-16.79
 31
0.0
  0
LINE
  5
77
330
1E
100
AcDbEntity
  8
default
  6
Continuous
 62
     1
100
AcDbLine
 10
247.4
 20
-16.79
 30
0.0
 11
252.93
 21
-17.58
 31
0.0
  0
LINE
  5
78
330
1E
100
AcDbEntity
  8
default
  6
Continuous
 62
     1
100
AcDbLine
 10
-247.4
 20
-16.79
 30
0.0
 11
-252.93
 21
-17.58
 31
0.0
  0
LINE
  5
79
330
1E
100
AcDbEntity
  8
default
  6
Continuous
 62
     1
100
AcDbLine
 10
252.93
 20
-17.58
 30
0.0
 11
258.43
 21
-18.39999999999999
 31
0.0
  0
LINE
  5
7A
330
1E
100
AcDbEntity
  8
default
  6
Continuous
 62
     1
100
AcDbLine
 10
-252.93
 20
-17.58
 30
0.0
 11
-258.43
 21
-18.39999999999999
 31
0.0
  0
LINE
  5
7B
330
1E
100
AcDbEntity
  8
default
  6
Continuous
 62
     1
100
AcDbLine
 10
258.43
 20
-18.39999999999999
 30
0.0
 11
263.91
 21
-19.23
 31
0.0
  0
LINE
  5
7C
330
1E
100
AcDbEntity
  8
default
  6
Continuous
 62
     1
100
AcDbLine
 10
-258.43
 20
-18.39999999999999
 30
0.0
 11
-263.91
 21
-19.23
 31
0.0
  0
LINE
  5
7D
330
1E
100
AcDbEntity
  8
default
  6
Continuous
 62
     1
100
AcDbLine
 10
263.91
 20
-19.23
 30
0.0
 11
269.3599999999999
 21
-20.08
 31
0.0
  0
LINE
  5
7E
330
1E
100
AcDbEntity
  8
default
  6
Continuous
 62
     1
100
AcDbLine
 10
-263.91
 20
-19.23
 30
0.0
 11
-269.3599999999999
 21
-20.08
 31
0.0
  0
LINE
  5
7F
330
1E
100
AcDbEntity
  8
default
  6
Continuous
 62
     1
100
AcDbLine
 10
269.3599999999999
 20
-20.08
 30
0.0
 11
274.7799999999999
 21
-20.94
 31
0.0
  0
LINE
  5
80
330
1E
100
AcDbEntity
  8
default
  6
Continuous
 62
     1
100
AcDbLine
 10
-269.3599999999999
 20
-20.08
 30
0.0
 11
-274.7799999999999
 21
-20.94
 31
0.0
  0
LINE
  5
81
330
1E
100
AcDbEntity
  8
default
  6
Continuous
 62
     1
100
AcDbLine
 10
274.7799999999999
 20
-20.94
 30
0.0
 11
280.18
 21
-21.82999999999999
 31
0.0
  0
LINE
  5
82
330
1E
100
AcDbEntity
  8
default
  6
Continuous
 62
     1
100
AcDbLine
 10
-274.7799999999999
 20
-20.94
 30
0.0
 11
-280.18
 21
-21.82999999999999
 31
0.0
  0
LINE
  5
83
330
1E
100
AcDbEntity
  8
default
  6
Continuous
 62
     1
100
AcDbLine
 10
280.18
 20
-21.82999999999999
 30
0.0
 11
285.54
 21
-22.73
 31
0.0
  0
LINE
  5
84
330
1E
100
AcDbEntity
  8
default
  6
Continuous
 62
     1
100
AcDbLine
 10
-280.18
 20
-21.82999999999999
 30
0.0
 11
-285.54
 21
-22.73
 31
0.0
  0
LINE
  5
85
330
1E
100
AcDbEntity
  8
default
  6
Continuous
 62
     1
100
AcDbLine
 10
285.54
 20
-22.73
 30
0.0
 11
290.8799999999999
 21
-23.64
 31
0.0
  0
LINE
  5
86
330
1E
100
AcDbEntity
  8
default
  6
Continuous
 62
     1
100
AcDbLine
 10
-285.54
 20
-22.73
 30
0.0
 11
-290.8799999999999
 21
-23.64
 31
0.0
  0
LINE
  5
87
330
1E
100
AcDbEntity
  8
default
  6
Continuous
 62
     1
100
AcDbLine
 10
290.8799999999999
 20
-23.64
 30
0.0
 11
296.1899999999999
 21
-24.58
 31
0.0
  0
LINE
  5
88
330
1E
100
AcDbEntity
  8
default
  6
Continuous
 62
     1
100
AcDbLine
 10
-290.8799999999999
 20
-23.64
 30
0.0
 11
-296.1899999999999
 21
-24.58
 31
0.0
  0
LINE
  5
89
330
1E
100
AcDbEntity
  8
default
  6
Continuous
 62
     1
100
AcDbLine
 10
296.1899999999999
 20
-24.58
 30
0.0
 11
301.47
 21
-25.53
 31
0.0
  0
LINE
  5
8A
330
1E
100
AcDbEntity
  8
default
  6
Continuous
 62
     1
100
AcDbLine
 10
-296.1899999999999
 20
-24.58
 30
0.0
 11
-301.47
 21
-25.53
 31
0.0
  0
LINE
  5
8B
330
1E
100
AcDbEntity
  8
default
  6
Continuous
 62
     1
100
AcDbLine
 10
301.47
 20
-25.53
 30
0.0
 11
306.72
 21
-26.5
 31
0.0
  0
LINE
  5
8C
330
1E
100
AcDbEntity
  8
default
  6
Continuous
 62
     1
100
AcDbLine
 10
-301.47
 20
-25.53
 30
0.0
 11
-306.72
 21
-26.5
 31
0.0
  0
LINE
  5
8D
330
1E
100
AcDbEntity
  8
default
  6
Continuous
 62
     1
100
AcDbLine
 10
306.72
 20
-26.5
 30
0.0
 11
311.94
 21
-27.5
 31
0.0
  0
LINE
  5
8E
330
1E
100
AcDbEntity
  8
default
  6
Continuous
 62
     1
100
AcDbLine
 10
-306.72
 20
-26.5
 30
0.0
 11
-311.94
 21
-27.5
 31
0.0
  0
LINE
  5
8F
330
1E
100
AcDbEntity
  8
default
  6
Continuous
 62
     1
100
AcDbLine
 10
311.94
 20
-27.5
 30
0.0
 11
317.13
 21
-28.54
 31
0.0
  0
LINE
  5
90
330
1E
100
AcDbEntity
  8
default
  6
Continuous
 62
     1
100
AcDbLine
 10
-311.94
 20
-27.5
 30
0.0
 11
-317.13
 21
-28.54
 31
0.0
  0
LINE
  5
91
330
1E
100
AcDbEntity
  8
default
  6
Continuous
 62
     1
100
AcDbLine
 10
317.13
 20
-28.54
 30
0.0
 11
322.29
 21
-29.62
 31
0.0
  0
LINE
  5
92
330
1E
100
AcDbEntity
  8
default
  6
Continuous
 62
     1
100
AcDbLine
 10
-317.13
 20
-28.54
 30
0.0
 11
-322.29
 21
-29.62
 31
0.0
  0
LINE
  5
93
330
1E
100
AcDbEntity
  8
default
  6
Continuous
 62
     1
100
AcDbLine
 10
322.29
 20
-29.62
 30
0.0
 11
327.41
 21
-30.73
 31
0.0
  0
LINE
  5
94
330
1E
100
AcDbEntity
  8
default
  6
Continuous
 62
     1
100
AcDbLine
 10
-322.29
 20
-29.62
 30
0.0
 11
-327.41
 21
-30.73
 31
0.0
  0
LINE
  5
95
330
1E
100
AcDbEntity
  8
default
  6
Continuous
 62
     1
100
AcDbLine
 10
327.41
 20
-30.73
 30
0.0
 11
332.5
 21
-31.88
 31
0.0
  0
LINE
  5
96
330
1E
100
AcDbEntity
  8
default
  6
Continuous
 62
     1
100
AcDbLine
 10
-327.41
 20
-30.73
 30
0.0
 11
-332.5
 21
-31.88
 31
0.0
  0
LINE
  5
97
330
1E
100
AcDbEntity
  8
default
  6
Continuous
 62
     1
100
AcDbLine
 10
332.5
 20
-31.88
 30
0.0
 11
337.5599999999999
 21
-33.06
 31
0.0
  0
LINE
  5
98
330
1E
100
AcDbEntity
  8
default
  6
Continuous
 62
     1
100
AcDbLine
 10
-332.5
 20
-31.88
 30
0.0
 11
-337.5599999999999
 21
-33.06
 31
0.0
  0
LINE
  5
99
330
1E
100
AcDbEntity
  8
default
  6
Continuous
 62
     1
100
AcDbLine
 10
337.5599999999999
 20
-33.06
 30
0.0
 11
342.5899999999999
 21
-34.27
 31
0.0
  0
LINE
  5
9A
330
1E
100
AcDbEntity
  8
default
  6
Continuous
 62
     1
100
AcDbLine
 10
-337.5599999999999
 20
-33.06
 30
0.0
 11
-342.5899999999999
 21
-34.27
 31
0.0
  0
LINE
  5
9B
330
1E
100
AcDbEntity
  8
default
  6
Continuous
 62
     1
100
AcDbLine
 10
342.5899999999999
 20
-34.27
 30
0.0
 11
347.58
 21
-35.52
 31
0.0
  0
LINE
  5
9C
330
1E
100
AcDbEntity
  8
default
  6
Continuous
 62
     1
100
AcDbLine
 10
-342.5899999999999
 20
-34.27
 30
0.0
 11
-347.58
 21
-35.52
 31
0.0
  0
LINE
  5
9D
330
1E
100
AcDbEntity
  8
default
  6
Continuous
 62
     1
100
AcDbLine
 10
347.58
 20
-35.52
 30
0.0
 11
352.5299999999999
 21
-36.79999999999999
 31
0.0
  0
LINE
  5
9E
330
1E
100
AcDbEntity
  8
default
  6
Continuous
 62
     1
100
AcDbLine
 10
-347.58
 20
-35.52
 30
0.0
 11
-352.5299999999999
 21
-36.79999999999999
 31
0.0
  0
LINE
  5
9F
330
1E
100
AcDbEntity
  8
default
  6
Continuous
 62
     1
100
AcDbLine
 10
352.5299999999999
 20
-36.79999999999999
 30
0.0
 11
357.45
 21
-38.11999999999999
 31
0.0
  0
LINE
  5
A0
330
1E
100
AcDbEntity
  8
default
  6
Continuous
 62
     1
100
AcDbLine
 10
-352.5299999999999
 20
-36.79999999999999
 30
0.0
 11
-357.45
 21
-38.11999999999999
 31
0.0
  0
LINE
  5
A1
330
1E
100
AcDbEntity
  8
default
  6
Continuous
 62
     1
100
AcDbLine
 10
357.45
 20
-38.11999999999999
 30
0.0
 11
362.3399999999999
 21
-39.46
 31
0.0
  0
LINE
  5
A2
330
1E
100
AcDbEntity
  8
default
  6
Continuous
 62
     1
100
AcDbLine
 10
-357.45
 20
-38.11999999999999
 30
0.0
 11
-362.3399999999999
 21
-39.46
 31
0.0
  0
LINE
  5
A3
330
1E
100
AcDbEntity
  8
default
  6
Continuous
 62
     1
100
AcDbLine
 10
362.3399999999999
 20
-39.46
 30
0.0
 11
367.18
 21
-40.84
 31
0.0
  0
LINE
  5
A4
330
1E
100
AcDbEntity
  8
default
  6
Continuous
 62
     1
100
AcDbLine
 10
-362.3399999999999
 20
-39.46
 30
0.0
 11
-367.18
 21
-40.84
 31
0.0
  0
LINE
  5
A5
330
1E
100
AcDbEntity
  8
default
  6
Continuous
 62
     1
100
AcDbLine
 10
367.18
 20
-40.84
 30
0.0
 11
372.0
 21
-42.24
 31
0.0
  0
LINE
  5
A6
330
1E
100
AcDbEntity
  8
default
  6
Continuous
 62
     1
100
AcDbLine
 10
-367.18
 20
-40.84
 30
0.0
 11
-372.0
 21
-42.24
 31
0.0
  0
LINE
  5
A7
330
1E
100
AcDbEntity
  8
default
  6
Continuous
 62
     1
100
AcDbLine
 10
372.0
 20
-42.24
 30
0.0
 11
376.77
 21
-43.68
 31
0.0
  0
LINE
  5
A8
330
1E
100
AcDbEntity
  8
default
  6
Continuous
 62
     1
100
AcDbLine
 10
-372.0
 20
-42.24
 30
0.0
 11
-376.77
 21
-43.68
 31
0.0
  0
LINE
  5
A9
330
1E
100
AcDbEntity
  8
default
  6
Continuous
 62
     1
100
AcDbLine
 10
376.77
 20
-43.68
 30
0.0
 11
381.51
 21
-45.14999999999999
 31
0.0
  0
LINE
  5
AA
330
1E
100
AcDbEntity
  8
default
  6
Continuous
 62
     1
100
AcDbLine
 10
-376.77
 20
-43.68
 30
0.0
 11
-381.51
 21
-45.14999999999999
 31
0.0
  0
LINE
  5
AB
330
1E
100
AcDbEntity
  8
default
  6
Continuous
 62
     1
100
AcDbLine
 10
381.51
 20
-45.14999999999999
 30
0.0
 11
386.2099999999999
 21
-46.65
 31
0.0
  0
LINE
  5
AC
330
1E
100
AcDbEntity
  8
default
  6
Continuous
 62
     1
100
AcDbLine
 10
-381.51
 20
-45.14999999999999
 30
0.0
 11
-386.2099999999999
 21
-46.65
 31
0.0
  0
LINE
  5
AD
330
1E
100
AcDbEntity
  8
default
  6
Continuous
 62
     1
100
AcDbLine
 10
386.2099999999999
 20
-46.65
 30
0.0
 11
390.8699999999999
 21
-48.17
 31
0.0
  0
LINE
  5
AE
330
1E
100
AcDbEntity
  8
default
  6
Continuous
 62
     1
100
AcDbLine
 10
-386.2099999999999
 20
-46.65
 30
0.0
 11
-390.8699999999999
 21
-48.17
 31
0.0
  0
LINE
  5
AF
330
1E
100
AcDbEntity
  8
default
  6
Continuous
 62
     1
100
AcDbLine
 10
390.8699999999999
 20
-48.17
 30
0.0
 11
395.49
 21
-49.72999999999999
 31
0.0
  0
LINE
  5
B0
330
1E
100
AcDbEntity
  8
default
  6
Continuous
 62
     1
100
AcDbLine
 10
-390.8699999999999
 20
-48.17
 30
0.0
 11
-395.49
 21
-49.72999999999999
 31
0.0
  0
LINE
  5
B1
330
1E
100
AcDbEntity
  8
default
  6
Continuous
 62
     1
100
AcDbLine
 10
395.49
 20
-49.72999999999999
 30
0.0
 11
400.07
 21
-51.31
 31
0.0
  0
LINE
  5
B2
330
1E
100
AcDbEntity
  8
default
  6
Continuous
 62
     1
100
AcDbLine
 10
-395.49
 20
-49.72999999999999
 30
0.0
 11
-400.07
 21
-51.31
 31
0.0
  0
LINE
  5
B3
330
1E
100
AcDbEntity
  8
default
  6
Continuous
 62
     1
100
AcDbLine
 10
400.07
 20
-51.31
 30
0.0
 11
404.61
 21
-52.92
 31
0.0
  0
LINE
  5
B4
330
1E
100
AcDbEntity
  8
default
  6
Continuous
 62
     1
100
AcDbLine
 10
-400.07
 20
-51.31
 30
0.0
 11
-404.61
 21
-52.92
 31
0.0
  0
LINE
  5
B5
330
1E
100
AcDbEntity
  8
default
  6
Continuous
 62
     1
100
AcDbLine
 10
404.61
 20
-52.92
 30
0.0
 11
409.1099999999999
 21
-54.55
 31
0.0
  0
LINE
  5
B6
330
1E
100
AcDbEntity
  8
default
  6
Continuous
 62
     1
100
AcDbLine
 10
-404.61
 20
-52.92
 30
0.0
 11
-409.1099999999999
 21
-54.55
 31
0.0
  0
LINE
  5
B7
330
1E
100
AcDbEntity
  8
default
  6
Continuous
 62
     1
100
AcDbLine
 10
409.1099999999999
 20
-54.55
 30
0.0
 11
413.5699999999999
 21
-56.21
 31
0.0
  0
LINE
  5
B8
330
1E
100
AcDbEntity
  8
default
  6
Continuous
 62
     1
100
AcDbLine
 10
-409.1099999999999
 20
-54.55
 30
0.0
 11
-413.5699999999999
 21
-56.21
 31
0.0
  0
LINE
  5
B9
330
1E
100
AcDbEntity
  8
default
  6
Continuous
 62
     1
100
AcDbLine
 10
413.5699999999999
 20
-56.21
 30
0.0
 11
417.9899999999999
 21
-57.9
 31
0.0
  0
LINE
  5
BA
330
1E
100
AcDbEntity
  8
default
  6
Continuous
 62
     1
100
AcDbLine
 10
-413.5699999999999
 20
-56.21
 30
0.0
 11
-417.9899999999999
 21
-57.9
 31
0.0
  0
LINE
  5
BB
330
1E
100
AcDbEntity
  8
default
  6
Continuous
 62
     1
100
AcDbLine
 10
417.9899999999999
 20
-57.9
 30
0.0
 11
422.37
 21
-59.61
 31
0.0
  0
LINE
  5
BC
330
1E
100
AcDbEntity
  8
default
  6
Continuous
 62
     1
100
AcDbLine
 10
-417.9899999999999
 20
-57.9
 30
0.0
 11
-422.37
 21
-59.61
 31
0.0
  0
LINE
  5
BD
330
1E
100
AcDbEntity
  8
default
  6
Continuous
 62
     1
100
AcDbLine
 10
422.37
 20
-59.61
 30
0.0
 11
426.7
 21
-61.34
 31
0.0
  0
LINE
  5
BE
330
1E
100
AcDbEntity
  8
default
  6
Continuous
 62
     1
100
AcDbLine
 10
-422.37
 20
-59.61
 30
0.0
 11
-426.7
 21
-61.34
 31
0.0
  0
LINE
  5
BF
330
1E
100
AcDbEntity
  8
default
  6
Continuous
 62
     1
100
AcDbLine
 10
426.7
 20
-61.34
 30
0.0
 11
430.9899999999999
 21
-63.1
 31
0.0
  0
LINE
  5
C0
330
1E
100
AcDbEntity
  8
default
  6
Continuous
 62
     1
100
AcDbLine
 10
-426.7
 20
-61.34
 30
0.0
 11
-430.9899999999999
 21
-63.1
 31
0.0
  0
LINE
  5
C1
330
1E
100
AcDbEntity
  8
default
  6
Continuous
 62
     1
100
AcDbLine
 10
430.9899999999999
 20
-63.1
 30
0.0
 11
435.24
 21
-64.87999999999999
 31
0.0
  0
LINE
  5
C2
330
1E
100
AcDbEntity
  8
default
  6
Continuous
 62
     1
100
AcDbLine
 10
-430.9899999999999
 20
-63.1
 30
0.0
 11
-435.24
 21
-64.87999999999999
 31
0.0
  0
LINE
  5
C3
330
1E
100
AcDbEntity
  8
default
  6
Continuous
 62
     1
100
AcDbLine
 10
435.24
 20
-64.87999999999999
 30
0.0
 11
439.4499999999999
 21
-66.69
 31
0.0
  0
LINE
  5
C4
330
1E
100
AcDbEntity
  8
default
  6
Continuous
 62
     1
100
AcDbLine
 10
-435.24
 20
-64.87999999999999
 30
0.0
 11
-439.4499999999999
 21
-66.69
 31
0.0
  0
LINE
  5
C5
330
1E
100
AcDbEntity
  8
default
  6
Continuous
 62
     1
100
AcDbLine
 10
439.4499999999999
 20
-66.69
 30
0.0
 11
443.61
 21
-68.51
 31
0.0
  0
LINE
  5
C6
330
1E
100
AcDbEntity
  8
default
  6
Continuous
 62
     1
100
AcDbLine
 10
-439.4499999999999
 20
-66.69
 30
0.0
 11
-443.61
 21
-68.51
 31
0.0
  0
LINE
  5
C7
330
1E
100
AcDbEntity
  8
default
  6
Continuous
 62
     1
100
AcDbLine
 10
443.61
 20
-68.51
 30
0.0
 11
447.72
 21
-70.36
 31
0.0
  0
LINE
  5
C8
330
1E
100
AcDbEntity
  8
default
  6
Continuous
 62
     1
100
AcDbLine
 10
-443.61
 20
-68.51
 30
0.0
 11
-447.72
 21
-70.36
 31
0.0
  0
LINE
  5
C9
330
1E
100
AcDbEntity
  8
default
  6
Continuous
 62
     1
100
AcDbLine
 10
447.72
 20
-70.36
 30
0.0
 11
451.7999999999999
 21
-72.23
 31
0.0
  0
LINE
  5
CA
330
1E
100
AcDbEntity
  8
default
  6
Continuous
 62
     1
100
AcDbLine
 10
-447.72
 20
-70.36
 30
0.0
 11
-451.7999999999999
 21
-72.23
 31
0.0
  0
LINE
  5
CB
330
1E
100
AcDbEntity
  8
default
  6
Continuous
 62
     1
100
AcDbLine
 10
451.7999999999999
 20
-72.23
 30
0.0
 11
455.82
 21
-74.11
 31
0.0
  0
LINE
  5
CC
330
1E
100
AcDbEntity
  8
default
  6
Continuous
 62
     1
100
AcDbLine
 10
-451.7999999999999
 20
-72.23
 30
0.0
 11
-455.82
 21
-74.11
 31
0.0
  0
LINE
  5
CD
330
1E
100
AcDbEntity
  8
default
  6
Continuous
 62
     1
100
AcDbLine
 10
455.82
 20
-74.11
 30
0.0
 11
459.81
 21
-76.02
 31
0.0
  0
LINE
  5
CE
330
1E
100
AcDbEntity
  8
default
  6
Continuous
 62
     1
100
AcDbLine
 10
-455.82
 20
-74.11
 30
0.0
 11
-459.81
 21
-76.02
 31
0.0
  0
LINE
  5
CF
330
1E
100
AcDbEntity
  8
default
  6
Continuous
 62
     1
100
AcDbLine
 10
459.81
 20
-76.02
 30
0.0
 11
463.74
 21
-77.95
 31
0.0
  0
LINE
  5
D0
330
1E
100
AcDbEntity
  8
default
  6
Continuous
 62
     1
100
AcDbLine
 10
-459.81
 20
-76.02
 30
0.0
 11
-463.74
 21
-77.95
 31
0.0
  0
LINE
  5
D1
330
1E
100
AcDbEntity
  8
default
  6
Continuous
 62
     1
100
AcDbLine
 10
463.74
 20
-77.95
 30
0.0
 11
467.63
 21
-79.89
 31
0.0
  0
LINE
  5
D2
330
1E
100
AcDbEntity
  8
default
  6
Continuous
 62
     1
100
AcDbLine
 10
-463.74
 20
-77.95
 30
0.0
 11
-467.63
 21
-79.89
 31
0.0
  0
LINE
  5
D3
330
1E
100
AcDbEntity
  8
default
  6
Continuous
 62
     1
100
AcDbLine
 10
467.63
 20
-79.89
 30
0.0
 11
471.47
 21
-81.85
 31
0.0
  0
LINE
  5
D4
330
1E
100
AcDbEntity
  8
default
  6
Continuous
 62
     1
100
AcDbLine
 10
-467.63
 20
-79.89
 30
0.0
 11
-471.47
 21
-81.85
 31
0.0
  0
LINE
  5
D5
330
1E
100
AcDbEntity
  8
default
  6
Continuous
 62
     1
100
AcDbLine
 10
471.47
 20
-81.85
 30
0.0
 11
475.2699999999999
 21
-83.83
 31
0.0
  0
LINE
  5
D6
330
1E
100
AcDbEntity
  8
default
  6
Continuous
 62
     1
100
AcDbLine
 10
-471.47
 20
-81.85
 30
0.0
 11
-475.2699999999999
 21
-83.83
 31
0.0
  0
LINE
  5
D7
330
1E
100
AcDbEntity
  8
default
  6
Continuous
 62
     1
100
AcDbLine
 10
475.2699999999999
 20
-83.83
 30
0.0
 11
479.0199999999999
 21
-85.83
 31
0.0
  0
LINE
  5
D8
330
1E
100
AcDbEntity
  8
default
  6
Continuous
 62
     1
100
AcDbLine
 10
-475.2699999999999
 20
-83.83
 30
0.0
 11
-479.0199999999999
 21
-85.83
 31
0.0
  0
LINE
  5
D9
330
1E
100
AcDbEntity
  8
default
  6
Continuous
 62
     1
100
AcDbLine
 10
479.0199999999999
 20
-85.83
 30
0.0
 11
482.72
 21
-87.84
 31
0.0
  0
LINE
  5
DA
330
1E
100
AcDbEntity
  8
default
  6
Continuous
 62
     1
100
AcDbLine
 10
-479.0199999999999
 20
-85.83
 30
0.0
 11
-482.72
 21
-87.84
 31
0.0
  0
LINE
  5
DB
330
1E
100
AcDbEntity
  8
default
  6
Continuous
 62
     1
100
AcDbLine
 10
482.72
 20
-87.84
 30
0.0
 11
486.37
 21
-89.87
 31
0.0
  0
LINE
  5
DC
330
1E
100
AcDbEntity
  8
default
  6
Continuous
 62
     1
100
AcDbLine
 10
-482.72
 20
-87.84
 30
0.0
 11
-486.37
 21
-89.87
 31
0.0
  0
LINE
  5
DD
330
1E
100
AcDbEntity
  8
default
  6
Continuous
 62
     1
100
AcDbLine
 10
486.37
 20
-89.87
 30
0.0
 11
489.97
 21
-91.91
 31
0.0
  0
LINE
  5
DE
330
1E
100
AcDbEntity
  8
default
  6
Continuous
 62
     1
100
AcDbLine
 10
-486.37
 20
-89.87
 30
0.0
 11
-489.97
 21
-91.91
 31
0.0
  0
LINE
  5
DF
330
1E
100
AcDbEntity
  8
default
  6
Continuous
 62
     1
100
AcDbLine
 10
489.97
 20
-91.91
 30
0.0
 11
493.52
 21
-93.95999999999999
 31
0.0
  0
LINE
  5
E0
330
1E
100
AcDbEntity
  8
default
  6
Continuous
 62
     1
100
AcDbLine
 10
-489.97
 20
-91.91
 30
0.0
 11
-493.52
 21
-93.95999999999999
 31
0.0
  0
LINE
  5
E1
330
1E
100
AcDbEntity
  8
default
  6
Continuous
 62
     1
100
AcDbLine
 10
493.52
 20
-93.95999999999999
 30
0.0
 11
497.0299999999999
 21
-96.03000000000001
 31
0.0
  0
LINE
  5
E2
330
1E
100
AcDbEntity
  8
default
  6
Continuous
 62
     1
100
AcDbLine
 10
-493.52
 20
-93.95999999999999
 30
0.0
 11
-497.0299999999999
 21
-96.03000000000001
 31
0.0
  0
LINE
  5
E3
330
1E
100
AcDbEntity
  8
default
  6
Continuous
 62
     1
100
AcDbLine
 10
497.0299999999999
 20
-96.03000000000001
 30
0.0
 11
500.48
 21
-98.10999999999999
 31
0.0
  0
LINE
  5
E4
330
1E
100
AcDbEntity
  8
default
  6
Continuous
 62
     1
100
AcDbLine
 10
-497.0299999999999
 20
-96.03000000000001
 30
0.0
 11
-500.48
 21
-98.10999999999999
 31
0.0
  0
LINE
  5
E5
330
1E
100
AcDbEntity
  8
default
  6
Continuous
 62
     1
100
AcDbLine
 10
500.48
 20
-98.10999999999999
 30
0.0
 11
503.8899999999999
 21
-100.2099999999999
 31
0.0
  0
LINE
  5
E6
330
1E
100
AcDbEntity
  8
default
  6
Continuous
 62
     1
100
AcDbLine
 10
-500.48
 20
-98.10999999999999
 30
0.0
 11
-503.8899999999999
 21
-100.2099999999999
 31
0.0
  0
LINE
  5
E7
330
1E
100
AcDbEntity
  8
default
  6
Continuous
 62
     1
100
AcDbLine
 10
503.8899999999999
 20
-100.2099999999999
 30
0.0
 11
507.24
 21
-102.31
 31
0.0
  0
LINE
  5
E8
330
1E
100
AcDbEntity
  8
default
  6
Continuous
 62
     1
100
AcDbLine
 10
-503.8899999999999
 20
-100.2099999999999
 30
0.0
 11
-507.24
 21
-102.31
 31
0.0
  0
LINE
  5
E9
330
1E
100
AcDbEntity
  8
default
  6
Continuous
 62
     1
100
AcDbLine
 10
507.24
 20
-102.31
 30
0.0
 11
510.55
 21
-104.43
 31
0.0
  0
LINE
  5
EA
330
1E
100
AcDbEntity
  8
default
  6
Continuous
 62
     1
100
AcDbLine
 10
-507.24
 20
-102.31
 30
0.0
 11
-510.55
 21
-104.43
 31
0.0
  0
LINE
  5
EB
330
1E
100
AcDbEntity
  8
default
  6
Continuous
 62
     1
100
AcDbLine
 10
510.55
 20
-104.43
 30
0.0
 11
513.7999999999999
 21
-106.56
 31
0.0
  0
LINE
  5
EC
330
1E
100
AcDbEntity
  8
default
  6
Continuous
 62
     1
100
AcDbLine
 10
-510.55
 20
-104.43
 30
0.0
 11
-513.7999999999999
 21
-106.56
 31
0.0
  0
LINE
  5
ED
330
1E
100
AcDbEntity
  8
default
  6
Continuous
 62
     1
100
AcDbLine
 10
513.7999999999999
 20
-106.56
 30
0.0
 11
517.0
 21
-108.6999999999999
 31
0.0
  0
LINE
  5
EE
330
1E
100
AcDbEntity
  8
default
  6
Continuous
 62
     1
100
AcDbLine
 10
-513.7999999999999
 20
-106.56
 30
0.0
 11
-517.0
 21
-108.6999999999999
 31
0.0
  0
LINE
  5
EF
330
1E
100
AcDbEntity
  8
default
  6
Continuous
 62
     1
100
AcDbLine
 10
517.0
 20
-108.6999999999999
 30
0.0
 11
520.15
 21
-110.84
 31
0.0
  0
LINE
  5
F0
330
1E
100
AcDbEntity
  8
default
  6
Continuous
 62
     1
100
AcDbLine
 10
-517.0
 20
-108.6999999999999
 30
0.0
 11
-520.15
 21
-110.84
 31
0.0
  0
LINE
  5
F1
330
1E
100
AcDbEntity
  8
default
  6
Continuous
 62
     1
100
AcDbLine
 10
520.15
 20
-110.84
 30
0.0
 11
523.2499999999999
 21
-113.0
 31
0.0
  0
LINE
  5
F2
330
1E
100
AcDbEntity
  8
default
  6
Continuous
 62
     1
100
AcDbLine
 10
-520.15
 20
-110.84
 30
0.0
 11
-523.2499999999999
 21
-113.0
 31
0.0
  0
LINE
  5
F3
330
1E
100
AcDbEntity
  8
default
  6
Continuous
 62
     1
100
AcDbLine
 10
523.2499999999999
 20
-113.0
 30
0.0
 11
526.29
 21
-115.1599999999999
 31
0.0
  0
LINE
  5
F4
330
1E
100
AcDbEntity
  8
default
  6
Continuous
 62
     1
100
AcDbLine
 10
-523.2499999999999
 20
-113.0
 30
0.0
 11
-526.29
 21
-115.1599999999999
 31
0.0
  0
LINE
  5
F5
330
1E
100
AcDbEntity
  8
default
  6
Continuous
 62
     1
100
AcDbLine
 10
526.29
 20
-115.1599999999999
 30
0.0
 11
529.2799999999999
 21
-117.3399999999999
 31
0.0
  0
LINE
  5
F6
330
1E
100
AcDbEntity
  8
default
  6
Continuous
 62
     1
100
AcDbLine
 10
-526.29
 20
-115.1599999999999
 30
0.0
 11
-529.2799999999999
 21
-117.3399999999999
 31
0.0
  0
LINE
  5
F7
330
1E
100
AcDbEntity
  8
default
  6
Continuous
 62
     1
100
AcDbLine
 10
529.2799999999999
 20
-117.3399999999999
 30
0.0
 11
532.22
 21
-119.52
 31
0.0
  0
LINE
  5
F8
330
1E
100
AcDbEntity
  8
default
  6
Continuous
 62
     1
100
AcDbLine
 10
-529.2799999999999
 20
-117.3399999999999
 30
0.0
 11
-532.22
 21
-119.52
 31
0.0
  0
LINE
  5
F9
330
1E
100
AcDbEntity
  8
default
  6
Continuous
 62
     1
100
AcDbLine
 10
532.22
 20
-119.52
 30
0.0
 11
535.11
 21
-121.7
 31
0.0
  0
LINE
  5
FA
330
1E
100
AcDbEntity
  8
default
  6
Continuous
 62
     1
100
AcDbLine
 10
-532.22
 20
-119.52
 30
0.0
 11
-535.11
 21
-121.7
 31
0.0
  0
LINE
  5
FB
330
1E
100
AcDbEntity
  8
default
  6
Continuous
 62
     1
100
AcDbLine
 10
535.11
 20
-121.7
 30
0.0
 11
537.94
 21
-123.89
 31
0.0
  0
LINE
  5
FC
330
1E
100
AcDbEntity
  8
default
  6
Continuous
 62
     1
100
AcDbLine
 10
-535.11
 20
-121.7
 30
0.0
 11
-537.94
 21
-123.89
 31
0.0
  0
LINE
  5
FD
330
1E
100
AcDbEntity
  8
default
  6
Continuous
 62
     1
100
AcDbLine
 10
537.94
 20
-123.89
 30
0.0
 11
540.72
 21
-126.09
 31
0.0
  0
LINE
  5
FE
330
1E
100
AcDbEntity
  8
default
  6
Continuous
 62
     1
100
AcDbLine
 10
-537.94
 20
-123.89
 30
0.0
 11
-540.72
 21
-126.09
 31
0.0
  0
LINE
  5
FF
330
1E
100
AcDbEntity
  8
default
  6
Continuous
 62
     1
100
AcDbLine
 10
540.72
 20
-126.09
 30
0.0
 11
543.45
 21
-128.2899999999999
 31
0.0
  0
LINE
  5
100
330
1E
100
AcDbEntity
  8
default
  6
Continuous
 62
     1
100
AcDbLine
 10
-540.72
 20
-126.09
 30
0.0
 11
-543.45
 21
-128.2899999999999
 31
0.0
  0
LINE
  5
101
330
1E
100
AcDbEntity
  8
default
  6
Continuous
 62
     1
100
AcDbLine
 10
543.45
 20
-128.2899999999999
 30
0.0
 11
546.1199999999999
 21
-130.4999999999999
 31
0.0
  0
LINE
  5
102
330
1E
100
AcDbEntity
  8
default
  6
Continuous
 62
     1
100
AcDbLine
 10
-543.45
 20
-128.2899999999999
 30
0.0
 11
-546.1199999999999
 21
-130.4999999999999
 31
0.0
  0
LINE
  5
103
330
1E
100
AcDbEntity
  8
default
  6
Continuous
 62
     1
100
AcDbLine
 10
546.1199999999999
 20
-130.4999999999999
 30
0.0
 11
548.73
 21
-132.71
 31
0.0
  0
LINE
  5
104
330
1E
100
AcDbEntity
  8
default
  6
Continuous
 62
     1
100
AcDbLine
 10
-546.1199999999999
 20
-130.4999999999999
 30
0.0
 11
-548.73
 21
-132.71
 31
0.0
  0
LINE
  5
105
330
1E
100
AcDbEntity
  8
default
  6
Continuous
 62
     1
100
AcDbLine
 10
548.73
 20
-132.71
 30
0.0
 11
551.29
 21
-134.93
 31
0.0
  0
LINE
  5
106
330
1E
100
AcDbEntity
  8
default
  6
Continuous
 62
     1
100
AcDbLine
 10
-548.73
 20
-132.71
 30
0.0
 11
-551.29
 21
-134.93
 31
0.0
  0
LINE
  5
107
330
1E
100
AcDbEntity
  8
default
  6
Continuous
 62
     1
100
AcDbLine
 10
551.29
 20
-134.93
 30
0.0
 11
553.7999999999999
 21
-137.1399999999999
 31
0.0
  0
LINE
  5
108
330
1E
100
AcDbEntity
  8
default
  6
Continuous
 62
     1
100
AcDbLine
 10
-551.29
 20
-134.93
 30
0.0
 11
-553.7999999999999
 21
-137.1399999999999
 31
0.0
  0
LINE
  5
109
330
1E
100
AcDbEntity
  8
default
  6
Continuous
 62
     1
100
AcDbLine
 10
553.7999999999999
 20
-137.1399999999999
 30
0.0
 11
556.25
 21
-139.36
 31
0.0
  0
LINE
  5
10A
330
1E
100
AcDbEntity
  8
default
  6
Continuous
 62
     1
100
AcDbLine
 10
-553.7999999999999
 20
-137.1399999999999
 30
0.0
 11
-556.25
 21
-139.36
 31
0.0
  0
LINE
  5
10B
330
1E
100
AcDbEntity
  8
default
  6
Continuous
 62
     1
100
AcDbLine
 10
556.25
 20
-139.36
 30
0.0
 11
558.65
 21
-141.58
 31
0.0
  0
LINE
  5
10C
330
1E
100
AcDbEntity
  8
default
  6
Continuous
 62
     1
100
AcDbLine
 10
-556.25
 20
-139.36
 30
0.0
 11
-558.65
 21
-141.58
 31
0.0
  0
LINE
  5
10D
330
1E
100
AcDbEntity
  8
default
  6
Continuous
 62
     1
100
AcDbLine
 10
558.65
 20
-141.58
 30
0.0
 11
560.99
 21
-143.8
 31
0.0
  0
LINE
  5
10E
330
1E
100
AcDbEntity
  8
default
  6
Continuous
 62
     1
100
AcDbLine
 10
-558.65
 20
-141.58
 30
0.0
 11
-560.99
 21
-143.8
 31
0.0
  0
LINE
  5
10F
330
1E
100
AcDbEntity
  8
default
  6
Continuous
 62
     1
100
AcDbLine
 10
560.99
 20
-143.8
 30
0.0
 11
563.2699999999999
 21
-146.0299999999999
 31
0.0
  0
LINE
  5
110
330
1E
100
AcDbEntity
  8
default
  6
Continuous
 62
     1
100
AcDbLine
 10
-560.99
 20
-143.8
 30
0.0
 11
-563.2699999999999
 21
-146.0299999999999
 31
0.0
  0
LINE
  5
111
330
1E
100
AcDbEntity
  8
default
  6
Continuous
 62
     1
100
AcDbLine
 10
563.2699999999999
 20
-146.0299999999999
 30
0.0
 11
565.0
 21
-147.75
 31
0.0
  0
LINE
  5
112
330
1E
100
AcDbEntity
  8
default
  6
Continuous
 62
     1
100
AcDbLine
 10
-563.2699999999999
 20
-146.0299999999999
 30
0.0
 11
-565.0
 21
-147.75
 31
0.0
  0
LINE
  5
113
330
1E
100
AcDbEntity
  8
default
  6
Continuous
 62
     1
100
AcDbLine
 10
0.0
 20
-254.49
 30
0.0
 11
6.99
 21
-254.4799999999999
 31
0.0
  0
LINE
  5
114
330
1E
100
AcDbEntity
  8
default
  6
Continuous
 62
     1
100
AcDbLine
 10
0.0
 20
-254.49
 30
0.0
 11
-6.99
 21
-254.4799999999999
 31
0.0
  0
LINE
  5
115
330
1E
100
AcDbEntity
  8
default
  6
Continuous
 62
     1
100
AcDbLine
 10
6.99
 20
-254.4799999999999
 30
0.0
 11
13.97
 21
-254.47
 31
0.0
  0
LINE
  5
116
330
1E
100
AcDbEntity
  8
default
  6
Continuous
 62
     1
100
AcDbLine
 10
-6.99
 20
-254.4799999999999
 30
0.0
 11
-13.97
 21
-254.47
 31
0.0
  0
LINE
  5
117
330
1E
100
AcDbEntity
  8
default
  6
Continuous
 62
     1
100
AcDbLine
 10
13.97
 20
-254.47
 30
0.0
 11
20.96
 21
-254.4399999999999
 31
0.0
  0
LINE
  5
118
330
1E
100
AcDbEntity
  8
default
  6
Continuous
 62
     1
100
AcDbLine
 10
-13.97
 20
-254.47
 30
0.0
 11
-20.96
 21
-254.4399999999999
 31
0.0
  0
LINE
  5
119
330
1E
100
AcDbEntity
  8
default
  6
Continuous
 62
     1
100
AcDbLine
 10
20.96
 20
-254.4399999999999
 30
0.0
 11
27.94
 21
-254.4
 31
0.0
  0
LINE
  5
11A
330
1E
100
AcDbEntity
  8
default
  6
Continuous
 62
     1
100
AcDbLine
 10
-20.96
 20
-254.4399999999999
 30
0.0
 11
-27.94
 21
-254.4
 31
0.0
  0
LINE
  5
11B
330
1E
100
AcDbEntity
  8
default
  6
Continuous
 62
     1
100
AcDbLine
 10
27.94
 20
-254.4
 30
0.0
 11
34.92
 21
-254.3499999999999
 31
0.0
  0
LINE
  5
11C
330
1E
100
AcDbEntity
  8
default
  6
Continuous
 62
     1
100
AcDbLine
 10
-27.94
 20
-254.4
 30
0.0
 11
-34.92
 21
-254.3499999999999
 31
0.0
  0
LINE
  5
11D
330
1E
100
AcDbEntity
  8
default
  6
Continuous
 62
     1
100
AcDbLine
 10
34.92
 20
-254.3499999999999
 30
0.0
 11
41.9
 21
-254.28
 31
0.0
  0
LINE
  5
11E
330
1E
100
AcDbEntity
  8
default
  6
Continuous
 62
     1
100
AcDbLine
 10
-34.92
 20
-254.3499999999999
 30
0.0
 11
-41.9
 21
-254.28
 31
0.0
  0
LINE
  5
11F
330
1E
100
AcDbEntity
  8
default
  6
Continuous
 62
     1
100
AcDbLine
 10
41.9
 20
-254.28
 30
0.0
 11
48.87
 21
-254.21
 31
0.0
  0
LINE
  5
120
330
1E
100
AcDbEntity
  8
default
  6
Continuous
 62
     1
100
AcDbLine
 10
-41.9
 20
-254.28
 30
0.0
 11
-48.87
 21
-254.21
 31
0.0
  0
LINE
  5
121
330
1E
100
AcDbEntity
  8
default
  6
Continuous
 62
     1
100
AcDbLine
 10
48.87
 20
-254.21
 30
0.0
 11
55.84
 21
-254.13
 31
0.0
  0
LINE
  5
122
330
1E
100
AcDbEntity
  8
default
  6
Continuous
 62
     1
100
AcDbLine
 10
-48.87
 20
-254.21
 30
0.0
 11
-55.84
 21
-254.13
 31
0.0
  0
LINE
  5
123
330
1E
100
AcDbEntity
  8
default
  6
Continuous
 62
     1
100
AcDbLine
 10
55.84
 20
-254.13
 30
0.0
 11
62.8
 21
-254.03
 31
0.0
  0
LINE
  5
124
330
1E
100
AcDbEntity
  8
default
  6
Continuous
 62
     1
100
AcDbLine
 10
-55.84
 20
-254.13
 30
0.0
 11
-62.8
 21
-254.03
 31
0.0
  0
LINE
  5
125
330
1E
100
AcDbEntity
  8
default
  6
Continuous
 62
     1
100
AcDbLine
 10
62.8
 20
-254.03
 30
0.0
 11
69.76
 21
-253.92
 31
0.0
  0
LINE
  5
126
330
1E
100
AcDbEntity
  8
default
  6
Continuous
 62
     1
100
AcDbLine
 10
-62.8
 20
-254.03
 30
0.0
 11
-69.76
 21
-253.92
 31
0.0
  0
LINE
  5
127
330
1E
100
AcDbEntity
  8
default
  6
Continuous
 62
     1
100
AcDbLine
 10
69.76
 20
-253.92
 30
0.0
 11
76.70999999999999
 21
-253.8
 31
0.0
  0
LINE
  5
128
330
1E
100
AcDbEntity
  8
default
  6
Continuous
 62
     1
100
AcDbLine
 10
-69.76
 20
-253.92
 30
0.0
 11
-76.70999999999999
 21
-253.8
 31
0.0
  0
LINE
  5
129
330
1E
100
AcDbEntity
  8
default
  6
Continuous
 62
     1
100
AcDbLine
 10
76.70999999999999
 20
-253.8
 30
0.0
 11
83.65
 21
-253.6699999999999
 31
0.0
  0
LINE
  5
12A
330
1E
100
AcDbEntity
  8
default
  6
Continuous
 62
     1
100
AcDbLine
 10
-76.70999999999999
 20
-253.8
 30
0.0
 11
-83.65
 21
-253.6699999999999
 31
0.0
  0
LINE
  5
12B
330
1E
100
AcDbEntity
  8
default
  6
Continuous
 62
     1
100
AcDbLine
 10
83.65
 20
-253.6699999999999
 30
0.0
 11
90.57999999999999
 21
-253.5299999999999
 31
0.0
  0
LINE
  5
12C
330
1E
100
AcDbEntity
  8
default
  6
Continuous
 62
     1
100
AcDbLine
 10
-83.65
 20
-253.6699999999999
 30
0.0
 11
-90.57999999999999
 21
-253.5299999999999
 31
0.0
  0
LINE
  5
12D
330
1E
100
AcDbEntity
  8
default
  6
Continuous
 62
     1
100
AcDbLine
 10
90.57999999999999
 20
-253.5299999999999
 30
0.0
 11
97.5
 21
-253.37
 31
0.0
  0
LINE
  5
12E
330
1E
100
AcDbEntity
  8
default
  6
Continuous
 62
     1
100
AcDbLine
 10
-90.57999999999999
 20
-253.5299999999999
 30
0.0
 11
-97.5
 21
-253.37
 31
0.0
  0
LINE
  5
12F
330
1E
100
AcDbEntity
  8
default
  6
Continuous
 62
     1
100
AcDbLine
 10
97.5
 20
-253.37
 30
0.0
 11
104.42
 21
-253.21
 31
0.0
  0
LINE
  5
130
330
1E
100
AcDbEntity
  8
default
  6
Continuous
 62
     1
100
AcDbLine
 10
-97.5
 20
-253.37
 30
0.0
 11
-104.42
 21
-253.21
 31
0.0
  0
LINE
  5
131
330
1E
100
AcDbEntity
  8
default
  6
Continuous
 62
     1
100
AcDbLine
 10
104.42
 20
-253.21
 30
0.0
 11
111.3199999999999
 21
-253.0299999999999
 31
0.0
  0
LINE
  5
132
330
1E
100
AcDbEntity
  8
default
  6
Continuous
 62
     1
100
AcDbLine
 10
-104.42
 20
-253.21
 30
0.0
 11
-111.3199999999999
 21
-253.0299999999999
 31
0.0
  0
LINE
  5
133
330
1E
100
AcDbEntity
  8
default
  6
Continuous
 62
     1
100
AcDbLine
 10
111.3199999999999
 20
-253.0299999999999
 30
0.0
 11
118.2099999999999
 21
-252.85
 31
0.0
  0
LINE
  5
134
330
1E
100
AcDbEntity
  8
default
  6
Continuous
 62
     1
100
AcDbLine
 10
-111.3199999999999
 20
-253.0299999999999
 30
0.0
 11
-118.2099999999999
 21
-252.85
 31
0.0
  0
LINE
  5
135
330
1E
100
AcDbEntity
  8
default
  6
Continuous
 62
     1
100
AcDbLine
 10
118.2099999999999
 20
-252.85
 30
0.0
 11
125.09
 21
-252.6499999999999
 31
0.0
  0
LINE
  5
136
330
1E
100
AcDbEntity
  8
default
  6
Continuous
 62
     1
100
AcDbLine
 10
-118.2099999999999
 20
-252.85
 30
0.0
 11
-125.09
 21
-252.6499999999999
 31
0.0
  0
LINE
  5
137
330
1E
100
AcDbEntity
  8
default
  6
Continuous
 62
     1
100
AcDbLine
 10
125.09
 20
-252.6499999999999
 30
0.0
 11
131.96
 21
-252.4399999999999
 31
0.0
  0
LINE
  5
138
330
1E
100
AcDbEntity
  8
default
  6
Continuous
 62
     1
100
AcDbLine
 10
-125.09
 20
-252.6499999999999
 30
0.0
 11
-131.96
 21
-252.4399999999999
 31
0.0
  0
LINE
  5
139
330
1E
100
AcDbEntity
  8
default
  6
Continuous
 62
     1
100
AcDbLine
 10
131.96
 20
-252.4399999999999
 30
0.0
 11
138.8199999999999
 21
-252.22
 31
0.0
  0
LINE
  5
13A
330
1E
100
AcDbEntity
  8
default
  6
Continuous
 62
     1
100
AcDbLine
 10
-131.96
 20
-252.4399999999999
 30
0.0
 11
-138.8199999999999
 21
-252.22
 31
0.0
  0
LINE
  5
13B
330
1E
100
AcDbEntity
  8
default
  6
Continuous
 62
     1
100
AcDbLine
 10
138.8199999999999
 20
-252.22
 30
0.0
 11
145.6599999999999
 21
-251.99
 31
0.0
  0
LINE
  5
13C
330
1E
100
AcDbEntity
  8
default
  6
Continuous
 62
     1
100
AcDbLine
 10
-138.8199999999999
 20
-252.22
 30
0.0
 11
-145.6599999999999
 21
-251.99
 31
0.0
  0
LINE
  5
13D
330
1E
100
AcDbEntity
  8
default
  6
Continuous
 62
     1
100
AcDbLine
 10
145.6599999999999
 20
-251.99
 30
0.0
 11
152.4799999999999
 21
-251.74
 31
0.0
  0
LINE
  5
13E
330
1E
100
AcDbEntity
  8
default
  6
Continuous
 62
     1
100
AcDbLine
 10
-145.6599999999999
 20
-251.99
 30
0.0
 11
-152.4799999999999
 21
-251.74
 31
0.0
  0
LINE
  5
13F
330
1E
100
AcDbEntity
  8
default
  6
Continuous
 62
     1
100
AcDbLine
 10
152.4799999999999
 20
-251.74
 30
0.0
 11
159.29
 21
-251.49
 31
0.0
  0
LINE
  5
140
330
1E
100
AcDbEntity
  8
default
  6
Continuous
 62
     1
100
AcDbLine
 10
-152.4799999999999
 20
-251.74
 30
0.0
 11
-159.29
 21
-251.49
 31
0.0
  0
LINE
  5
141
330
1E
100
AcDbEntity
  8
default
  6
Continuous
 62
     1
100
AcDbLine
 10
159.29
 20
-251.49
 30
0.0
 11
166.0899999999999
 21
-251.2199999999999
 31
0.0
  0
LINE
  5
142
330
1E
100
AcDbEntity
  8
default
  6
Continuous
 62
     1
100
AcDbLine
 10
-159.29
 20
-251.49
 30
0.0
 11
-166.0899999999999
 21
-251.2199999999999
 31
0.0
  0
LINE
  5
143
330
1E
100
AcDbEntity
  8
default
  6
Continuous
 62
     1
100
AcDbLine
 10
166.0899999999999
 20
-251.2199999999999
 30
0.0
 11
172.87
 21
-250.95
 31
0.0
  0
LINE
  5
144
330
1E
100
AcDbEntity
  8
default
  6
Continuous
 62
     1
100
AcDbLine
 10
-166.0899999999999
 20
-251.2199999999999
 30
0.0
 11
-172.87
 21
-250.95
 31
0.0
  0
LINE
  5
145
330
1E
100
AcDbEntity
  8
default
  6
Continuous
 62
     1
100
AcDbLine
 10
172.87
 20
-250.95
 30
0.0
 11
179.63
 21
-250.66
 31
0.0
  0
LINE
  5
146
330
1E
100
AcDbEntity
  8
default
  6
Continuous
 62
     1
100
AcDbLine
 10
-172.87
 20
-250.95
 30
0.0
 11
-179.63
 21
-250.66
 31
0.0
  0
LINE
  5
147
330
1E
100
AcDbEntity
  8
default
  6
Continuous
 62
     1
100
AcDbLine
 10
179.63
 20
-250.66
 30
0.0
 11
186.37
 21
-250.36
 31
0.0
  0
LINE
  5
148
330
1E
100
AcDbEntity
  8
default
  6
Continuous
 62
     1
100
AcDbLine
 10
-179.63
 20
-250.66
 30
0.0
 11
-186.37
 21
-250.36
 31
0.0
  0
LINE
  5
149
330
1E
100
AcDbEntity
  8
default
  6
Continuous
 62
     1
100
AcDbLine
 10
186.37
 20
-250.36
 30
0.0
 11
193.1
 21
-250.05
 31
0.0
  0
LINE
  5
14A
330
1E
100
AcDbEntity
  8
default
  6
Continuous
 62
     1
100
AcDbLine
 10
-186.37
 20
-250.36
 30
0.0
 11
-193.1
 21
-250.05
 31
0.0
  0
LINE
  5
14B
330
1E
100
AcDbEntity
  8
default
  6
Continuous
 62
     1
100
AcDbLine
 10
193.1
 20
-250.05
 30
0.0
 11
199.8
 21
-249.73
 31
0.0
  0
LINE
  5
14C
330
1E
100
AcDbEntity
  8
default
  6
Continuous
 62
     1
100
AcDbLine
 10
-193.1
 20
-250.05
 30
0.0
 11
-199.8
 21
-249.73
 31
0.0
  0
LINE
  5
14D
330
1E
100
AcDbEntity
  8
default
  6
Continuous
 62
     1
100
AcDbLine
 10
199.8
 20
-249.73
 30
0.0
 11
206.49
 21
-249.4
 31
0.0
  0
LINE
  5
14E
330
1E
100
AcDbEntity
  8
default
  6
Continuous
 62
     1
100
AcDbLine
 10
-199.8
 20
-249.73
 30
0.0
 11
-206.49
 21
-249.4
 31
0.0
  0
LINE
  5
14F
330
1E
100
AcDbEntity
  8
default
  6
Continuous
 62
     1
100
AcDbLine
 10
206.49
 20
-249.4
 30
0.0
 11
213.1499999999999
 21
-249.06
 31
0.0
  0
LINE
  5
150
330
1E
100
AcDbEntity
  8
default
  6
Continuous
 62
     1
100
AcDbLine
 10
-206.49
 20
-249.4
 30
0.0
 11
-213.1499999999999
 21
-249.06
 31
0.0
  0
LINE
  5
151
330
1E
100
AcDbEntity
  8
default
  6
Continuous
 62
     1
100
AcDbLine
 10
213.1499999999999
 20
-249.06
 30
0.0
 11
219.7999999999999
 21
-248.71
 31
0.0
  0
LINE
  5
152
330
1E
100
AcDbEntity
  8
default
  6
Continuous
 62
     1
100
AcDbLine
 10
-213.1499999999999
 20
-249.06
 30
0.0
 11
-219.7999999999999
 21
-248.71
 31
0.0
  0
LINE
  5
153
330
1E
100
AcDbEntity
  8
default
  6
Continuous
 62
     1
100
AcDbLine
 10
219.7999999999999
 20
-248.71
 30
0.0
 11
226.4199999999999
 21
-248.34
 31
0.0
  0
LINE
  5
154
330
1E
100
AcDbEntity
  8
default
  6
Continuous
 62
     1
100
AcDbLine
 10
-219.7999999999999
 20
-248.71
 30
0.0
 11
-226.4199999999999
 21
-248.34
 31
0.0
  0
LINE
  5
155
330
1E
100
AcDbEntity
  8
default
  6
Continuous
 62
     1
100
AcDbLine
 10
226.4199999999999
 20
-248.34
 30
0.0
 11
233.02
 21
-247.97
 31
0.0
  0
LINE
  5
156
330
1E
100
AcDbEntity
  8
default
  6
Continuous
 62
     1
100
AcDbLine
 10
-226.4199999999999
 20
-248.34
 30
0.0
 11
-233.02
 21
-247.97
 31
0.0
  0
LINE
  5
157
330
1E
100
AcDbEntity
  8
default
  6
Continuous
 62
     1
100
AcDbLine
 10
233.02
 20
-247.97
 30
0.0
 11
239.59
 21
-247.58
 31
0.0
  0
LINE
  5
158
330
1E
100
AcDbEntity
  8
default
  6
Continuous
 62
     1
100
AcDbLine
 10
-233.02
 20
-247.97
 30
0.0
 11
-239.59
 21
-247.58
 31
0.0
  0
LINE
  5
159
330
1E
100
AcDbEntity
  8
default
  6
Continuous
 62
     1
100
AcDbLine
 10
239.59
 20
-247.58
 30
0.0
 11
246.1399999999999
 21
-247.19
 31
0.0
  0
LINE
  5
15A
330
1E
100
AcDbEntity
  8
default
  6
Continuous
 62
     1
100
AcDbLine
 10
-239.59
 20
-247.58
 30
0.0
 11
-246.1399999999999
 21
-247.19
 31
0.0
  0
LINE
  5
15B
330
1E
100
AcDbEntity
  8
default
  6
Continuous
 62
     1
100
AcDbLine
 10
246.1399999999999
 20
-247.19
 30
0.0
 11
252.6699999999999
 21
-246.7799999999999
 31
0.0
  0
LINE
  5
15C
330
1E
100
AcDbEntity
  8
default
  6
Continuous
 62
     1
100
AcDbLine
 10
-246.1399999999999
 20
-247.19
 30
0.0
 11
-252.6699999999999
 21
-246.7799999999999
 31
0.0
  0
LINE
  5
15D
330
1E
100
AcDbEntity
  8
default
  6
Continuous
 62
     1
100
AcDbLine
 10
252.6699999999999
 20
-246.7799999999999
 30
0.0
 11
259.17
 21
-246.36
 31
0.0
  0
LINE
  5
15E
330
1E
100
AcDbEntity
  8
default
  6
Continuous
 62
     1
100
AcDbLine
 10
-252.6699999999999
 20
-246.7799999999999
 30
0.0
 11
-259.17
 21
-246.36
 31
0.0
  0
LINE
  5
15F
330
1E
100
AcDbEntity
  8
default
  6
Continuous
 62
     1
100
AcDbLine
 10
259.17
 20
-246.36
 30
0.0
 11
265.6499999999999
 21
-245.94
 31
0.0
  0
LINE
  5
160
330
1E
100
AcDbEntity
  8
default
  6
Continuous
 62
     1
100
AcDbLine
 10
-259.17
 20
-246.36
 30
0.0
 11
-265.6499999999999
 21
-245.94
 31
0.0
  0
LINE
  5
161
330
1E
100
AcDbEntity
  8
default
  6
Continuous
 62
     1
100
AcDbLine
 10
265.6499999999999
 20
-245.94
 30
0.0
 11
272.1
 21
-245.5
 31
0.0
  0
LINE
  5
162
330
1E
100
AcDbEntity
  8
default
  6
Continuous
 62
     1
100
AcDbLine
 10
-265.6499999999999
 20
-245.94
 30
0.0
 11
-272.1
 21
-245.5
 31
0.0
  0
LINE
  5
163
330
1E
100
AcDbEntity
  8
default
  6
Continuous
 62
     1
100
AcDbLine
 10
272.1
 20
-245.5
 30
0.0
 11
278.5199999999999
 21
-245.05
 31
0.0
  0
LINE
  5
164
330
1E
100
AcDbEntity
  8
default
  6
Continuous
 62
     1
100
AcDbLine
 10
-272.1
 20
-245.5
 30
0.0
 11
-278.5199999999999
 21
-245.05
 31
0.0
  0
LINE
  5
165
330
1E
100
AcDbEntity
  8
default
  6
Continuous
 62
     1
100
AcDbLine
 10
278.5199999999999
 20
-245.05
 30
0.0
 11
284.91
 21
-244.5899999999999
 31
0.0
  0
LINE
  5
166
330
1E
100
AcDbEntity
  8
default
  6
Continuous
 62
     1
100
AcDbLine
 10
-278.5199999999999
 20
-245.05
 30
0.0
 11
-284.91
 21
-244.5899999999999
 31
0.0
  0
LINE
  5
167
330
1E
100
AcDbEntity
  8
default
  6
Continuous
 62
     1
100
AcDbLine
 10
284.91
 20
-244.5899999999999
 30
0.0
 11
291.2799999999999
 21
-244.12
 31
0.0
  0
LINE
  5
168
330
1E
100
AcDbEntity
  8
default
  6
Continuous
 62
     1
100
AcDbLine
 10
-284.91
 20
-244.5899999999999
 30
0.0
 11
-291.2799999999999
 21
-244.12
 31
0.0
  0
LINE
  5
169
330
1E
100
AcDbEntity
  8
default
  6
Continuous
 62
     1
100
AcDbLine
 10
291.2799999999999
 20
-244.12
 30
0.0
 11
297.62
 21
-243.6399999999999
 31
0.0
  0
LINE
  5
16A
330
1E
100
AcDbEntity
  8
default
  6
Continuous
 62
     1
100
AcDbLine
 10
-291.2799999999999
 20
-244.12
 30
0.0
 11
-297.62
 21
-243.6399999999999
 31
0.0
  0
LINE
  5
16B
330
1E
100
AcDbEntity
  8
default
  6
Continuous
 62
     1
100
AcDbLine
 10
297.62
 20
-243.6399999999999
 30
0.0
 11
303.92
 21
-243.15
 31
0.0
  0
LINE
  5
16C
330
1E
100
AcDbEntity
  8
default
  6
Continuous
 62
     1
100
AcDbLine
 10
-297.62
 20
-243.6399999999999
 30
0.0
 11
-303.92
 21
-243.15
 31
0.0
  0
LINE
  5
16D
330
1E
100
AcDbEntity
  8
default
  6
Continuous
 62
     1
100
AcDbLine
 10
303.92
 20
-243.15
 30
0.0
 11
310.1999999999999
 21
-242.65
 31
0.0
  0
LINE
  5
16E
330
1E
100
AcDbEntity
  8
default
  6
Continuous
 62
     1
100
AcDbLine
 10
-303.92
 20
-243.15
 30
0.0
 11
-310.1999999999999
 21
-242.65
 31
0.0
  0
LINE
  5
16F
330
1E
100
AcDbEntity
  8
default
  6
Continuous
 62
     1
100
AcDbLine
 10
310.1999999999999
 20
-242.65
 30
0.0
 11
316.4499999999999
 21
-242.1399999999999
 31
0.0
  0
LINE
  5
170
330
1E
100
AcDbEntity
  8
default
  6
Continuous
 62
     1
100
AcDbLine
 10
-310.1999999999999
 20
-242.65
 30
0.0
 11
-316.4499999999999
 21
-242.1399999999999
 31
0.0
  0
LINE
  5
171
330
1E
100
AcDbEntity
  8
default
  6
Continuous
 62
     1
100
AcDbLine
 10
316.4499999999999
 20
-242.1399999999999
 30
0.0
 11
322.66
 21
-241.6199999999999
 31
0.0
  0
LINE
  5
172
330
1E
100
AcDbEntity
  8
default
  6
Continuous
 62
     1
100
AcDbLine
 10
-316.4499999999999
 20
-242.1399999999999
 30
0.0
 11
-322.66
 21
-241.6199999999999
 31
0.0
  0
LINE
  5
173
330
1E
100
AcDbEntity
  8
default
  6
Continuous
 62
     1
100
AcDbLine
 10
322.66
 20
-241.6199999999999
 30
0.0
 11
328.8399999999999
 21
-241.09
 31
0.0
  0
LINE
  5
174
330
1E
100
AcDbEntity
  8
default
  6
Continuous
 62
     1
100
AcDbLine
 10
-322.66
 20
-241.6199999999999
 30
0.0
 11
-328.8399999999999
 21
-241.09
 31
0.0
  0
LINE
  5
175
330
1E
100
AcDbEntity
  8
default
  6
Continuous
 62
     1
100
AcDbLine
 10
328.8399999999999
 20
-241.09
 30
0.0
 11
334.99
 21
-240.5399999999999
 31
0.0
  0
LINE
  5
176
330
1E
100
AcDbEntity
  8
default
  6
Continuous
 62
     1
100
AcDbLine
 10
-328.8399999999999
 20
-241.09
 30
0.0
 11
-334.99
 21
-240.5399999999999
 31
0.0
  0
LINE
  5
177
330
1E
100
AcDbEntity
  8
default
  6
Continuous
 62
     1
100
AcDbLine
 10
334.99
 20
-240.5399999999999
 30
0.0
 11
341.1
 21
-239.99
 31
0.0
  0
LINE
  5
178
330
1E
100
AcDbEntity
  8
default
  6
Continuous
 62
     1
100
AcDbLine
 10
-334.99
 20
-240.5399999999999
 30
0.0
 11
-341.1
 21
-239.99
 31
0.0
  0
LINE
  5
179
330
1E
100
AcDbEntity
  8
default
  6
Continuous
 62
     1
100
AcDbLine
 10
341.1
 20
-239.99
 30
0.0
 11
347.1799999999999
 21
-239.43
 31
0.0
  0
LINE
  5
17A
330
1E
100
AcDbEntity
  8
default
  6
Continuous
 62
     1
100
AcDbLine
 10
-341.1
 20
-239.99
 30
0.0
 11
-347.1799999999999
 21
-239.43
 31
0.0
  0
LINE
  5
17B
330
1E
100
AcDbEntity
  8
default
  6
Continuous
 62
     1
100
AcDbLine
 10
347.1799999999999
 20
-239.43
 30
0.0
 11
353.23
 21
-238.86
 31
0.0
  0
LINE
  5
17C
330
1E
100
AcDbEntity
  8
default
  6
Continuous
 62
     1
100
AcDbLine
 10
-347.1799999999999
 20
-239.43
 30
0.0
 11
-353.23
 21
-238.86
 31
0.0
  0
LINE
  5
17D
330
1E
100
AcDbEntity
  8
default
  6
Continuous
 62
     1
100
AcDbLine
 10
353.23
 20
-238.86
 30
0.0
 11
359.24
 21
-238.28
 31
0.0
  0
LINE
  5
17E
330
1E
100
AcDbEntity
  8
default
  6
Continuous
 62
     1
100
AcDbLine
 10
-353.23
 20
-238.86
 30
0.0
 11
-359.24
 21
-238.28
 31
0.0
  0
LINE
  5
17F
330
1E
100
AcDbEntity
  8
default
  6
Continuous
 62
     1
100
AcDbLine
 10
359.24
 20
-238.28
 30
0.0
 11
365.22
 21
-237.69
 31
0.0
  0
LINE
  5
180
330
1E
100
AcDbEntity
  8
default
  6
Continuous
 62
     1
100
AcDbLine
 10
-359.24
 20
-238.28
 30
0.0
 11
-365.22
 21
-237.69
 31
0.0
  0
LINE
  5
181
330
1E
100
AcDbEntity
  8
default
  6
Continuous
 62
     1
100
AcDbLine
 10
365.22
 20
-237.69
 30
0.0
 11
371.16
 21
-237.09
 31
0.0
  0
LINE
  5
182
330
1E
100
AcDbEntity
  8
default
  6
Continuous
 62
     1
100
AcDbLine
 10
-365.22
 20
-237.69
 30
0.0
 11
-371.16
 21
-237.09
 31
0.0
  0
LINE
  5
183
330
1E
100
AcDbEntity
  8
default
  6
Continuous
 62
     1
100
AcDbLine
 10
371.16
 20
-237.09
 30
0.0
 11
377.0599999999999
 21
-236.4799999999999
 31
0.0
  0
LINE
  5
184
330
1E
100
AcDbEntity
  8
default
  6
Continuous
 62
     1
100
AcDbLine
 10
-371.16
 20
-237.09
 30
0.0
 11
-377.0599999999999
 21
-236.4799999999999
 31
0.0
  0
LINE
  5
185
330
1E
100
AcDbEntity
  8
default
  6
Continuous
 62
     1
100
AcDbLine
 10
377.0599999999999
 20
-236.4799999999999
 30
0.0
 11
382.92
 21
-235.86
 31
0.0
  0
LINE
  5
186
330
1E
100
AcDbEntity
  8
default
  6
Continuous
 62
     1
100
AcDbLine
 10
-377.0599999999999
 20
-236.4799999999999
 30
0.0
 11
-382.92
 21
-235.86
 31
0.0
  0
LINE
  5
187
330
1E
100
AcDbEntity
  8
default
  6
Continuous
 62
     1
100
AcDbLine
 10
382.92
 20
-235.86
 30
0.0
 11
388.75
 21
-235.23
 31
0.0
  0
LINE
  5
188
330
1E
100
AcDbEntity
  8
default
  6
Continuous
 62
     1
100
AcDbLine
 10
-382.92
 20
-235.86
 30
0.0
 11
-388.75
 21
-235.23
 31
0.0
  0
LINE
  5
189
330
1E
100
AcDbEntity
  8
default
  6
Continuous
 62
     1
100
AcDbLine
 10
388.75
 20
-235.23
 30
0.0
 11
394.5299999999999
 21
-234.5899999999999
 31
0.0
  0
LINE
  5
18A
330
1E
100
AcDbEntity
  8
default
  6
Continuous
 62
     1
100
AcDbLine
 10
-388.75
 20
-235.23
 30
0.0
 11
-394.5299999999999
 21
-234.5899999999999
 31
0.0
  0
LINE
  5
18B
330
1E
100
AcDbEntity
  8
default
  6
Continuous
 62
     1
100
AcDbLine
 10
394.5299999999999
 20
-234.5899999999999
 30
0.0
 11
400.2799999999999
 21
-233.95
 31
0.0
  0
LINE
  5
18C
330
1E
100
AcDbEntity
  8
default
  6
Continuous
 62
     1
100
AcDbLine
 10
-394.5299999999999
 20
-234.5899999999999
 30
0.0
 11
-400.2799999999999
 21
-233.95
 31
0.0
  0
LINE
  5
18D
330
1E
100
AcDbEntity
  8
default
  6
Continuous
 62
     1
100
AcDbLine
 10
400.2799999999999
 20
-233.95
 30
0.0
 11
405.9899999999999
 21
-233.2899999999999
 31
0.0
  0
LINE
  5
18E
330
1E
100
AcDbEntity
  8
default
  6
Continuous
 62
     1
100
AcDbLine
 10
-400.2799999999999
 20
-233.95
 30
0.0
 11
-405.9899999999999
 21
-233.2899999999999
 31
0.0
  0
LINE
  5
18F
330
1E
100
AcDbEntity
  8
default
  6
Continuous
 62
     1
100
AcDbLine
 10
405.9899999999999
 20
-233.2899999999999
 30
0.0
 11
411.65
 21
-232.62
 31
0.0
  0
LINE
  5
190
330
1E
100
AcDbEntity
  8
default
  6
Continuous
 62
     1
100
AcDbLine
 10
-405.9899999999999
 20
-233.2899999999999
 30
0.0
 11
-411.65
 21
-232.62
 31
0.0
  0
LINE
  5
191
330
1E
100
AcDbEntity
  8
default
  6
Continuous
 62
     1
100
AcDbLine
 10
411.65
 20
-232.62
 30
0.0
 11
417.2799999999999
 21
-231.95
 31
0.0
  0
LINE
  5
192
330
1E
100
AcDbEntity
  8
default
  6
Continuous
 62
     1
100
AcDbLine
 10
-411.65
 20
-232.62
 30
0.0
 11
-417.2799999999999
 21
-231.95
 31
0.0
  0
LINE
  5
193
330
1E
100
AcDbEntity
  8
default
  6
Continuous
 62
     1
100
AcDbLine
 10
417.2799999999999
 20
-231.95
 30
0.0
 11
422.86
 21
-231.2599999999999
 31
0.0
  0
LINE
  5
194
330
1E
100
AcDbEntity
  8
default
  6
Continuous
 62
     1
100
AcDbLine
 10
-417.2799999999999
 20
-231.95
 30
0.0
 11
-422.86
 21
-231.2599999999999
 31
0.0
  0
LINE
  5
195
330
1E
100
AcDbEntity
  8
default
  6
Continuous
 62
     1
100
AcDbLine
 10
422.86
 20
-231.2599999999999
 30
0.0
 11
428.3999999999999
 21
-230.5699999999999
 31
0.0
  0
LINE
  5
196
330
1E
100
AcDbEntity
  8
default
  6
Continuous
 62
     1
100
AcDbLine
 10
-422.86
 20
-231.2599999999999
 30
0.0
 11
-428.3999999999999
 21
-230.5699999999999
 31
0.0
  0
LINE
  5
197
330
1E
100
AcDbEntity
  8
default
  6
Continuous
 62
     1
100
AcDbLine
 10
428.3999999999999
 20
-230.5699999999999
 30
0.0
 11
433.8999999999999
 21
-229.8599999999999
 31
0.0
  0
LINE
  5
198
330
1E
100
AcDbEntity
  8
default
  6
Continuous
 62
     1
100
AcDbLine
 10
-428.3999999999999
 20
-230.5699999999999
 30
0.0
 11
-433.8999999999999
 21
-229.8599999999999
 31
0.0
  0
LINE
  5
199
330
1E
100
AcDbEntity
  8
default
  6
Continuous
 62
     1
100
AcDbLine
 10
433.8999999999999
 20
-229.8599999999999
 30
0.0
 11
439.36
 21
-229.15
 31
0.0
  0
LINE
  5
19A
330
1E
100
AcDbEntity
  8
default
  6
Continuous
 62
     1
100
AcDbLine
 10
-433.8999999999999
 20
-229.8599999999999
 30
0.0
 11
-439.36
 21
-229.15
 31
0.0
  0
LINE
  5
19B
330
1E
100
AcDbEntity
  8
default
  6
Continuous
 62
     1
100
AcDbLine
 10
439.36
 20
-229.15
 30
0.0
 11
444.77
 21
-228.4299999999999
 31
0.0
  0
LINE
  5
19C
330
1E
100
AcDbEntity
  8
default
  6
Continuous
 62
     1
100
AcDbLine
 10
-439.36
 20
-229.15
 30
0.0
 11
-444.77
 21
-228.4299999999999
 31
0.0
  0
LINE
  5
19D
330
1E
100
AcDbEntity
  8
default
  6
Continuous
 62
     1
100
AcDbLine
 10
444.77
 20
-228.4299999999999
 30
0.0
 11
450.1299999999999
 21
-227.7
 31
0.0
  0
LINE
  5
19E
330
1E
100
AcDbEntity
  8
default
  6
Continuous
 62
     1
100
AcDbLine
 10
-444.77
 20
-228.4299999999999
 30
0.0
 11
-450.1299999999999
 21
-227.7
 31
0.0
  0
LINE
  5
19F
330
1E
100
AcDbEntity
  8
default
  6
Continuous
 62
     1
100
AcDbLine
 10
450.1299999999999
 20
-227.7
 30
0.0
 11
455.4599999999999
 21
-226.96
 31
0.0
  0
LINE
  5
1A0
330
1E
100
AcDbEntity
  8
default
  6
Continuous
 62
     1
100
AcDbLine
 10
-450.1299999999999
 20
-227.7
 30
0.0
 11
-455.4599999999999
 21
-226.96
 31
0.0
  0
LINE
  5
1A1
330
1E
100
AcDbEntity
  8
default
  6
Continuous
 62
     1
100
AcDbLine
 10
455.4599999999999
 20
-226.96
 30
0.0
 11
460.73
 21
-226.2199999999999
 31
0.0
  0
LINE
  5
1A2
330
1E
100
AcDbEntity
  8
default
  6
Continuous
 62
     1
100
AcDbLine
 10
-455.4599999999999
 20
-226.96
 30
0.0
 11
-460.73
 21
-226.2199999999999
 31
0.0
  0
LINE
  5
1A3
330
1E
100
AcDbEntity
  8
default
  6
Continuous
 62
     1
100
AcDbLine
 10
460.73
 20
-226.2199999999999
 30
0.0
 11
465.96
 21
-225.4599999999999
 31
0.0
  0
LINE
  5
1A4
330
1E
100
AcDbEntity
  8
default
  6
Continuous
 62
     1
100
AcDbLine
 10
-460.73
 20
-226.2199999999999
 30
0.0
 11
-465.96
 21
-225.4599999999999
 31
0.0
  0
LINE
  5
1A5
330
1E
100
AcDbEntity
  8
default
  6
Continuous
 62
     1
100
AcDbLine
 10
465.96
 20
-225.4599999999999
 30
0.0
 11
471.14
 21
-224.6999999999999
 31
0.0
  0
LINE
  5
1A6
330
1E
100
AcDbEntity
  8
default
  6
Continuous
 62
     1
100
AcDbLine
 10
-465.96
 20
-225.4599999999999
 30
0.0
 11
-471.14
 21
-224.6999999999999
 31
0.0
  0
LINE
  5
1A7
330
1E
100
AcDbEntity
  8
default
  6
Continuous
 62
     1
100
AcDbLine
 10
471.14
 20
-224.6999999999999
 30
0.0
 11
476.2799999999999
 21
-223.93
 31
0.0
  0
LINE
  5
1A8
330
1E
100
AcDbEntity
  8
default
  6
Continuous
 62
     1
100
AcDbLine
 10
-471.14
 20
-224.6999999999999
 30
0.0
 11
-476.2799999999999
 21
-223.93
 31
0.0
  0
LINE
  5
1A9
330
1E
100
AcDbEntity
  8
default
  6
Continuous
 62
     1
100
AcDbLine
 10
476.2799999999999
 20
-223.93
 30
0.0
 11
481.3699999999999
 21
-223.15
 31
0.0
  0
LINE
  5
1AA
330
1E
100
AcDbEntity
  8
default
  6
Continuous
 62
     1
100
AcDbLine
 10
-476.2799999999999
 20
-223.93
 30
0.0
 11
-481.3699999999999
 21
-223.15
 31
0.0
  0
LINE
  5
1AB
330
1E
100
AcDbEntity
  8
default
  6
Continuous
 62
     1
100
AcDbLine
 10
481.3699999999999
 20
-223.15
 30
0.0
 11
486.41
 21
-222.35
 31
0.0
  0
LINE
  5
1AC
330
1E
100
AcDbEntity
  8
default
  6
Continuous
 62
     1
100
AcDbLine
 10
-481.3699999999999
 20
-223.15
 30
0.0
 11
-486.41
 21
-222.35
 31
0.0
  0
LINE
  5
1AD
330
1E
100
AcDbEntity
  8
default
  6
Continuous
 62
     1
100
AcDbLine
 10
486.41
 20
-222.35
 30
0.0
 11
491.3999999999999
 21
-221.5399999999999
 31
0.0
  0
LINE
  5
1AE
330
1E
100
AcDbEntity
  8
default
  6
Continuous
 62
     1
100
AcDbLine
 10
-486.41
 20
-222.35
 30
0.0
 11
-491.3999999999999
 21
-221.5399999999999
 31
0.0
  0
LINE
  5
1AF
330
1E
100
AcDbEntity
  8
default
  6
Continuous
 62
     1
100
AcDbLine
 10
491.3999999999999
 20
-221.5399999999999
 30
0.0
 11
496.34
 21
-220.7199999999999
 31
0.0
  0
LINE
  5
1B0
330
1E
100
AcDbEntity
  8
default
  6
Continuous
 62
     1
100
AcDbLine
 10
-491.3999999999999
 20
-221.5399999999999
 30
0.0
 11
-496.34
 21
-220.7199999999999
 31
0.0
  0
LINE
  5
1B1
330
1E
100
AcDbEntity
  8
default
  6
Continuous
 62
     1
100
AcDbLine
 10
496.34
 20
-220.7199999999999
 30
0.0
 11
501.24
 21
-219.8799999999999
 31
0.0
  0
LINE
  5
1B2
330
1E
100
AcDbEntity
  8
default
  6
Continuous
 62
     1
100
AcDbLine
 10
-496.34
 20
-220.7199999999999
 30
0.0
 11
-501.24
 21
-219.8799999999999
 31
0.0
  0
LINE
  5
1B3
330
1E
100
AcDbEntity
  8
default
  6
Continuous
 62
     1
100
AcDbLine
 10
501.24
 20
-219.8799999999999
 30
0.0
 11
506.0799999999999
 21
-219.03
 31
0.0
  0
LINE
  5
1B4
330
1E
100
AcDbEntity
  8
default
  6
Continuous
 62
     1
100
AcDbLine
 10
-501.24
 20
-219.8799999999999
 30
0.0
 11
-506.0799999999999
 21
-219.03
 31
0.0
  0
LINE
  5
1B5
330
1E
100
AcDbEntity
  8
default
  6
Continuous
 62
     1
100
AcDbLine
 10
506.0799999999999
 20
-219.03
 30
0.0
 11
510.8699999999999
 21
-218.1599999999999
 31
0.0
  0
LINE
  5
1B6
330
1E
100
AcDbEntity
  8
default
  6
Continuous
 62
     1
100
AcDbLine
 10
-506.0799999999999
 20
-219.03
 30
0.0
 11
-510.8699999999999
 21
-218.1599999999999
 31
0.0
  0
LINE
  5
1B7
330
1E
100
AcDbEntity
  8
default
  6
Continuous
 62
     1
100
AcDbLine
 10
510.8699999999999
 20
-218.1599999999999
 30
0.0
 11
515.61
 21
-217.28
 31
0.0
  0
LINE
  5
1B8
330
1E
100
AcDbEntity
  8
default
  6
Continuous
 62
     1
100
AcDbLine
 10
-510.8699999999999
 20
-218.1599999999999
 30
0.0
 11
-515.61
 21
-217.28
 31
0.0
  0
LINE
  5
1B9
330
1E
100
AcDbEntity
  8
default
  6
Continuous
 62
     1
100
AcDbLine
 10
515.61
 20
-217.28
 30
0.0
 11
520.2999999999999
 21
-216.3899999999999
 31
0.0
  0
LINE
  5
1BA
330
1E
100
AcDbEntity
  8
default
  6
Continuous
 62
     1
100
AcDbLine
 10
-515.61
 20
-217.28
 30
0.0
 11
-520.2999999999999
 21
-216.3899999999999
 31
0.0
  0
LINE
  5
1BB
330
1E
100
AcDbEntity
  8
default
  6
Continuous
 62
     1
100
AcDbLine
 10
520.2999999999999
 20
-216.3899999999999
 30
0.0
 11
524.94
 21
-215.4799999999999
 31
0.0
  0
LINE
  5
1BC
330
1E
100
AcDbEntity
  8
default
  6
Continuous
 62
     1
100
AcDbLine
 10
-520.2999999999999
 20
-216.3899999999999
 30
0.0
 11
-524.94
 21
-215.4799999999999
 31
0.0
  0
LINE
  5
1BD
330
1E
100
AcDbEntity
  8
default
  6
Continuous
 62
     1
100
AcDbLine
 10
524.94
 20
-215.4799999999999
 30
0.0
 11
529.53
 21
-214.5599999999999
 31
0.0
  0
LINE
  5
1BE
330
1E
100
AcDbEntity
  8
default
  6
Continuous
 62
     1
100
AcDbLine
 10
-524.94
 20
-215.4799999999999
 30
0.0
 11
-529.53
 21
-214.5599999999999
 31
0.0
  0
LINE
  5
1BF
330
1E
100
AcDbEntity
  8
default
  6
Continuous
 62
     1
100
AcDbLine
 10
529.53
 20
-214.5599999999999
 30
0.0
 11
534.0599999999999
 21
-213.6299999999999
 31
0.0
  0
LINE
  5
1C0
330
1E
100
AcDbEntity
  8
default
  6
Continuous
 62
     1
100
AcDbLine
 10
-529.53
 20
-214.5599999999999
 30
0.0
 11
-534.0599999999999
 21
-213.6299999999999
 31
0.0
  0
LINE
  5
1C1
330
1E
100
AcDbEntity
  8
default
  6
Continuous
 62
     1
100
AcDbLine
 10
534.0599999999999
 20
-213.6299999999999
 30
0.0
 11
538.5399999999999
 21
-212.68
 31
0.0
  0
LINE
  5
1C2
330
1E
100
AcDbEntity
  8
default
  6
Continuous
 62
     1
100
AcDbLine
 10
-534.0599999999999
 20
-213.6299999999999
 30
0.0
 11
-538.5399999999999
 21
-212.68
 31
0.0
  0
LINE
  5
1C3
330
1E
100
AcDbEntity
  8
default
  6
Continuous
 62
     1
100
AcDbLine
 10
538.5399999999999
 20
-212.68
 30
0.0
 11
542.96
 21
-211.7299999999999
 31
0.0
  0
LINE
  5
1C4
330
1E
100
AcDbEntity
  8
default
  6
Continuous
 62
     1
100
AcDbLine
 10
-538.5399999999999
 20
-212.68
 30
0.0
 11
-542.96
 21
-211.7299999999999
 31
0.0
  0
LINE
  5
1C5
330
1E
100
AcDbEntity
  8
default
  6
Continuous
 62
     1
100
AcDbLine
 10
542.96
 20
-211.7299999999999
 30
0.0
 11
547.33
 21
-210.76
 31
0.0
  0
LINE
  5
1C6
330
1E
100
AcDbEntity
  8
default
  6
Continuous
 62
     1
100
AcDbLine
 10
-542.96
 20
-211.7299999999999
 30
0.0
 11
-547.33
 21
-210.76
 31
0.0
  0
LINE
  5
1C7
330
1E
100
AcDbEntity
  8
default
  6
Continuous
 62
     1
100
AcDbLine
 10
547.33
 20
-210.76
 30
0.0
 11
551.6499999999999
 21
-209.7799999999999
 31
0.0
  0
LINE
  5
1C8
330
1E
100
AcDbEntity
  8
default
  6
Continuous
 62
     1
100
AcDbLine
 10
-547.33
 20
-210.76
 30
0.0
 11
-551.6499999999999
 21
-209.7799999999999
 31
0.0
  0
LINE
  5
1C9
330
1E
100
AcDbEntity
  8
default
  6
Continuous
 62
     1
100
AcDbLine
 10
551.6499999999999
 20
-209.7799999999999
 30
0.0
 11
555.9099999999999
 21
-208.7899999999999
 31
0.0
  0
LINE
  5
1CA
330
1E
100
AcDbEntity
  8
default
  6
Continuous
 62
     1
100
AcDbLine
 10
-551.6499999999999
 20
-209.7799999999999
 30
0.0
 11
-555.9099999999999
 21
-208.7899999999999
 31
0.0
  0
LINE
  5
1CB
330
1E
100
AcDbEntity
  8
default
  6
Continuous
 62
     1
100
AcDbLine
 10
555.9099999999999
 20
-208.7899999999999
 30
0.0
 11
560.12
 21
-207.79
 31
0.0
  0
LINE
  5
1CC
330
1E
100
AcDbEntity
  8
default
  6
Continuous
 62
     1
100
AcDbLine
 10
-555.9099999999999
 20
-208.7899999999999
 30
0.0
 11
-560.12
 21
-207.79
 31
0.0
  0
LINE
  5
1CD
330
1E
100
AcDbEntity
  8
default
  6
Continuous
 62
     1
100
AcDbLine
 10
560.12
 20
-207.79
 30
0.0
 11
564.2599999999999
 21
-206.78
 31
0.0
  0
LINE
  5
1CE
330
1E
100
AcDbEntity
  8
default
  6
Continuous
 62
     1
100
AcDbLine
 10
-560.12
 20
-207.79
 30
0.0
 11
-564.2599999999999
 21
-206.78
 31
0.0
  0
LINE
  5
1CF
330
1E
100
AcDbEntity
  8
default
  6
Continuous
 62
     1
100
AcDbLine
 10
564.2599999999999
 20
-206.78
 30
0.0
 11
565.0
 21
-206.5999999999999
 31
0.0
  0
LINE
  5
1D0
330
1E
100
AcDbEntity
  8
default
  6
Continuous
 62
     1
100
AcDbLine
 10
-564.2599999999999
 20
-206.78
 30
0.0
 11
-565.0
 21
-206.5999999999999
 31
0.0
  0
LINE
  5
1D1
330
1E
100
AcDbEntity
  8
default
  6
Continuous
 62
     1
100
AcDbLine
 10
565.0
 20
-147.75
 30
0.0
 11
565.0
 21
-206.5999999999999
 31
0.0
  0
LINE
  5
1D2
330
1E
100
AcDbEntity
  8
default
  6
Continuous
 62
     1
100
AcDbLine
 10
-565.0
 20
-147.75
 30
0.0
 11
-565.0
 21
-206.5999999999999
 31
0.0
  0
LINE
  5
1D3
330
1E
100
AcDbEntity
  8
default
  6
Continuous
 62
     3
100
AcDbLine
 10
0.0
 20
671.4299999999999
 30
0.0
 11
1.719999999999999
 21
671.4299999999999
 31
0.0
  0
LINE
  5
1D4
330
1E
100
AcDbEntity
  8
default
  6
Continuous
 62
     1
100
AcDbLine
 10
0.0
 20
671.4299999999999
 30
0.0
 11
-1.719999999999999
 21
671.4299999999999
 31
0.0
  0
LINE
  5
1D5
330
1E
100
AcDbEntity
  8
default
  6
Continuous
 62
     3
100
AcDbLine
 10
1.719999999999999
 20
671.4299999999999
 30
0.0
 11
3.439999999999999
 21
671.4199999999999
 31
0.0
  0
LINE
  5
1D6
330
1E
100
AcDbEntity
  8
default
  6
Continuous
 62
     1
100
AcDbLine
 10
-1.719999999999999
 20
671.4299999999999
 30
0.0
 11
-3.439999999999999
 21
671.4199999999999
 31
0.0
  0
LINE
  5
1D7
330
1E
100
AcDbEntity
  8
default
  6
Continuous
 62
     3
100
AcDbLine
 10
3.439999999999999
 20
671.4199999999999
 30
0.0
 11
5.15
 21
671.41
 31
0.0
  0
LINE
  5
1D8
330
1E
100
AcDbEntity
  8
default
  6
Continuous
 62
     1
100
AcDbLine
 10
-3.439999999999999
 20
671.4199999999999
 30
0.0
 11
-5.15
 21
671.41
 31
0.0
  0
LINE
  5
1D9
330
1E
100
AcDbEntity
  8
default
  6
Continuous
 62
     3
100
AcDbLine
 10
5.15
 20
671.41
 30
0.0
 11
6.87
 21
671.3999999999999
 31
0.0
  0
LINE
  5
1DA
330
1E
100
AcDbEntity
  8
default
  6
Continuous
 62
     1
100
AcDbLine
 10
-5.15
 20
671.41
 30
0.0
 11
-6.87
 21
671.3999999999999
 31
0.0
  0
LINE
  5
1DB
330
1E
100
AcDbEntity
  8
default
  6
Continuous
 62
     3
100
AcDbLine
 10
6.87
 20
671.3999999999999
 30
0.0
 11
8.589999999999999
 21
671.3799999999999
 31
0.0
  0
LINE
  5
1DC
330
1E
100
AcDbEntity
  8
default
  6
Continuous
 62
     1
100
AcDbLine
 10
-6.87
 20
671.3999999999999
 30
0.0
 11
-8.589999999999999
 21
671.3799999999999
 31
0.0
  0
LINE
  5
1DD
330
1E
100
AcDbEntity
  8
default
  6
Continuous
 62
     3
100
AcDbLine
 10
8.589999999999999
 20
671.3799999999999
 30
0.0
 11
10.31
 21
671.35
 31
0.0
  0
LINE
  5
1DE
330
1E
100
AcDbEntity
  8
default
  6
Continuous
 62
     1
100
AcDbLine
 10
-8.589999999999999
 20
671.3799999999999
 30
0.0
 11
-10.31
 21
671.35
 31
0.0
  0
LINE
  5
1DF
330
1E
100
AcDbEntity
  8
default
  6
Continuous
 62
     3
100
AcDbLine
 10
10.31
 20
671.35
 30
0.0
 11
12.01999999999999
 21
671.33
 31
0.0
  0
LINE
  5
1E0
330
1E
100
AcDbEntity
  8
default
  6
Continuous
 62
     1
100
AcDbLine
 10
-10.31
 20
671.35
 30
0.0
 11
-12.01999999999999
 21
671.33
 31
0.0
  0
LINE
  5
1E1
330
1E
100
AcDbEntity
  8
default
  6
Continuous
 62
     3
100
AcDbLine
 10
12.01999999999999
 20
671.33
 30
0.0
 11
13.74
 21
671.2899999999999
 31
0.0
  0
LINE
  5
1E2
330
1E
100
AcDbEntity
  8
default
  6
Continuous
 62
     1
100
AcDbLine
 10
-12.01999999999999
 20
671.33
 30
0.0
 11
-13.74
 21
671.2899999999999
 31
0.0
  0
LINE
  5
1E3
330
1E
100
AcDbEntity
  8
default
  6
Continuous
 62
     3
100
AcDbLine
 10
13.74
 20
671.2899999999999
 30
0.0
 11
15.46
 21
671.26
 31
0.0
  0
LINE
  5
1E4
330
1E
100
AcDbEntity
  8
default
  6
Continuous
 62
     1
100
AcDbLine
 10
-13.74
 20
671.2899999999999
 30
0.0
 11
-15.46
 21
671.26
 31
0.0
  0
LINE
  5
1E5
330
1E
100
AcDbEntity
  8
default
  6
Continuous
 62
     3
100
AcDbLine
 10
15.46
 20
671.26
 30
0.0
 11
17.17999999999999
 21
671.22
 31
0.0
  0
LINE
  5
1E6
330
1E
100
AcDbEntity
  8
default
  6
Continuous
 62
     1
100
AcDbLine
 10
-15.46
 20
671.26
 30
0.0
 11
-17.17999999999999
 21
671.22
 31
0.0
  0
LINE
  5
1E7
330
1E
100
AcDbEntity
  8
default
  6
Continuous
 62
     3
100
AcDbLine
 10
17.17999999999999
 20
671.22
 30
0.0
 11
18.89
 21
671.1699999999999
 31
0.0
  0
LINE
  5
1E8
330
1E
100
AcDbEntity
  8
default
  6
Continuous
 62
     1
100
AcDbLine
 10
-17.17999999999999
 20
671.22
 30
0.0
 11
-18.89
 21
671.1699999999999
 31
0.0
  0
LINE
  5
1E9
330
1E
100
AcDbEntity
  8
default
  6
Continuous
 62
     3
100
AcDbLine
 10
18.89
 20
671.1699999999999
 30
0.0
 11
20.60999999999999
 21
671.1199999999999
 31
0.0
  0
LINE
  5
1EA
330
1E
100
AcDbEntity
  8
default
  6
Continuous
 62
     1
100
AcDbLine
 10
-18.89
 20
671.1699999999999
 30
0.0
 11
-20.60999999999999
 21
671.1199999999999
 31
0.0
  0
LINE
  5
1EB
330
1E
100
AcDbEntity
  8
default
  6
Continuous
 62
     3
100
AcDbLine
 10
20.60999999999999
 20
671.1199999999999
 30
0.0
 11
22.33
 21
671.07
 31
0.0
  0
LINE
  5
1EC
330
1E
100
AcDbEntity
  8
default
  6
Continuous
 62
     1
100
AcDbLine
 10
-20.60999999999999
 20
671.1199999999999
 30
0.0
 11
-22.33
 21
671.07
 31
0.0
  0
LINE
  5
1ED
330
1E
100
AcDbEntity
  8
default
  6
Continuous
 62
     3
100
AcDbLine
 10
22.33
 20
671.07
 30
0.0
 11
24.03999999999999
 21
671.0099999999999
 31
0.0
  0
LINE
  5
1EE
330
1E
100
AcDbEntity
  8
default
  6
Continuous
 62
     1
100
AcDbLine
 10
-22.33
 20
671.07
 30
0.0
 11
-24.03999999999999
 21
671.0099999999999
 31
0.0
  0
LINE
  5
1EF
330
1E
100
AcDbEntity
  8
default
  6
Continuous
 62
     3
100
AcDbLine
 10
24.03999999999999
 20
671.0099999999999
 30
0.0
 11
25.76
 21
670.95
 31
0.0
  0
LINE
  5
1F0
330
1E
100
AcDbEntity
  8
default
  6
Continuous
 62
     1
100
AcDbLine
 10
-24.03999999999999
 20
671.0099999999999
 30
0.0
 11
-25.76
 21
670.95
 31
0.0
  0
LINE
  5
1F1
330
1E
100
AcDbEntity
  8
default
  6
Continuous
 62
     3
100
AcDbLine
 10
25.76
 20
670.95
 30
0.0
 11
27.48
 21
670.88
 31
0.0
  0
LINE
  5
1F2
330
1E
100
AcDbEntity
  8
default
  6
Continuous
 62
     1
100
AcDbLine
 10
-25.76
 20
670.95
 30
0.0
 11
-27.48
 21
670.88
 31
0.0
  0
LINE
  5
1F3
330
1E
100
AcDbEntity
  8
default
  6
Continuous
 62
     3
100
AcDbLine
 10
27.48
 20
670.88
 30
0.0
 11
29.19
 21
670.8099999999999
 31
0.0
  0
LINE
  5
1F4
330
1E
100
AcDbEntity
  8
default
  6
Continuous
 62
     1
100
AcDbLine
 10
-27.48
 20
670.88
 30
0.0
 11
-29.19
 21
670.8099999999999
 31
0.0
  0
LINE
  5
1F5
330
1E
100
AcDbEntity
  8
default
  6
Continuous
 62
     3
100
AcDbLine
 10
29.19
 20
670.8099999999999
 30
0.0
 11
30.91
 21
670.73
 31
0.0
  0
LINE
  5
1F6
330
1E
100
AcDbEntity
  8
default
  6
Continuous
 62
     1
100
AcDbLine
 10
-29.19
 20
670.8099999999999
 30
0.0
 11
-30.91
 21
670.73
 31
0.0
  0
LINE
  5
1F7
330
1E
100
AcDbEntity
  8
default
  6
Continuous
 62
     3
100
AcDbLine
 10
30.91
 20
670.73
 30
0.0
 11
32.63
 21
670.65
 31
0.0
  0
LINE
  5
1F8
330
1E
100
AcDbEntity
  8
default
  6
Continuous
 62
     1
100
AcDbLine
 10
-30.91
 20
670.73
 30
0.0
 11
-32.63
 21
670.65
 31
0.0
  0
LINE
  5
1F9
330
1E
100
AcDbEntity
  8
default
  6
Continuous
 62
     3
100
AcDbLine
 10
32.63
 20
670.65
 30
0.0
 11
34.34
 21
670.57
 31
0.0
  0
LINE
  5
1FA
330
1E
100
AcDbEntity
  8
default
  6
Continuous
 62
     1
100
AcDbLine
 10
-32.63
 20
670.65
 30
0.0
 11
-34.34
 21
670.57
 31
0.0
  0
LINE
  5
1FB
330
1E
100
AcDbEntity
  8
default
  6
Continuous
 62
     3
100
AcDbLine
 10
34.34
 20
670.57
 30
0.0
 11
36.06
 21
670.48
 31
0.0
  0
LINE
  5
1FC
330
1E
100
AcDbEntity
  8
default
  6
Continuous
 62
     1
100
AcDbLine
 10
-34.34
 20
670.57
 30
0.0
 11
-36.06
 21
670.48
 31
0.0
  0
LINE
  5
1FD
330
1E
100
AcDbEntity
  8
default
  6
Continuous
 62
     3
100
AcDbLine
 10
36.06
 20
670.48
 30
0.0
 11
37.77
 21
670.3899999999999
 31
0.0
  0
LINE
  5
1FE
330
1E
100
AcDbEntity
  8
default
  6
Continuous
 62
     1
100
AcDbLine
 10
-36.06
 20
670.48
 30
0.0
 11
-37.77
 21
670.3899999999999
 31
0.0
  0
LINE
  5
1FF
330
1E
100
AcDbEntity
  8
default
  6
Continuous
 62
     3
100
AcDbLine
 10
37.77
 20
670.3899999999999
 30
0.0
 11
39.49
 21
670.2899999999999
 31
0.0
  0
LINE
  5
200
330
1E
100
AcDbEntity
  8
default
  6
Continuous
 62
     1
100
AcDbLine
 10
-37.77
 20
670.3899999999999
 30
0.0
 11
-39.49
 21
670.2899999999999
 31
0.0
  0
LINE
  5
201
330
1E
100
AcDbEntity
  8
default
  6
Continuous
 62
     3
100
AcDbLine
 10
39.49
 20
670.2899999999999
 30
0.0
 11
41.2
 21
670.1900000000001
 31
0.0
  0
LINE
  5
202
330
1E
100
AcDbEntity
  8
default
  6
Continuous
 62
     1
100
AcDbLine
 10
-39.49
 20
670.2899999999999
 30
0.0
 11
-41.2
 21
670.1900000000001
 31
0.0
  0
LINE
  5
203
330
1E
100
AcDbEntity
  8
default
  6
Continuous
 62
     3
100
AcDbLine
 10
41.2
 20
670.1900000000001
 30
0.0
 11
42.92
 21
670.09
 31
0.0
  0
LINE
  5
204
330
1E
100
AcDbEntity
  8
default
  6
Continuous
 62
     1
100
AcDbLine
 10
-41.2
 20
670.1900000000001
 30
0.0
 11
-42.92
 21
670.09
 31
0.0
  0
LINE
  5
205
330
1E
100
AcDbEntity
  8
default
  6
Continuous
 62
     3
100
AcDbLine
 10
42.92
 20
670.09
 30
0.0
 11
44.63
 21
669.98
 31
0.0
  0
LINE
  5
206
330
1E
100
AcDbEntity
  8
default
  6
Continuous
 62
     1
100
AcDbLine
 10
-42.92
 20
670.09
 30
0.0
 11
-44.63
 21
669.98
 31
0.0
  0
LINE
  5
207
330
1E
100
AcDbEntity
  8
default
  6
Continuous
 62
     3
100
AcDbLine
 10
44.63
 20
669.98
 30
0.0
 11
46.35
 21
669.8599999999999
 31
0.0
  0
LINE
  5
208
330
1E
100
AcDbEntity
  8
default
  6
Continuous
 62
     1
100
AcDbLine
 10
-44.63
 20
669.98
 30
0.0
 11
-46.35
 21
669.8599999999999
 31
0.0
  0
LINE
  5
209
330
1E
100
AcDbEntity
  8
default
  6
Continuous
 62
     3
100
AcDbLine
 10
46.35
 20
669.8599999999999
 30
0.0
 11
48.06
 21
669.74
 31
0.0
  0
LINE
  5
20A
330
1E
100
AcDbEntity
  8
default
  6
Continuous
 62
     1
100
AcDbLine
 10
-46.35
 20
669.8599999999999
 30
0.0
 11
-48.06
 21
669.74
 31
0.0
  0
LINE
  5
20B
330
1E
100
AcDbEntity
  8
default
  6
Continuous
 62
     3
100
AcDbLine
 10
48.06
 20
669.74
 30
0.0
 11
49.77
 21
669.62
 31
0.0
  0
LINE
  5
20C
330
1E
100
AcDbEntity
  8
default
  6
Continuous
 62
     1
100
AcDbLine
 10
-48.06
 20
669.74
 30
0.0
 11
-49.77
 21
669.62
 31
0.0
  0
LINE
  5
20D
330
1E
100
AcDbEntity
  8
default
  6
Continuous
 62
     3
100
AcDbLine
 10
49.77
 20
669.62
 30
0.0
 11
51.49
 21
669.49
 31
0.0
  0
LINE
  5
20E
330
1E
100
AcDbEntity
  8
default
  6
Continuous
 62
     1
100
AcDbLine
 10
-49.77
 20
669.62
 30
0.0
 11
-51.49
 21
669.49
 31
0.0
  0
LINE
  5
20F
330
1E
100
AcDbEntity
  8
default
  6
Continuous
 62
     3
100
AcDbLine
 10
51.49
 20
669.49
 30
0.0
 11
53.2
 21
669.3599999999999
 31
0.0
  0
LINE
  5
210
330
1E
100
AcDbEntity
  8
default
  6
Continuous
 62
     1
100
AcDbLine
 10
-51.49
 20
669.49
 30
0.0
 11
-53.2
 21
669.3599999999999
 31
0.0
  0
LINE
  5
211
330
1E
100
AcDbEntity
  8
default
  6
Continuous
 62
     3
100
AcDbLine
 10
53.2
 20
669.3599999999999
 30
0.0
 11
54.90999999999999
 21
669.23
 31
0.0
  0
LINE
  5
212
330
1E
100
AcDbEntity
  8
default
  6
Continuous
 62
     1
100
AcDbLine
 10
-53.2
 20
669.3599999999999
 30
0.0
 11
-54.90999999999999
 21
669.23
 31
0.0
  0
LINE
  5
213
330
1E
100
AcDbEntity
  8
default
  6
Continuous
 62
     3
100
AcDbLine
 10
54.90999999999999
 20
669.23
 30
0.0
 11
56.61999999999999
 21
669.09
 31
0.0
  0
LINE
  5
214
330
1E
100
AcDbEntity
  8
default
  6
Continuous
 62
     1
100
AcDbLine
 10
-54.90999999999999
 20
669.23
 30
0.0
 11
-56.61999999999999
 21
669.09
 31
0.0
  0
LINE
  5
215
330
1E
100
AcDbEntity
  8
default
  6
Continuous
 62
     3
100
AcDbLine
 10
56.61999999999999
 20
669.09
 30
0.0
 11
58.34
 21
668.94
 31
0.0
  0
LINE
  5
216
330
1E
100
AcDbEntity
  8
default
  6
Continuous
 62
     1
100
AcDbLine
 10
-56.61999999999999
 20
669.09
 30
0.0
 11
-58.34
 21
668.94
 31
0.0
  0
LINE
  5
217
330
1E
100
AcDbEntity
  8
default
  6
Continuous
 62
     3
100
AcDbLine
 10
58.34
 20
668.94
 30
0.0
 11
60.04999999999999
 21
668.7999999999999
 31
0.0
  0
LINE
  5
218
330
1E
100
AcDbEntity
  8
default
  6
Continuous
 62
     1
100
AcDbLine
 10
-58.34
 20
668.94
 30
0.0
 11
-60.04999999999999
 21
668.7999999999999
 31
0.0
  0
LINE
  5
219
330
1E
100
AcDbEntity
  8
default
  6
Continuous
 62
     3
100
AcDbLine
 10
60.04999999999999
 20
668.7999999999999
 30
0.0
 11
61.76
 21
668.6399999999999
 31
0.0
  0
LINE
  5
21A
330
1E
100
AcDbEntity
  8
default
  6
Continuous
 62
     1
100
AcDbLine
 10
-60.04999999999999
 20
668.7999999999999
 30
0.0
 11
-61.76
 21
668.6399999999999
 31
0.0
  0
LINE
  5
21B
330
1E
100
AcDbEntity
  8
default
  6
Continuous
 62
     3
100
AcDbLine
 10
61.76
 20
668.6399999999999
 30
0.0
 11
63.47
 21
668.4899999999999
 31
0.0
  0
LINE
  5
21C
330
1E
100
AcDbEntity
  8
default
  6
Continuous
 62
     1
100
AcDbLine
 10
-61.76
 20
668.6399999999999
 30
0.0
 11
-63.47
 21
668.4899999999999
 31
0.0
  0
LINE
  5
21D
330
1E
100
AcDbEntity
  8
default
  6
Continuous
 62
     3
100
AcDbLine
 10
63.47
 20
668.4899999999999
 30
0.0
 11
65.18
 21
668.32
 31
0.0
  0
LINE
  5
21E
330
1E
100
AcDbEntity
  8
default
  6
Continuous
 62
     1
100
AcDbLine
 10
-63.47
 20
668.4899999999999
 30
0.0
 11
-65.18
 21
668.32
 31
0.0
  0
LINE
  5
21F
330
1E
100
AcDbEntity
  8
default
  6
Continuous
 62
     3
100
AcDbLine
 10
65.18
 20
668.32
 30
0.0
 11
66.89
 21
668.1599999999999
 31
0.0
  0
LINE
  5
220
330
1E
100
AcDbEntity
  8
default
  6
Continuous
 62
     1
100
AcDbLine
 10
-65.18
 20
668.32
 30
0.0
 11
-66.89
 21
668.1599999999999
 31
0.0
  0
LINE
  5
221
330
1E
100
AcDbEntity
  8
default
  6
Continuous
 62
     3
100
AcDbLine
 10
66.89
 20
668.1599999999999
 30
0.0
 11
68.59999999999999
 21
667.9899999999999
 31
0.0
  0
LINE
  5
222
330
1E
100
AcDbEntity
  8
default
  6
Continuous
 62
     1
100
AcDbLine
 10
-66.89
 20
668.1599999999999
 30
0.0
 11
-68.59999999999999
 21
667.9899999999999
 31
0.0
  0
LINE
  5
223
330
1E
100
AcDbEntity
  8
default
  6
Continuous
 62
     3
100
AcDbLine
 10
68.59999999999999
 20
667.9899999999999
 30
0.0
 11
70.31
 21
667.8099999999999
 31
0.0
  0
LINE
  5
224
330
1E
100
AcDbEntity
  8
default
  6
Continuous
 62
     1
100
AcDbLine
 10
-68.59999999999999
 20
667.9899999999999
 30
0.0
 11
-70.31
 21
667.8099999999999
 31
0.0
  0
LINE
  5
225
330
1E
100
AcDbEntity
  8
default
  6
Continuous
 62
     3
100
AcDbLine
 10
70.31
 20
667.8099999999999
 30
0.0
 11
72.01999999999999
 21
667.64
 31
0.0
  0
LINE
  5
226
330
1E
100
AcDbEntity
  8
default
  6
Continuous
 62
     1
100
AcDbLine
 10
-70.31
 20
667.8099999999999
 30
0.0
 11
-72.01999999999999
 21
667.64
 31
0.0
  0
LINE
  5
227
330
1E
100
AcDbEntity
  8
default
  6
Continuous
 62
     3
100
AcDbLine
 10
72.01999999999999
 20
667.64
 30
0.0
 11
73.71999999999999
 21
667.45
 31
0.0
  0
LINE
  5
228
330
1E
100
AcDbEntity
  8
default
  6
Continuous
 62
     1
100
AcDbLine
 10
-72.01999999999999
 20
667.64
 30
0.0
 11
-73.71999999999999
 21
667.45
 31
0.0
  0
LINE
  5
229
330
1E
100
AcDbEntity
  8
default
  6
Continuous
 62
     3
100
AcDbLine
 10
73.71999999999999
 20
667.45
 30
0.0
 11
75.43000000000001
 21
667.2699999999999
 31
0.0
  0
LINE
  5
22A
330
1E
100
AcDbEntity
  8
default
  6
Continuous
 62
     1
100
AcDbLine
 10
-73.71999999999999
 20
667.45
 30
0.0
 11
-75.43000000000001
 21
667.2699999999999
 31
0.0
  0
LINE
  5
22B
330
1E
100
AcDbEntity
  8
default
  6
Continuous
 62
     3
100
AcDbLine
 10
75.43000000000001
 20
667.2699999999999
 30
0.0
 11
77.14
 21
667.08
 31
0.0
  0
LINE
  5
22C
330
1E
100
AcDbEntity
  8
default
  6
Continuous
 62
     1
100
AcDbLine
 10
-75.43000000000001
 20
667.2699999999999
 30
0.0
 11
-77.14
 21
667.08
 31
0.0
  0
LINE
  5
22D
330
1E
100
AcDbEntity
  8
default
  6
Continuous
 62
     3
100
AcDbLine
 10
77.14
 20
667.08
 30
0.0
 11
78.84
 21
666.88
 31
0.0
  0
LINE
  5
22E
330
1E
100
AcDbEntity
  8
default
  6
Continuous
 62
     1
100
AcDbLine
 10
-77.14
 20
667.08
 30
0.0
 11
-78.84
 21
666.88
 31
0.0
  0
LINE
  5
22F
330
1E
100
AcDbEntity
  8
default
  6
Continuous
 62
     3
100
AcDbLine
 10
78.84
 20
666.88
 30
0.0
 11
80.54999999999999
 21
666.6799999999999
 31
0.0
  0
LINE
  5
230
330
1E
100
AcDbEntity
  8
default
  6
Continuous
 62
     1
100
AcDbLine
 10
-78.84
 20
666.88
 30
0.0
 11
-80.54999999999999
 21
666.6799999999999
 31
0.0
  0
LINE
  5
231
330
1E
100
AcDbEntity
  8
default
  6
Continuous
 62
     3
100
AcDbLine
 10
80.54999999999999
 20
666.6799999999999
 30
0.0
 11
82.26
 21
666.48
 31
0.0
  0
LINE
  5
232
330
1E
100
AcDbEntity
  8
default
  6
Continuous
 62
     1
100
AcDbLine
 10
-80.54999999999999
 20
666.6799999999999
 30
0.0
 11
-82.26
 21
666.48
 31
0.0
  0
LINE
  5
233
330
1E
100
AcDbEntity
  8
default
  6
Continuous
 62
     3
100
AcDbLine
 10
82.26
 20
666.48
 30
0.0
 11
83.95999999999999
 21
666.27
 31
0.0
  0
LINE
  5
234
330
1E
100
AcDbEntity
  8
default
  6
Continuous
 62
     1
100
AcDbLine
 10
-82.26
 20
666.48
 30
0.0
 11
-83.95999999999999
 21
666.27
 31
0.0
  0
LINE
  5
235
330
1E
100
AcDbEntity
  8
default
  6
Continuous
 62
     3
100
AcDbLine
 10
83.95999999999999
 20
666.27
 30
0.0
 11
85.67
 21
666.0599999999999
 31
0.0
  0
LINE
  5
236
330
1E
100
AcDbEntity
  8
default
  6
Continuous
 62
     1
100
AcDbLine
 10
-83.95999999999999
 20
666.27
 30
0.0
 11
-85.67
 21
666.0599999999999
 31
0.0
  0
LINE
  5
237
330
1E
100
AcDbEntity
  8
default
  6
Continuous
 62
     3
100
AcDbLine
 10
85.67
 20
666.0599999999999
 30
0.0
 11
87.37
 21
665.84
 31
0.0
  0
LINE
  5
238
330
1E
100
AcDbEntity
  8
default
  6
Continuous
 62
     1
100
AcDbLine
 10
-85.67
 20
666.0599999999999
 30
0.0
 11
-87.37
 21
665.84
 31
0.0
  0
LINE
  5
239
330
1E
100
AcDbEntity
  8
default
  6
Continuous
 62
     3
100
AcDbLine
 10
87.37
 20
665.84
 30
0.0
 11
89.07
 21
665.62
 31
0.0
  0
LINE
  5
23A
330
1E
100
AcDbEntity
  8
default
  6
Continuous
 62
     1
100
AcDbLine
 10
-87.37
 20
665.84
 30
0.0
 11
-89.07
 21
665.62
 31
0.0
  0
LINE
  5
23B
330
1E
100
AcDbEntity
  8
default
  6
Continuous
 62
     3
100
AcDbLine
 10
89.07
 20
665.62
 30
0.0
 11
90.78000000000001
 21
665.39
 31
0.0
  0
LINE
  5
23C
330
1E
100
AcDbEntity
  8
default
  6
Continuous
 62
     1
100
AcDbLine
 10
-89.07
 20
665.62
 30
0.0
 11
-90.78000000000001
 21
665.39
 31
0.0
  0
LINE
  5
23D
330
1E
100
AcDbEntity
  8
default
  6
Continuous
 62
     3
100
AcDbLine
 10
90.78000000000001
 20
665.39
 30
0.0
 11
92.48000000000001
 21
665.16
 31
0.0
  0
LINE
  5
23E
330
1E
100
AcDbEntity
  8
default
  6
Continuous
 62
     1
100
AcDbLine
 10
-90.78000000000001
 20
665.39
 30
0.0
 11
-92.48000000000001
 21
665.16
 31
0.0
  0
LINE
  5
23F
330
1E
100
AcDbEntity
  8
default
  6
Continuous
 62
     3
100
AcDbLine
 10
92.48000000000001
 20
665.16
 30
0.0
 11
94.18000000000001
 21
664.9299999999999
 31
0.0
  0
LINE
  5
240
330
1E
100
AcDbEntity
  8
default
  6
Continuous
 62
     1
100
AcDbLine
 10
-92.48000000000001
 20
665.16
 30
0.0
 11
-94.18000000000001
 21
664.9299999999999
 31
0.0
  0
LINE
  5
241
330
1E
100
AcDbEntity
  8
default
  6
Continuous
 62
     3
100
AcDbLine
 10
94.18000000000001
 20
664.9299999999999
 30
0.0
 11
95.87999999999999
 21
664.69
 31
0.0
  0
LINE
  5
242
330
1E
100
AcDbEntity
  8
default
  6
Continuous
 62
     1
100
AcDbLine
 10
-94.18000000000001
 20
664.9299999999999
 30
0.0
 11
-95.87999999999999
 21
664.69
 31
0.0
  0
LINE
  5
243
330
1E
100
AcDbEntity
  8
default
  6
Continuous
 62
     3
100
AcDbLine
 10
95.87999999999999
 20
664.69
 30
0.0
 11
97.58
 21
664.45
 31
0.0
  0
LINE
  5
244
330
1E
100
AcDbEntity
  8
default
  6
Continuous
 62
     1
100
AcDbLine
 10
-95.87999999999999
 20
664.69
 30
0.0
 11
-97.58
 21
664.45
 31
0.0
  0
LINE
  5
245
330
1E
100
AcDbEntity
  8
default
  6
Continuous
 62
     3
100
AcDbLine
 10
97.58
 20
664.45
 30
0.0
 11
99.28
 21
664.2
 31
0.0
  0
LINE
  5
246
330
1E
100
AcDbEntity
  8
default
  6
Continuous
 62
     1
100
AcDbLine
 10
-97.58
 20
664.45
 30
0.0
 11
-99.28
 21
664.2
 31
0.0
  0
LINE
  5
247
330
1E
100
AcDbEntity
  8
default
  6
Continuous
 62
     3
100
AcDbLine
 10
99.28
 20
664.2
 30
0.0
 11
100.98
 21
663.95
 31
0.0
  0
LINE
  5
248
330
1E
100
AcDbEntity
  8
default
  6
Continuous
 62
     1
100
AcDbLine
 10
-99.28
 20
664.2
 30
0.0
 11
-100.98
 21
663.95
 31
0.0
  0
LINE
  5
249
330
1E
100
AcDbEntity
  8
default
  6
Continuous
 62
     3
100
AcDbLine
 10
100.98
 20
663.95
 30
0.0
 11
102.68
 21
663.69
 31
0.0
  0
LINE
  5
24A
330
1E
100
AcDbEntity
  8
default
  6
Continuous
 62
     1
100
AcDbLine
 10
-100.98
 20
663.95
 30
0.0
 11
-102.68
 21
663.69
 31
0.0
  0
LINE
  5
24B
330
1E
100
AcDbEntity
  8
default
  6
Continuous
 62
     3
100
AcDbLine
 10
102.68
 20
663.69
 30
0.0
 11
104.38
 21
663.4299999999999
 31
0.0
  0
LINE
  5
24C
330
1E
100
AcDbEntity
  8
default
  6
Continuous
 62
     1
100
AcDbLine
 10
-102.68
 20
663.69
 30
0.0
 11
-104.38
 21
663.4299999999999
 31
0.0
  0
LINE
  5
24D
330
1E
100
AcDbEntity
  8
default
  6
Continuous
 62
     3
100
AcDbLine
 10
104.38
 20
663.4299999999999
 30
0.0
 11
106.0799999999999
 21
663.1699999999999
 31
0.0
  0
LINE
  5
24E
330
1E
100
AcDbEntity
  8
default
  6
Continuous
 62
     1
100
AcDbLine
 10
-104.38
 20
663.4299999999999
 30
0.0
 11
-106.0799999999999
 21
663.1699999999999
 31
0.0
  0
LINE
  5
24F
330
1E
100
AcDbEntity
  8
default
  6
Continuous
 62
     3
100
AcDbLine
 10
106.0799999999999
 20
663.1699999999999
 30
0.0
 11
107.7699999999999
 21
662.8999999999999
 31
0.0
  0
LINE
  5
250
330
1E
100
AcDbEntity
  8
default
  6
Continuous
 62
     1
100
AcDbLine
 10
-106.0799999999999
 20
663.1699999999999
 30
0.0
 11
-107.7699999999999
 21
662.8999999999999
 31
0.0
  0
LINE
  5
251
330
1E
100
AcDbEntity
  8
default
  6
Continuous
 62
     3
100
AcDbLine
 10
107.7699999999999
 20
662.8999999999999
 30
0.0
 11
109.47
 21
662.63
 31
0.0
  0
LINE
  5
252
330
1E
100
AcDbEntity
  8
default
  6
Continuous
 62
     1
100
AcDbLine
 10
-107.7699999999999
 20
662.8999999999999
 30
0.0
 11
-109.47
 21
662.63
 31
0.0
  0
LINE
  5
253
330
1E
100
AcDbEntity
  8
default
  6
Continuous
 62
     3
100
AcDbLine
 10
109.47
 20
662.63
 30
0.0
 11
111.17
 21
662.3499999999999
 31
0.0
  0
LINE
  5
254
330
1E
100
AcDbEntity
  8
default
  6
Continuous
 62
     1
100
AcDbLine
 10
-109.47
 20
662.63
 30
0.0
 11
-111.17
 21
662.3499999999999
 31
0.0
  0
LINE
  5
255
330
1E
100
AcDbEntity
  8
default
  6
Continuous
 62
     3
100
AcDbLine
 10
111.17
 20
662.3499999999999
 30
0.0
 11
112.86
 21
662.07
 31
0.0
  0
LINE
  5
256
330
1E
100
AcDbEntity
  8
default
  6
Continuous
 62
     1
100
AcDbLine
 10
-111.17
 20
662.3499999999999
 30
0.0
 11
-112.86
 21
662.07
 31
0.0
  0
LINE
  5
257
330
1E
100
AcDbEntity
  8
default
  6
Continuous
 62
     3
100
AcDbLine
 10
112.86
 20
662.07
 30
0.0
 11
114.5499999999999
 21
661.7899999999999
 31
0.0
  0
LINE
  5
258
330
1E
100
AcDbEntity
  8
default
  6
Continuous
 62
     1
100
AcDbLine
 10
-112.86
 20
662.07
 30
0.0
 11
-114.5499999999999
 21
661.7899999999999
 31
0.0
  0
LINE
  5
259
330
1E
100
AcDbEntity
  8
default
  6
Continuous
 62
     3
100
AcDbLine
 10
114.5499999999999
 20
661.7899999999999
 30
0.0
 11
116.25
 21
661.5
 31
0.0
  0
LINE
  5
25A
330
1E
100
AcDbEntity
  8
default
  6
Continuous
 62
     1
100
AcDbLine
 10
-114.5499999999999
 20
661.7899999999999
 30
0.0
 11
-116.25
 21
661.5
 31
0.0
  0
LINE
  5
25B
330
1E
100
AcDbEntity
  8
default
  6
Continuous
 62
     3
100
AcDbLine
 10
116.25
 20
661.5
 30
0.0
 11
117.94
 21
661.21
 31
0.0
  0
LINE
  5
25C
330
1E
100
AcDbEntity
  8
default
  6
Continuous
 62
     1
100
AcDbLine
 10
-116.25
 20
661.5
 30
0.0
 11
-117.94
 21
661.21
 31
0.0
  0
LINE
  5
25D
330
1E
100
AcDbEntity
  8
default
  6
Continuous
 62
     3
100
AcDbLine
 10
117.94
 20
661.21
 30
0.0
 11
119.6299999999999
 21
660.9099999999999
 31
0.0
  0
LINE
  5
25E
330
1E
100
AcDbEntity
  8
default
  6
Continuous
 62
     1
100
AcDbLine
 10
-117.94
 20
661.21
 30
0.0
 11
-119.6299999999999
 21
660.9099999999999
 31
0.0
  0
LINE
  5
25F
330
1E
100
AcDbEntity
  8
default
  6
Continuous
 62
     3
100
AcDbLine
 10
119.6299999999999
 20
660.9099999999999
 30
0.0
 11
121.32
 21
660.61
 31
0.0
  0
LINE
  5
260
330
1E
100
AcDbEntity
  8
default
  6
Continuous
 62
     1
100
AcDbLine
 10
-119.6299999999999
 20
660.9099999999999
 30
0.0
 11
-121.32
 21
660.61
 31
0.0
  0
LINE
  5
261
330
1E
100
AcDbEntity
  8
default
  6
Continuous
 62
     3
100
AcDbLine
 10
121.32
 20
660.61
 30
0.0
 11
123.0099999999999
 21
660.2999999999999
 31
0.0
  0
LINE
  5
262
330
1E
100
AcDbEntity
  8
default
  6
Continuous
 62
     1
100
AcDbLine
 10
-121.32
 20
660.61
 30
0.0
 11
-123.0099999999999
 21
660.2999999999999
 31
0.0
  0
LINE
  5
263
330
1E
100
AcDbEntity
  8
default
  6
Continuous
 62
     3
100
AcDbLine
 10
123.0099999999999
 20
660.2999999999999
 30
0.0
 11
124.7
 21
659.9899999999999
 31
0.0
  0
LINE
  5
264
330
1E
100
AcDbEntity
  8
default
  6
Continuous
 62
     1
100
AcDbLine
 10
-123.0099999999999
 20
660.2999999999999
 30
0.0
 11
-124.7
 21
659.9899999999999
 31
0.0
  0
LINE
  5
265
330
1E
100
AcDbEntity
  8
default
  6
Continuous
 62
     3
100
AcDbLine
 10
124.7
 20
659.9899999999999
 30
0.0
 11
126.39
 21
659.6699999999999
 31
0.0
  0
LINE
  5
266
330
1E
100
AcDbEntity
  8
default
  6
Continuous
 62
     1
100
AcDbLine
 10
-124.7
 20
659.9899999999999
 30
0.0
 11
-126.39
 21
659.6699999999999
 31
0.0
  0
LINE
  5
267
330
1E
100
AcDbEntity
  8
default
  6
Continuous
 62
     3
100
AcDbLine
 10
126.39
 20
659.6699999999999
 30
0.0
 11
128.08
 21
659.35
 31
0.0
  0
LINE
  5
268
330
1E
100
AcDbEntity
  8
default
  6
Continuous
 62
     1
100
AcDbLine
 10
-126.39
 20
659.6699999999999
 30
0.0
 11
-128.08
 21
659.35
 31
0.0
  0
LINE
  5
269
330
1E
100
AcDbEntity
  8
default
  6
Continuous
 62
     3
100
AcDbLine
 10
128.08
 20
659.35
 30
0.0
 11
129.77
 21
659.03
 31
0.0
  0
LINE
  5
26A
330
1E
100
AcDbEntity
  8
default
  6
Continuous
 62
     1
100
AcDbLine
 10
-128.08
 20
659.35
 30
0.0
 11
-129.77
 21
659.03
 31
0.0
  0
LINE
  5
26B
330
1E
100
AcDbEntity
  8
default
  6
Continuous
 62
     3
100
AcDbLine
 10
129.77
 20
659.03
 30
0.0
 11
131.45
 21
658.7
 31
0.0
  0
LINE
  5
26C
330
1E
100
AcDbEntity
  8
default
  6
Continuous
 62
     1
100
AcDbLine
 10
-129.77
 20
659.03
 30
0.0
 11
-131.45
 21
658.7
 31
0.0
  0
LINE
  5
26D
330
1E
100
AcDbEntity
  8
default
  6
Continuous
 62
     3
100
AcDbLine
 10
131.45
 20
658.7
 30
0.0
 11
133.1399999999999
 21
658.37
 31
0.0
  0
LINE
  5
26E
330
1E
100
AcDbEntity
  8
default
  6
Continuous
 62
     1
100
AcDbLine
 10
-131.45
 20
658.7
 30
0.0
 11
-133.1399999999999
 21
658.37
 31
0.0
  0
LINE
  5
26F
330
1E
100
AcDbEntity
  8
default
  6
Continuous
 62
     3
100
AcDbLine
 10
133.1399999999999
 20
658.37
 30
0.0
 11
134.82
 21
658.04
 31
0.0
  0
LINE
  5
270
330
1E
100
AcDbEntity
  8
default
  6
Continuous
 62
     1
100
AcDbLine
 10
-133.1399999999999
 20
658.37
 30
0.0
 11
-134.82
 21
658.04
 31
0.0
  0
LINE
  5
271
330
1E
100
AcDbEntity
  8
default
  6
Continuous
 62
     3
100
AcDbLine
 10
134.82
 20
658.04
 30
0.0
 11
136.5099999999999
 21
657.7
 31
0.0
  0
LINE
  5
272
330
1E
100
AcDbEntity
  8
default
  6
Continuous
 62
     1
100
AcDbLine
 10
-134.82
 20
658.04
 30
0.0
 11
-136.5099999999999
 21
657.7
 31
0.0
  0
LINE
  5
273
330
1E
100
AcDbEntity
  8
default
  6
Continuous
 62
     3
100
AcDbLine
 10
136.5099999999999
 20
657.7
 30
0.0
 11
138.1899999999999
 21
657.35
 31
0.0
  0
LINE
  5
274
330
1E
100
AcDbEntity
  8
default
  6
Continuous
 62
     1
100
AcDbLine
 10
-136.5099999999999
 20
657.7
 30
0.0
 11
-138.1899999999999
 21
657.35
 31
0.0
  0
LINE
  5
275
330
1E
100
AcDbEntity
  8
default
  6
Continuous
 62
     3
100
AcDbLine
 10
138.1899999999999
 20
657.35
 30
0.0
 11
139.87
 21
657.0
 31
0.0
  0
LINE
  5
276
330
1E
100
AcDbEntity
  8
default
  6
Continuous
 62
     1
100
AcDbLine
 10
-138.1899999999999
 20
657.35
 30
0.0
 11
-139.87
 21
657.0
 31
0.0
  0
LINE
  5
277
330
1E
100
AcDbEntity
  8
default
  6
Continuous
 62
     3
100
AcDbLine
 10
139.87
 20
657.0
 30
0.0
 11
141.55
 21
656.6499999999999
 31
0.0
  0
LINE
  5
278
330
1E
100
AcDbEntity
  8
default
  6
Continuous
 62
     1
100
AcDbLine
 10
-139.87
 20
657.0
 30
0.0
 11
-141.55
 21
656.6499999999999
 31
0.0
  0
LINE
  5
279
330
1E
100
AcDbEntity
  8
default
  6
Continuous
 62
     3
100
AcDbLine
 10
141.55
 20
656.6499999999999
 30
0.0
 11
143.2299999999999
 21
656.2899999999999
 31
0.0
  0
LINE
  5
27A
330
1E
100
AcDbEntity
  8
default
  6
Continuous
 62
     1
100
AcDbLine
 10
-141.55
 20
656.6499999999999
 30
0.0
 11
-143.2299999999999
 21
656.2899999999999
 31
0.0
  0
LINE
  5
27B
330
1E
100
AcDbEntity
  8
default
  6
Continuous
 62
     3
100
AcDbLine
 10
143.2299999999999
 20
656.2899999999999
 30
0.0
 11
144.91
 21
655.9299999999999
 31
0.0
  0
LINE
  5
27C
330
1E
100
AcDbEntity
  8
default
  6
Continuous
 62
     1
100
AcDbLine
 10
-143.2299999999999
 20
656.2899999999999
 30
0.0
 11
-144.91
 21
655.9299999999999
 31
0.0
  0
LINE
  5
27D
330
1E
100
AcDbEntity
  8
default
  6
Continuous
 62
     3
100
AcDbLine
 10
144.91
 20
655.9299999999999
 30
0.0
 11
146.5899999999999
 21
655.57
 31
0.0
  0
LINE
  5
27E
330
1E
100
AcDbEntity
  8
default
  6
Continuous
 62
     1
100
AcDbLine
 10
-144.91
 20
655.9299999999999
 30
0.0
 11
-146.5899999999999
 21
655.57
 31
0.0
  0
LINE
  5
27F
330
1E
100
AcDbEntity
  8
default
  6
Continuous
 62
     3
100
AcDbLine
 10
146.5899999999999
 20
655.57
 30
0.0
 11
148.27
 21
655.2
 31
0.0
  0
LINE
  5
280
330
1E
100
AcDbEntity
  8
default
  6
Continuous
 62
     1
100
AcDbLine
 10
-146.5899999999999
 20
655.57
 30
0.0
 11
-148.27
 21
655.2
 31
0.0
  0
LINE
  5
281
330
1E
100
AcDbEntity
  8
default
  6
Continuous
 62
     3
100
AcDbLine
 10
148.27
 20
655.2
 30
0.0
 11
149.9499999999999
 21
654.82
 31
0.0
  0
LINE
  5
282
330
1E
100
AcDbEntity
  8
default
  6
Continuous
 62
     1
100
AcDbLine
 10
-148.27
 20
655.2
 30
0.0
 11
-149.9499999999999
 21
654.82
 31
0.0
  0
LINE
  5
283
330
1E
100
AcDbEntity
  8
default
  6
Continuous
 62
     3
100
AcDbLine
 10
149.9499999999999
 20
654.82
 30
0.0
 11
151.6199999999999
 21
654.45
 31
0.0
  0
LINE
  5
284
330
1E
100
AcDbEntity
  8
default
  6
Continuous
 62
     1
100
AcDbLine
 10
-149.9499999999999
 20
654.82
 30
0.0
 11
-151.6199999999999
 21
654.45
 31
0.0
  0
LINE
  5
285
330
1E
100
AcDbEntity
  8
default
  6
Continuous
 62
     3
100
AcDbLine
 10
151.6199999999999
 20
654.45
 30
0.0
 11
153.3
 21
654.0599999999999
 31
0.0
  0
LINE
  5
286
330
1E
100
AcDbEntity
  8
default
  6
Continuous
 62
     1
100
AcDbLine
 10
-151.6199999999999
 20
654.45
 30
0.0
 11
-153.3
 21
654.0599999999999
 31
0.0
  0
LINE
  5
287
330
1E
100
AcDbEntity
  8
default
  6
Continuous
 62
     3
100
AcDbLine
 10
153.3
 20
654.0599999999999
 30
0.0
 11
154.97
 21
653.6799999999999
 31
0.0
  0
LINE
  5
288
330
1E
100
AcDbEntity
  8
default
  6
Continuous
 62
     1
100
AcDbLine
 10
-153.3
 20
654.0599999999999
 30
0.0
 11
-154.97
 21
653.6799999999999
 31
0.0
  0
LINE
  5
289
330
1E
100
AcDbEntity
  8
default
  6
Continuous
 62
     3
100
AcDbLine
 10
154.97
 20
653.6799999999999
 30
0.0
 11
156.6399999999999
 21
653.2899999999999
 31
0.0
  0
LINE
  5
28A
330
1E
100
AcDbEntity
  8
default
  6
Continuous
 62
     1
100
AcDbLine
 10
-154.97
 20
653.6799999999999
 30
0.0
 11
-156.6399999999999
 21
653.2899999999999
 31
0.0
  0
LINE
  5
28B
330
1E
100
AcDbEntity
  8
default
  6
Continuous
 62
     3
100
AcDbLine
 10
156.6399999999999
 20
653.2899999999999
 30
0.0
 11
158.3099999999999
 21
652.89
 31
0.0
  0
LINE
  5
28C
330
1E
100
AcDbEntity
  8
default
  6
Continuous
 62
     1
100
AcDbLine
 10
-156.6399999999999
 20
653.2899999999999
 30
0.0
 11
-158.3099999999999
 21
652.89
 31
0.0
  0
LINE
  5
28D
330
1E
100
AcDbEntity
  8
default
  6
Continuous
 62
     3
100
AcDbLine
 10
158.3099999999999
 20
652.89
 30
0.0
 11
159.99
 21
652.49
 31
0.0
  0
LINE
  5
28E
330
1E
100
AcDbEntity
  8
default
  6
Continuous
 62
     1
100
AcDbLine
 10
-158.3099999999999
 20
652.89
 30
0.0
 11
-159.99
 21
652.49
 31
0.0
  0
LINE
  5
28F
330
1E
100
AcDbEntity
  8
default
  6
Continuous
 62
     3
100
AcDbLine
 10
159.99
 20
652.49
 30
0.0
 11
161.66
 21
652.09
 31
0.0
  0
LINE
  5
290
330
1E
100
AcDbEntity
  8
default
  6
Continuous
 62
     1
100
AcDbLine
 10
-159.99
 20
652.49
 30
0.0
 11
-161.66
 21
652.09
 31
0.0
  0
LINE
  5
291
330
1E
100
AcDbEntity
  8
default
  6
Continuous
 62
     3
100
AcDbLine
 10
161.66
 20
652.09
 30
0.0
 11
163.3199999999999
 21
651.6799999999999
 31
0.0
  0
LINE
  5
292
330
1E
100
AcDbEntity
  8
default
  6
Continuous
 62
     1
100
AcDbLine
 10
-161.66
 20
652.09
 30
0.0
 11
-163.3199999999999
 21
651.6799999999999
 31
0.0
  0
LINE
  5
293
330
1E
100
AcDbEntity
  8
default
  6
Continuous
 62
     3
100
AcDbLine
 10
163.3199999999999
 20
651.6799999999999
 30
0.0
 11
164.99
 21
651.2699999999999
 31
0.0
  0
LINE
  5
294
330
1E
100
AcDbEntity
  8
default
  6
Continuous
 62
     1
100
AcDbLine
 10
-163.3199999999999
 20
651.6799999999999
 30
0.0
 11
-164.99
 21
651.2699999999999
 31
0.0
  0
LINE
  5
295
330
1E
100
AcDbEntity
  8
default
  6
Continuous
 62
     3
100
AcDbLine
 10
164.99
 20
651.2699999999999
 30
0.0
 11
166.66
 21
650.86
 31
0.0
  0
LINE
  5
296
330
1E
100
AcDbEntity
  8
default
  6
Continuous
 62
     1
100
AcDbLine
 10
-164.99
 20
651.2699999999999
 30
0.0
 11
-166.66
 21
650.86
 31
0.0
  0
LINE
  5
297
330
1E
100
AcDbEntity
  8
default
  6
Continuous
 62
     3
100
AcDbLine
 10
166.66
 20
650.86
 30
0.0
 11
168.32
 21
650.44
 31
0.0
  0
LINE
  5
298
330
1E
100
AcDbEntity
  8
default
  6
Continuous
 62
     1
100
AcDbLine
 10
-166.66
 20
650.86
 30
0.0
 11
-168.32
 21
650.44
 31
0.0
  0
LINE
  5
299
330
1E
100
AcDbEntity
  8
default
  6
Continuous
 62
     3
100
AcDbLine
 10
168.32
 20
650.44
 30
0.0
 11
170.0399999999999
 21
650.0
 31
0.0
  0
LINE
  5
29A
330
1E
100
AcDbEntity
  8
default
  6
Continuous
 62
     1
100
AcDbLine
 10
-168.32
 20
650.44
 30
0.0
 11
-170.0399999999999
 21
650.0
 31
0.0
  0
LINE
  5
29B
330
1E
100
AcDbEntity
  8
default
  6
Continuous
 62
     3
100
AcDbLine
 10
170.0399999999999
 20
650.0
 30
0.0
 11
171.76
 21
649.5499999999999
 31
0.0
  0
LINE
  5
29C
330
1E
100
AcDbEntity
  8
default
  6
Continuous
 62
     1
100
AcDbLine
 10
-170.0399999999999
 20
650.0
 30
0.0
 11
-171.76
 21
649.5499999999999
 31
0.0
  0
LINE
  5
29D
330
1E
100
AcDbEntity
  8
default
  6
Continuous
 62
     3
100
AcDbLine
 10
171.76
 20
649.5499999999999
 30
0.0
 11
173.47
 21
649.1
 31
0.0
  0
LINE
  5
29E
330
1E
100
AcDbEntity
  8
default
  6
Continuous
 62
     1
100
AcDbLine
 10
-171.76
 20
649.5499999999999
 30
0.0
 11
-173.47
 21
649.1
 31
0.0
  0
LINE
  5
29F
330
1E
100
AcDbEntity
  8
default
  6
Continuous
 62
     3
100
AcDbLine
 10
173.47
 20
649.1
 30
0.0
 11
175.19
 21
648.6399999999999
 31
0.0
  0
LINE
  5
2A0
330
1E
100
AcDbEntity
  8
default
  6
Continuous
 62
     1
100
AcDbLine
 10
-173.47
 20
649.1
 30
0.0
 11
-175.19
 21
648.6399999999999
 31
0.0
  0
LINE
  5
2A1
330
1E
100
AcDbEntity
  8
default
  6
Continuous
 62
     3
100
AcDbLine
 10
175.19
 20
648.6399999999999
 30
0.0
 11
176.9
 21
648.1799999999999
 31
0.0
  0
LINE
  5
2A2
330
1E
100
AcDbEntity
  8
default
  6
Continuous
 62
     1
100
AcDbLine
 10
-175.19
 20
648.6399999999999
 30
0.0
 11
-176.9
 21
648.1799999999999
 31
0.0
  0
LINE
  5
2A3
330
1E
100
AcDbEntity
  8
default
  6
Continuous
 62
     3
100
AcDbLine
 10
176.9
 20
648.1799999999999
 30
0.0
 11
178.61
 21
647.71
 31
0.0
  0
LINE
  5
2A4
330
1E
100
AcDbEntity
  8
default
  6
Continuous
 62
     1
100
AcDbLine
 10
-176.9
 20
648.1799999999999
 30
0.0
 11
-178.61
 21
647.71
 31
0.0
  0
LINE
  5
2A5
330
1E
100
AcDbEntity
  8
default
  6
Continuous
 62
     3
100
AcDbLine
 10
178.61
 20
647.71
 30
0.0
 11
180.31
 21
647.23
 31
0.0
  0
LINE
  5
2A6
330
1E
100
AcDbEntity
  8
default
  6
Continuous
 62
     1
100
AcDbLine
 10
-178.61
 20
647.71
 30
0.0
 11
-180.31
 21
647.23
 31
0.0
  0
LINE
  5
2A7
330
1E
100
AcDbEntity
  8
default
  6
Continuous
 62
     3
100
AcDbLine
 10
180.31
 20
647.23
 30
0.0
 11
182.0199999999999
 21
646.75
 31
0.0
  0
LINE
  5
2A8
330
1E
100
AcDbEntity
  8
default
  6
Continuous
 62
     1
100
AcDbLine
 10
-180.31
 20
647.23
 30
0.0
 11
-182.0199999999999
 21
646.75
 31
0.0
  0
LINE
  5
2A9
330
1E
100
AcDbEntity
  8
default
  6
Continuous
 62
     3
100
AcDbLine
 10
182.0199999999999
 20
646.75
 30
0.0
 11
183.7199999999999
 21
646.26
 31
0.0
  0
LINE
  5
2AA
330
1E
100
AcDbEntity
  8
default
  6
Continuous
 62
     1
100
AcDbLine
 10
-182.0199999999999
 20
646.75
 30
0.0
 11
-183.7199999999999
 21
646.26
 31
0.0
  0
LINE
  5
2AB
330
1E
100
AcDbEntity
  8
default
  6
Continuous
 62
     3
100
AcDbLine
 10
183.7199999999999
 20
646.26
 30
0.0
 11
185.43
 21
645.7699999999999
 31
0.0
  0
LINE
  5
2AC
330
1E
100
AcDbEntity
  8
default
  6
Continuous
 62
     1
100
AcDbLine
 10
-183.7199999999999
 20
646.26
 30
0.0
 11
-185.43
 21
645.7699999999999
 31
0.0
  0
LINE
  5
2AD
330
1E
100
AcDbEntity
  8
default
  6
Continuous
 62
     3
100
AcDbLine
 10
185.43
 20
645.7699999999999
 30
0.0
 11
187.1299999999999
 21
645.27
 31
0.0
  0
LINE
  5
2AE
330
1E
100
AcDbEntity
  8
default
  6
Continuous
 62
     1
100
AcDbLine
 10
-185.43
 20
645.7699999999999
 30
0.0
 11
-187.1299999999999
 21
645.27
 31
0.0
  0
LINE
  5
2AF
330
1E
100
AcDbEntity
  8
default
  6
Continuous
 62
     3
100
AcDbLine
 10
187.1299999999999
 20
645.27
 30
0.0
 11
188.83
 21
644.76
 31
0.0
  0
LINE
  5
2B0
330
1E
100
AcDbEntity
  8
default
  6
Continuous
 62
     1
100
AcDbLine
 10
-187.1299999999999
 20
645.27
 30
0.0
 11
-188.83
 21
644.76
 31
0.0
  0
LINE
  5
2B1
330
1E
100
AcDbEntity
  8
default
  6
Continuous
 62
     3
100
AcDbLine
 10
188.83
 20
644.76
 30
0.0
 11
190.52
 21
644.2499999999999
 31
0.0
  0
LINE
  5
2B2
330
1E
100
AcDbEntity
  8
default
  6
Continuous
 62
     1
100
AcDbLine
 10
-188.83
 20
644.76
 30
0.0
 11
-190.52
 21
644.2499999999999
 31
0.0
  0
LINE
  5
2B3
330
1E
100
AcDbEntity
  8
default
  6
Continuous
 62
     3
100
AcDbLine
 10
190.52
 20
644.2499999999999
 30
0.0
 11
192.22
 21
643.73
 31
0.0
  0
LINE
  5
2B4
330
1E
100
AcDbEntity
  8
default
  6
Continuous
 62
     1
100
AcDbLine
 10
-190.52
 20
644.2499999999999
 30
0.0
 11
-192.22
 21
643.73
 31
0.0
  0
LINE
  5
2B5
330
1E
100
AcDbEntity
  8
default
  6
Continuous
 62
     3
100
AcDbLine
 10
192.22
 20
643.73
 30
0.0
 11
193.91
 21
643.21
 31
0.0
  0
LINE
  5
2B6
330
1E
100
AcDbEntity
  8
default
  6
Continuous
 62
     1
100
AcDbLine
 10
-192.22
 20
643.73
 30
0.0
 11
-193.91
 21
643.21
 31
0.0
  0
LINE
  5
2B7
330
1E
100
AcDbEntity
  8
default
  6
Continuous
 62
     3
100
AcDbLine
 10
193.91
 20
643.21
 30
0.0
 11
195.5999999999999
 21
642.68
 31
0.0
  0
LINE
  5
2B8
330
1E
100
AcDbEntity
  8
default
  6
Continuous
 62
     1
100
AcDbLine
 10
-193.91
 20
643.21
 30
0.0
 11
-195.5999999999999
 21
642.68
 31
0.0
  0
LINE
  5
2B9
330
1E
100
AcDbEntity
  8
default
  6
Continuous
 62
     3
100
AcDbLine
 10
195.5999999999999
 20
642.68
 30
0.0
 11
197.2899999999999
 21
642.14
 31
0.0
  0
LINE
  5
2BA
330
1E
100
AcDbEntity
  8
default
  6
Continuous
 62
     1
100
AcDbLine
 10
-195.5999999999999
 20
642.68
 30
0.0
 11
-197.2899999999999
 21
642.14
 31
0.0
  0
LINE
  5
2BB
330
1E
100
AcDbEntity
  8
default
  6
Continuous
 62
     3
100
AcDbLine
 10
197.2899999999999
 20
642.14
 30
0.0
 11
198.9799999999999
 21
641.6
 31
0.0
  0
LINE
  5
2BC
330
1E
100
AcDbEntity
  8
default
  6
Continuous
 62
     1
100
AcDbLine
 10
-197.2899999999999
 20
642.14
 30
0.0
 11
-198.9799999999999
 21
641.6
 31
0.0
  0
LINE
  5
2BD
330
1E
100
AcDbEntity
  8
default
  6
Continuous
 62
     3
100
AcDbLine
 10
198.9799999999999
 20
641.6
 30
0.0
 11
200.6699999999999
 21
641.0499999999999
 31
0.0
  0
LINE
  5
2BE
330
1E
100
AcDbEntity
  8
default
  6
Continuous
 62
     1
100
AcDbLine
 10
-198.9799999999999
 20
641.6
 30
0.0
 11
-200.6699999999999
 21
641.0499999999999
 31
0.0
  0
LINE
  5
2BF
330
1E
100
AcDbEntity
  8
default
  6
Continuous
 62
     3
100
AcDbLine
 10
200.6699999999999
 20
641.0499999999999
 30
0.0
 11
202.3499999999999
 21
640.49
 31
0.0
  0
LINE
  5
2C0
330
1E
100
AcDbEntity
  8
default
  6
Continuous
 62
     1
100
AcDbLine
 10
-200.6699999999999
 20
641.0499999999999
 30
0.0
 11
-202.3499999999999
 21
640.49
 31
0.0
  0
LINE
  5
2C1
330
1E
100
AcDbEntity
  8
default
  6
Continuous
 62
     3
100
AcDbLine
 10
202.3499999999999
 20
640.49
 30
0.0
 11
204.03
 21
639.9299999999999
 31
0.0
  0
LINE
  5
2C2
330
1E
100
AcDbEntity
  8
default
  6
Continuous
 62
     1
100
AcDbLine
 10
-202.3499999999999
 20
640.49
 30
0.0
 11
-204.03
 21
639.9299999999999
 31
0.0
  0
LINE
  5
2C3
330
1E
100
AcDbEntity
  8
default
  6
Continuous
 62
     3
100
AcDbLine
 10
204.03
 20
639.9299999999999
 30
0.0
 11
205.71
 21
639.36
 31
0.0
  0
LINE
  5
2C4
330
1E
100
AcDbEntity
  8
default
  6
Continuous
 62
     1
100
AcDbLine
 10
-204.03
 20
639.9299999999999
 30
0.0
 11
-205.71
 21
639.36
 31
0.0
  0
LINE
  5
2C5
330
1E
100
AcDbEntity
  8
default
  6
Continuous
 62
     3
100
AcDbLine
 10
205.71
 20
639.36
 30
0.0
 11
207.39
 21
638.79
 31
0.0
  0
LINE
  5
2C6
330
1E
100
AcDbEntity
  8
default
  6
Continuous
 62
     1
100
AcDbLine
 10
-205.71
 20
639.36
 30
0.0
 11
-207.39
 21
638.79
 31
0.0
  0
LINE
  5
2C7
330
1E
100
AcDbEntity
  8
default
  6
Continuous
 62
     3
100
AcDbLine
 10
207.39
 20
638.79
 30
0.0
 11
209.06
 21
638.21
 31
0.0
  0
LINE
  5
2C8
330
1E
100
AcDbEntity
  8
default
  6
Continuous
 62
     1
100
AcDbLine
 10
-207.39
 20
638.79
 30
0.0
 11
-209.06
 21
638.21
 31
0.0
  0
LINE
  5
2C9
330
1E
100
AcDbEntity
  8
default
  6
Continuous
 62
     3
100
AcDbLine
 10
209.06
 20
638.21
 30
0.0
 11
210.74
 21
637.6199999999999
 31
0.0
  0
LINE
  5
2CA
330
1E
100
AcDbEntity
  8
default
  6
Continuous
 62
     1
100
AcDbLine
 10
-209.06
 20
638.21
 30
0.0
 11
-210.74
 21
637.6199999999999
 31
0.0
  0
LINE
  5
2CB
330
1E
100
AcDbEntity
  8
default
  6
Continuous
 62
     3
100
AcDbLine
 10
210.74
 20
637.6199999999999
 30
0.0
 11
212.4099999999999
 21
637.03
 31
0.0
  0
LINE
  5
2CC
330
1E
100
AcDbEntity
  8
default
  6
Continuous
 62
     1
100
AcDbLine
 10
-210.74
 20
637.6199999999999
 30
0.0
 11
-212.4099999999999
 21
637.03
 31
0.0
  0
LINE
  5
2CD
330
1E
100
AcDbEntity
  8
default
  6
Continuous
 62
     3
100
AcDbLine
 10
212.4099999999999
 20
637.03
 30
0.0
 11
214.08
 21
636.43
 31
0.0
  0
LINE
  5
2CE
330
1E
100
AcDbEntity
  8
default
  6
Continuous
 62
     1
100
AcDbLine
 10
-212.4099999999999
 20
637.03
 30
0.0
 11
-214.08
 21
636.43
 31
0.0
  0
LINE
  5
2CF
330
1E
100
AcDbEntity
  8
default
  6
Continuous
 62
     3
100
AcDbLine
 10
214.08
 20
636.43
 30
0.0
 11
215.75
 21
635.83
 31
0.0
  0
LINE
  5
2D0
330
1E
100
AcDbEntity
  8
default
  6
Continuous
 62
     1
100
AcDbLine
 10
-214.08
 20
636.43
 30
0.0
 11
-215.75
 21
635.83
 31
0.0
  0
LINE
  5
2D1
330
1E
100
AcDbEntity
  8
default
  6
Continuous
 62
     3
100
AcDbLine
 10
215.75
 20
635.83
 30
0.0
 11
217.41
 21
635.22
 31
0.0
  0
LINE
  5
2D2
330
1E
100
AcDbEntity
  8
default
  6
Continuous
 62
     1
100
AcDbLine
 10
-215.75
 20
635.83
 30
0.0
 11
-217.41
 21
635.22
 31
0.0
  0
LINE
  5
2D3
330
1E
100
AcDbEntity
  8
default
  6
Continuous
 62
     3
100
AcDbLine
 10
217.41
 20
635.22
 30
0.0
 11
219.07
 21
634.6
 31
0.0
  0
LINE
  5
2D4
330
1E
100
AcDbEntity
  8
default
  6
Continuous
 62
     1
100
AcDbLine
 10
-217.41
 20
635.22
 30
0.0
 11
-219.07
 21
634.6
 31
0.0
  0
LINE
  5
2D5
330
1E
100
AcDbEntity
  8
default
  6
Continuous
 62
     3
100
AcDbLine
 10
219.07
 20
634.6
 30
0.0
 11
220.73
 21
633.98
 31
0.0
  0
LINE
  5
2D6
330
1E
100
AcDbEntity
  8
default
  6
Continuous
 62
     1
100
AcDbLine
 10
-219.07
 20
634.6
 30
0.0
 11
-220.73
 21
633.98
 31
0.0
  0
LINE
  5
2D7
330
1E
100
AcDbEntity
  8
default
  6
Continuous
 62
     3
100
AcDbLine
 10
220.73
 20
633.98
 30
0.0
 11
222.3899999999999
 21
633.35
 31
0.0
  0
LINE
  5
2D8
330
1E
100
AcDbEntity
  8
default
  6
Continuous
 62
     1
100
AcDbLine
 10
-220.73
 20
633.98
 30
0.0
 11
-222.3899999999999
 21
633.35
 31
0.0
  0
LINE
  5
2D9
330
1E
100
AcDbEntity
  8
default
  6
Continuous
 62
     3
100
AcDbLine
 10
222.3899999999999
 20
633.35
 30
0.0
 11
224.05
 21
632.72
 31
0.0
  0
LINE
  5
2DA
330
1E
100
AcDbEntity
  8
default
  6
Continuous
 62
     1
100
AcDbLine
 10
-222.3899999999999
 20
633.35
 30
0.0
 11
-224.05
 21
632.72
 31
0.0
  0
LINE
  5
2DB
330
1E
100
AcDbEntity
  8
default
  6
Continuous
 62
     3
100
AcDbLine
 10
224.05
 20
632.72
 30
0.0
 11
225.7
 21
632.08
 31
0.0
  0
LINE
  5
2DC
330
1E
100
AcDbEntity
  8
default
  6
Continuous
 62
     1
100
AcDbLine
 10
-224.05
 20
632.72
 30
0.0
 11
-225.7
 21
632.08
 31
0.0
  0
LINE
  5
2DD
330
1E
100
AcDbEntity
  8
default
  6
Continuous
 62
     3
100
AcDbLine
 10
225.7
 20
632.08
 30
0.0
 11
227.3499999999999
 21
631.4299999999999
 31
0.0
  0
LINE
  5
2DE
330
1E
100
AcDbEntity
  8
default
  6
Continuous
 62
     1
100
AcDbLine
 10
-225.7
 20
632.08
 30
0.0
 11
-227.3499999999999
 21
631.4299999999999
 31
0.0
  0
LINE
  5
2DF
330
1E
100
AcDbEntity
  8
default
  6
Continuous
 62
     3
100
AcDbLine
 10
227.3499999999999
 20
631.4299999999999
 30
0.0
 11
229.0
 21
630.78
 31
0.0
  0
LINE
  5
2E0
330
1E
100
AcDbEntity
  8
default
  6
Continuous
 62
     1
100
AcDbLine
 10
-227.3499999999999
 20
631.4299999999999
 30
0.0
 11
-229.0
 21
630.78
 31
0.0
  0
LINE
  5
2E1
330
1E
100
AcDbEntity
  8
default
  6
Continuous
 62
     3
100
AcDbLine
 10
229.0
 20
630.78
 30
0.0
 11
230.65
 21
630.12
 31
0.0
  0
LINE
  5
2E2
330
1E
100
AcDbEntity
  8
default
  6
Continuous
 62
     1
100
AcDbLine
 10
-229.0
 20
630.78
 30
0.0
 11
-230.65
 21
630.12
 31
0.0
  0
LINE
  5
2E3
330
1E
100
AcDbEntity
  8
default
  6
Continuous
 62
     3
100
AcDbLine
 10
230.65
 20
630.12
 30
0.0
 11
232.29
 21
629.46
 31
0.0
  0
LINE
  5
2E4
330
1E
100
AcDbEntity
  8
default
  6
Continuous
 62
     1
100
AcDbLine
 10
-230.65
 20
630.12
 30
0.0
 11
-232.29
 21
629.46
 31
0.0
  0
LINE
  5
2E5
330
1E
100
AcDbEntity
  8
default
  6
Continuous
 62
     3
100
AcDbLine
 10
232.29
 20
629.46
 30
0.0
 11
233.93
 21
628.7899999999999
 31
0.0
  0
LINE
  5
2E6
330
1E
100
AcDbEntity
  8
default
  6
Continuous
 62
     1
100
AcDbLine
 10
-232.29
 20
629.46
 30
0.0
 11
-233.93
 21
628.7899999999999
 31
0.0
  0
LINE
  5
2E7
330
1E
100
AcDbEntity
  8
default
  6
Continuous
 62
     3
100
AcDbLine
 10
233.93
 20
628.7899999999999
 30
0.0
 11
235.57
 21
628.11
 31
0.0
  0
LINE
  5
2E8
330
1E
100
AcDbEntity
  8
default
  6
Continuous
 62
     1
100
AcDbLine
 10
-233.93
 20
628.7899999999999
 30
0.0
 11
-235.57
 21
628.11
 31
0.0
  0
LINE
  5
2E9
330
1E
100
AcDbEntity
  8
default
  6
Continuous
 62
     3
100
AcDbLine
 10
235.57
 20
628.11
 30
0.0
 11
237.21
 21
627.4299999999999
 31
0.0
  0
LINE
  5
2EA
330
1E
100
AcDbEntity
  8
default
  6
Continuous
 62
     1
100
AcDbLine
 10
-235.57
 20
628.11
 30
0.0
 11
-237.21
 21
627.4299999999999
 31
0.0
  0
LINE
  5
2EB
330
1E
100
AcDbEntity
  8
default
  6
Continuous
 62
     3
100
AcDbLine
 10
237.21
 20
627.4299999999999
 30
0.0
 11
238.84
 21
626.74
 31
0.0
  0
LINE
  5
2EC
330
1E
100
AcDbEntity
  8
default
  6
Continuous
 62
     1
100
AcDbLine
 10
-237.21
 20
627.4299999999999
 30
0.0
 11
-238.84
 21
626.74
 31
0.0
  0
LINE
  5
2ED
330
1E
100
AcDbEntity
  8
default
  6
Continuous
 62
     3
100
AcDbLine
 10
238.84
 20
626.74
 30
0.0
 11
240.47
 21
626.0499999999999
 31
0.0
  0
LINE
  5
2EE
330
1E
100
AcDbEntity
  8
default
  6
Continuous
 62
     1
100
AcDbLine
 10
-238.84
 20
626.74
 30
0.0
 11
-240.47
 21
626.0499999999999
 31
0.0
  0
LINE
  5
2EF
330
1E
100
AcDbEntity
  8
default
  6
Continuous
 62
     3
100
AcDbLine
 10
240.47
 20
626.0499999999999
 30
0.0
 11
242.0999999999999
 21
625.35
 31
0.0
  0
LINE
  5
2F0
330
1E
100
AcDbEntity
  8
default
  6
Continuous
 62
     1
100
AcDbLine
 10
-240.47
 20
626.0499999999999
 30
0.0
 11
-242.0999999999999
 21
625.35
 31
0.0
  0
LINE
  5
2F1
330
1E
100
AcDbEntity
  8
default
  6
Continuous
 62
     3
100
AcDbLine
 10
242.0999999999999
 20
625.35
 30
0.0
 11
243.73
 21
624.65
 31
0.0
  0
LINE
  5
2F2
330
1E
100
AcDbEntity
  8
default
  6
Continuous
 62
     1
100
AcDbLine
 10
-242.0999999999999
 20
625.35
 30
0.0
 11
-243.73
 21
624.65
 31
0.0
  0
LINE
  5
2F3
330
1E
100
AcDbEntity
  8
default
  6
Continuous
 62
     3
100
AcDbLine
 10
243.73
 20
624.65
 30
0.0
 11
245.35
 21
623.94
 31
0.0
  0
LINE
  5
2F4
330
1E
100
AcDbEntity
  8
default
  6
Continuous
 62
     1
100
AcDbLine
 10
-243.73
 20
624.65
 30
0.0
 11
-245.35
 21
623.94
 31
0.0
  0
LINE
  5
2F5
330
1E
100
AcDbEntity
  8
default
  6
Continuous
 62
     3
100
AcDbLine
 10
245.35
 20
623.94
 30
0.0
 11
246.97
 21
623.22
 31
0.0
  0
LINE
  5
2F6
330
1E
100
AcDbEntity
  8
default
  6
Continuous
 62
     1
100
AcDbLine
 10
-245.35
 20
623.94
 30
0.0
 11
-246.97
 21
623.22
 31
0.0
  0
LINE
  5
2F7
330
1E
100
AcDbEntity
  8
default
  6
Continuous
 62
     3
100
AcDbLine
 10
246.97
 20
623.22
 30
0.0
 11
248.5899999999999
 21
622.5
 31
0.0
  0
LINE
  5
2F8
330
1E
100
AcDbEntity
  8
default
  6
Continuous
 62
     1
100
AcDbLine
 10
-246.97
 20
623.22
 30
0.0
 11
-248.5899999999999
 21
622.5
 31
0.0
  0
LINE
  5
2F9
330
1E
100
AcDbEntity
  8
default
  6
Continuous
 62
     3
100
AcDbLine
 10
248.5899999999999
 20
622.5
 30
0.0
 11
250.2099999999999
 21
621.7699999999999
 31
0.0
  0
LINE
  5
2FA
330
1E
100
AcDbEntity
  8
default
  6
Continuous
 62
     1
100
AcDbLine
 10
-248.5899999999999
 20
622.5
 30
0.0
 11
-250.2099999999999
 21
621.7699999999999
 31
0.0
  0
LINE
  5
2FB
330
1E
100
AcDbEntity
  8
default
  6
Continuous
 62
     3
100
AcDbLine
 10
250.2099999999999
 20
621.7699999999999
 30
0.0
 11
251.8199999999999
 21
621.03
 31
0.0
  0
LINE
  5
2FC
330
1E
100
AcDbEntity
  8
default
  6
Continuous
 62
     1
100
AcDbLine
 10
-250.2099999999999
 20
621.7699999999999
 30
0.0
 11
-251.8199999999999
 21
621.03
 31
0.0
  0
LINE
  5
2FD
330
1E
100
AcDbEntity
  8
default
  6
Continuous
 62
     3
100
AcDbLine
 10
251.8199999999999
 20
621.03
 30
0.0
 11
253.4299999999999
 21
620.2899999999999
 31
0.0
  0
LINE
  5
2FE
330
1E
100
AcDbEntity
  8
default
  6
Continuous
 62
     1
100
AcDbLine
 10
-251.8199999999999
 20
621.03
 30
0.0
 11
-253.4299999999999
 21
620.2899999999999
 31
0.0
  0
LINE
  5
2FF
330
1E
100
AcDbEntity
  8
default
  6
Continuous
 62
     3
100
AcDbLine
 10
253.4299999999999
 20
620.2899999999999
 30
0.0
 11
255.0399999999999
 21
619.55
 31
0.0
  0
LINE
  5
300
330
1E
100
AcDbEntity
  8
default
  6
Continuous
 62
     1
100
AcDbLine
 10
-253.4299999999999
 20
620.2899999999999
 30
0.0
 11
-255.0399999999999
 21
619.55
 31
0.0
  0
LINE
  5
301
330
1E
100
AcDbEntity
  8
default
  6
Continuous
 62
     3
100
AcDbLine
 10
255.0399999999999
 20
619.55
 30
0.0
 11
256.65
 21
618.7899999999999
 31
0.0
  0
LINE
  5
302
330
1E
100
AcDbEntity
  8
default
  6
Continuous
 62
     1
100
AcDbLine
 10
-255.0399999999999
 20
619.55
 30
0.0
 11
-256.65
 21
618.7899999999999
 31
0.0
  0
LINE
  5
303
330
1E
100
AcDbEntity
  8
default
  6
Continuous
 62
     3
100
AcDbLine
 10
256.65
 20
618.7899999999999
 30
0.0
 11
258.25
 21
618.0399999999999
 31
0.0
  0
LINE
  5
304
330
1E
100
AcDbEntity
  8
default
  6
Continuous
 62
     1
100
AcDbLine
 10
-256.65
 20
618.7899999999999
 30
0.0
 11
-258.25
 21
618.0399999999999
 31
0.0
  0
LINE
  5
305
330
1E
100
AcDbEntity
  8
default
  6
Continuous
 62
     3
100
AcDbLine
 10
258.25
 20
618.0399999999999
 30
0.0
 11
259.85
 21
617.2699999999999
 31
0.0
  0
LINE
  5
306
330
1E
100
AcDbEntity
  8
default
  6
Continuous
 62
     1
100
AcDbLine
 10
-258.25
 20
618.0399999999999
 30
0.0
 11
-259.85
 21
617.2699999999999
 31
0.0
  0
LINE
  5
307
330
1E
100
AcDbEntity
  8
default
  6
Continuous
 62
     3
100
AcDbLine
 10
259.85
 20
617.2699999999999
 30
0.0
 11
261.45
 21
616.5
 31
0.0
  0
LINE
  5
308
330
1E
100
AcDbEntity
  8
default
  6
Continuous
 62
     1
100
AcDbLine
 10
-259.85
 20
617.2699999999999
 30
0.0
 11
-261.45
 21
616.5
 31
0.0
  0
LINE
  5
309
330
1E
100
AcDbEntity
  8
default
  6
Continuous
 62
     3
100
AcDbLine
 10
261.45
 20
616.5
 30
0.0
 11
263.04
 21
615.73
 31
0.0
  0
LINE
  5
30A
330
1E
100
AcDbEntity
  8
default
  6
Continuous
 62
     1
100
AcDbLine
 10
-261.45
 20
616.5
 30
0.0
 11
-263.04
 21
615.73
 31
0.0
  0
LINE
  5
30B
330
1E
100
AcDbEntity
  8
default
  6
Continuous
 62
     3
100
AcDbLine
 10
263.04
 20
615.73
 30
0.0
 11
264.63
 21
614.95
 31
0.0
  0
LINE
  5
30C
330
1E
100
AcDbEntity
  8
default
  6
Continuous
 62
     1
100
AcDbLine
 10
-263.04
 20
615.73
 30
0.0
 11
-264.63
 21
614.95
 31
0.0
  0
LINE
  5
30D
330
1E
100
AcDbEntity
  8
default
  6
Continuous
 62
     3
100
AcDbLine
 10
264.63
 20
614.95
 30
0.0
 11
266.22
 21
614.1599999999999
 31
0.0
  0
LINE
  5
30E
330
1E
100
AcDbEntity
  8
default
  6
Continuous
 62
     1
100
AcDbLine
 10
-264.63
 20
614.95
 30
0.0
 11
-266.22
 21
614.1599999999999
 31
0.0
  0
LINE
  5
30F
330
1E
100
AcDbEntity
  8
default
  6
Continuous
 62
     3
100
AcDbLine
 10
266.22
 20
614.1599999999999
 30
0.0
 11
267.81
 21
613.37
 31
0.0
  0
LINE
  5
310
330
1E
100
AcDbEntity
  8
default
  6
Continuous
 62
     1
100
AcDbLine
 10
-266.22
 20
614.1599999999999
 30
0.0
 11
-267.81
 21
613.37
 31
0.0
  0
LINE
  5
311
330
1E
100
AcDbEntity
  8
default
  6
Continuous
 62
     3
100
AcDbLine
 10
267.81
 20
613.37
 30
0.0
 11
269.3899999999999
 21
612.5700000000001
 31
0.0
  0
LINE
  5
312
330
1E
100
AcDbEntity
  8
default
  6
Continuous
 62
     1
100
AcDbLine
 10
-267.81
 20
613.37
 30
0.0
 11
-269.3899999999999
 21
612.5700000000001
 31
0.0
  0
LINE
  5
313
330
1E
100
AcDbEntity
  8
default
  6
Continuous
 62
     3
100
AcDbLine
 10
269.3899999999999
 20
612.5700000000001
 30
0.0
 11
270.97
 21
611.77
 31
0.0
  0
LINE
  5
314
330
1E
100
AcDbEntity
  8
default
  6
Continuous
 62
     1
100
AcDbLine
 10
-269.3899999999999
 20
612.5700000000001
 30
0.0
 11
-270.97
 21
611.77
 31
0.0
  0
LINE
  5
315
330
1E
100
AcDbEntity
  8
default
  6
Continuous
 62
     3
100
AcDbLine
 10
270.97
 20
611.77
 30
0.0
 11
272.55
 21
610.96
 31
0.0
  0
LINE
  5
316
330
1E
100
AcDbEntity
  8
default
  6
Continuous
 62
     1
100
AcDbLine
 10
-270.97
 20
611.77
 30
0.0
 11
-272.55
 21
610.96
 31
0.0
  0
LINE
  5
317
330
1E
100
AcDbEntity
  8
default
  6
Continuous
 62
     3
100
AcDbLine
 10
272.55
 20
610.96
 30
0.0
 11
274.12
 21
610.1399999999999
 31
0.0
  0
LINE
  5
318
330
1E
100
AcDbEntity
  8
default
  6
Continuous
 62
     1
100
AcDbLine
 10
-272.55
 20
610.96
 30
0.0
 11
-274.12
 21
610.1399999999999
 31
0.0
  0
LINE
  5
319
330
1E
100
AcDbEntity
  8
default
  6
Continuous
 62
     3
100
AcDbLine
 10
274.12
 20
610.1399999999999
 30
0.0
 11
275.6899999999999
 21
609.32
 31
0.0
  0
LINE
  5
31A
330
1E
100
AcDbEntity
  8
default
  6
Continuous
 62
     1
100
AcDbLine
 10
-274.12
 20
610.1399999999999
 30
0.0
 11
-275.6899999999999
 21
609.32
 31
0.0
  0
LINE
  5
31B
330
1E
100
AcDbEntity
  8
default
  6
Continuous
 62
     3
100
AcDbLine
 10
275.6899999999999
 20
609.32
 30
0.0
 11
277.26
 21
608.49
 31
0.0
  0
LINE
  5
31C
330
1E
100
AcDbEntity
  8
default
  6
Continuous
 62
     1
100
AcDbLine
 10
-275.6899999999999
 20
609.32
 30
0.0
 11
-277.26
 21
608.49
 31
0.0
  0
LINE
  5
31D
330
1E
100
AcDbEntity
  8
default
  6
Continuous
 62
     3
100
AcDbLine
 10
277.26
 20
608.49
 30
0.0
 11
278.83
 21
607.66
 31
0.0
  0
LINE
  5
31E
330
1E
100
AcDbEntity
  8
default
  6
Continuous
 62
     1
100
AcDbLine
 10
-277.26
 20
608.49
 30
0.0
 11
-278.83
 21
607.66
 31
0.0
  0
LINE
  5
31F
330
1E
100
AcDbEntity
  8
default
  6
Continuous
 62
     3
100
AcDbLine
 10
278.83
 20
607.66
 30
0.0
 11
280.39
 21
606.82
 31
0.0
  0
LINE
  5
320
330
1E
100
AcDbEntity
  8
default
  6
Continuous
 62
     1
100
AcDbLine
 10
-278.83
 20
607.66
 30
0.0
 11
-280.39
 21
606.82
 31
0.0
  0
LINE
  5
321
330
1E
100
AcDbEntity
  8
default
  6
Continuous
 62
     3
100
AcDbLine
 10
280.39
 20
606.82
 30
0.0
 11
281.95
 21
605.98
 31
0.0
  0
LINE
  5
322
330
1E
100
AcDbEntity
  8
default
  6
Continuous
 62
     1
100
AcDbLine
 10
-280.39
 20
606.82
 30
0.0
 11
-281.95
 21
605.98
 31
0.0
  0
LINE
  5
323
330
1E
100
AcDbEntity
  8
default
  6
Continuous
 62
     3
100
AcDbLine
 10
281.95
 20
605.98
 30
0.0
 11
283.51
 21
605.13
 31
0.0
  0
LINE
  5
324
330
1E
100
AcDbEntity
  8
default
  6
Continuous
 62
     1
100
AcDbLine
 10
-281.95
 20
605.98
 30
0.0
 11
-283.51
 21
605.13
 31
0.0
  0
LINE
  5
325
330
1E
100
AcDbEntity
  8
default
  6
Continuous
 62
     3
100
AcDbLine
 10
283.51
 20
605.13
 30
0.0
 11
285.06
 21
604.2799999999999
 31
0.0
  0
LINE
  5
326
330
1E
100
AcDbEntity
  8
default
  6
Continuous
 62
     1
100
AcDbLine
 10
-283.51
 20
605.13
 30
0.0
 11
-285.06
 21
604.2799999999999
 31
0.0
  0
LINE
  5
327
330
1E
100
AcDbEntity
  8
default
  6
Continuous
 62
     3
100
AcDbLine
 10
285.06
 20
604.2799999999999
 30
0.0
 11
286.61
 21
603.4199999999999
 31
0.0
  0
LINE
  5
328
330
1E
100
AcDbEntity
  8
default
  6
Continuous
 62
     1
100
AcDbLine
 10
-285.06
 20
604.2799999999999
 30
0.0
 11
-286.61
 21
603.4199999999999
 31
0.0
  0
LINE
  5
329
330
1E
100
AcDbEntity
  8
default
  6
Continuous
 62
     3
100
AcDbLine
 10
286.61
 20
603.4199999999999
 30
0.0
 11
288.16
 21
602.55
 31
0.0
  0
LINE
  5
32A
330
1E
100
AcDbEntity
  8
default
  6
Continuous
 62
     1
100
AcDbLine
 10
-286.61
 20
603.4199999999999
 30
0.0
 11
-288.16
 21
602.55
 31
0.0
  0
LINE
  5
32B
330
1E
100
AcDbEntity
  8
default
  6
Continuous
 62
     3
100
AcDbLine
 10
288.16
 20
602.55
 30
0.0
 11
289.6999999999999
 21
601.6799999999999
 31
0.0
  0
LINE
  5
32C
330
1E
100
AcDbEntity
  8
default
  6
Continuous
 62
     1
100
AcDbLine
 10
-288.16
 20
602.55
 30
0.0
 11
-289.6999999999999
 21
601.6799999999999
 31
0.0
  0
LINE
  5
32D
330
1E
100
AcDbEntity
  8
default
  6
Continuous
 62
     3
100
AcDbLine
 10
289.6999999999999
 20
601.6799999999999
 30
0.0
 11
291.24
 21
600.8
 31
0.0
  0
LINE
  5
32E
330
1E
100
AcDbEntity
  8
default
  6
Continuous
 62
     1
100
AcDbLine
 10
-289.6999999999999
 20
601.6799999999999
 30
0.0
 11
-291.24
 21
600.8
 31
0.0
  0
LINE
  5
32F
330
1E
100
AcDbEntity
  8
default
  6
Continuous
 62
     3
100
AcDbLine
 10
291.24
 20
600.8
 30
0.0
 11
292.7799999999999
 21
599.92
 31
0.0
  0
LINE
  5
330
330
1E
100
AcDbEntity
  8
default
  6
Continuous
 62
     1
100
AcDbLine
 10
-291.24
 20
600.8
 30
0.0
 11
-292.7799999999999
 21
599.92
 31
0.0
  0
LINE
  5
331
330
1E
100
AcDbEntity
  8
default
  6
Continuous
 62
     3
100
AcDbLine
 10
292.7799999999999
 20
599.92
 30
0.0
 11
294.31
 21
599.0299999999999
 31
0.0
  0
LINE
  5
332
330
1E
100
AcDbEntity
  8
default
  6
Continuous
 62
     1
100
AcDbLine
 10
-292.7799999999999
 20
599.92
 30
0.0
 11
-294.31
 21
599.0299999999999
 31
0.0
  0
LINE
  5
333
330
1E
100
AcDbEntity
  8
default
  6
Continuous
 62
     3
100
AcDbLine
 10
294.31
 20
599.0299999999999
 30
0.0
 11
295.8399999999999
 21
598.1399999999999
 31
0.0
  0
LINE
  5
334
330
1E
100
AcDbEntity
  8
default
  6
Continuous
 62
     1
100
AcDbLine
 10
-294.31
 20
599.0299999999999
 30
0.0
 11
-295.8399999999999
 21
598.1399999999999
 31
0.0
  0
LINE
  5
335
330
1E
100
AcDbEntity
  8
default
  6
Continuous
 62
     3
100
AcDbLine
 10
295.8399999999999
 20
598.1399999999999
 30
0.0
 11
297.37
 21
597.24
 31
0.0
  0
LINE
  5
336
330
1E
100
AcDbEntity
  8
default
  6
Continuous
 62
     1
100
AcDbLine
 10
-295.8399999999999
 20
598.1399999999999
 30
0.0
 11
-297.37
 21
597.24
 31
0.0
  0
LINE
  5
337
330
1E
100
AcDbEntity
  8
default
  6
Continuous
 62
     3
100
AcDbLine
 10
297.37
 20
597.24
 30
0.0
 11
298.8999999999999
 21
596.33
 31
0.0
  0
LINE
  5
338
330
1E
100
AcDbEntity
  8
default
  6
Continuous
 62
     1
100
AcDbLine
 10
-297.37
 20
597.24
 30
0.0
 11
-298.8999999999999
 21
596.33
 31
0.0
  0
LINE
  5
339
330
1E
100
AcDbEntity
  8
default
  6
Continuous
 62
     3
100
AcDbLine
 10
298.8999999999999
 20
596.33
 30
0.0
 11
300.42
 21
595.4199999999999
 31
0.0
  0
LINE
  5
33A
330
1E
100
AcDbEntity
  8
default
  6
Continuous
 62
     1
100
AcDbLine
 10
-298.8999999999999
 20
596.33
 30
0.0
 11
-300.42
 21
595.4199999999999
 31
0.0
  0
LINE
  5
33B
330
1E
100
AcDbEntity
  8
default
  6
Continuous
 62
     3
100
AcDbLine
 10
300.42
 20
595.4199999999999
 30
0.0
 11
301.94
 21
594.51
 31
0.0
  0
LINE
  5
33C
330
1E
100
AcDbEntity
  8
default
  6
Continuous
 62
     1
100
AcDbLine
 10
-300.42
 20
595.4199999999999
 30
0.0
 11
-301.94
 21
594.51
 31
0.0
  0
LINE
  5
33D
330
1E
100
AcDbEntity
  8
default
  6
Continuous
 62
     3
100
AcDbLine
 10
301.94
 20
594.51
 30
0.0
 11
303.4499999999999
 21
593.58
 31
0.0
  0
LINE
  5
33E
330
1E
100
AcDbEntity
  8
default
  6
Continuous
 62
     1
100
AcDbLine
 10
-301.94
 20
594.51
 30
0.0
 11
-303.4499999999999
 21
593.58
 31
0.0
  0
LINE
  5
33F
330
1E
100
AcDbEntity
  8
default
  6
Continuous
 62
     3
100
AcDbLine
 10
303.4499999999999
 20
593.58
 30
0.0
 11
304.9599999999999
 21
592.6599999999999
 31
0.0
  0
LINE
  5
340
330
1E
100
AcDbEntity
  8
default
  6
Continuous
 62
     1
100
AcDbLine
 10
-303.4499999999999
 20
593.58
 30
0.0
 11
-304.9599999999999
 21
592.6599999999999
 31
0.0
  0
LINE
  5
341
330
1E
100
AcDbEntity
  8
default
  6
Continuous
 62
     3
100
AcDbLine
 10
304.9599999999999
 20
592.6599999999999
 30
0.0
 11
306.47
 21
591.73
 31
0.0
  0
LINE
  5
342
330
1E
100
AcDbEntity
  8
default
  6
Continuous
 62
     1
100
AcDbLine
 10
-304.9599999999999
 20
592.6599999999999
 30
0.0
 11
-306.47
 21
591.73
 31
0.0
  0
LINE
  5
343
330
1E
100
AcDbEntity
  8
default
  6
Continuous
 62
     3
100
AcDbLine
 10
306.47
 20
591.73
 30
0.0
 11
307.97
 21
590.7899999999999
 31
0.0
  0
LINE
  5
344
330
1E
100
AcDbEntity
  8
default
  6
Continuous
 62
     1
100
AcDbLine
 10
-306.47
 20
591.73
 30
0.0
 11
-307.97
 21
590.7899999999999
 31
0.0
  0
LINE
  5
345
330
1E
100
AcDbEntity
  8
default
  6
Continuous
 62
     3
100
AcDbLine
 10
307.97
 20
590.7899999999999
 30
0.0
 11
309.48
 21
589.84
 31
0.0
  0
LINE
  5
346
330
1E
100
AcDbEntity
  8
default
  6
Continuous
 62
     1
100
AcDbLine
 10
-307.97
 20
590.7899999999999
 30
0.0
 11
-309.48
 21
589.84
 31
0.0
  0
LINE
  5
347
330
1E
100
AcDbEntity
  8
default
  6
Continuous
 62
     3
100
AcDbLine
 10
309.48
 20
589.84
 30
0.0
 11
310.97
 21
588.9
 31
0.0
  0
LINE
  5
348
330
1E
100
AcDbEntity
  8
default
  6
Continuous
 62
     1
100
AcDbLine
 10
-309.48
 20
589.84
 30
0.0
 11
-310.97
 21
588.9
 31
0.0
  0
LINE
  5
349
330
1E
100
AcDbEntity
  8
default
  6
Continuous
 62
     3
100
AcDbLine
 10
310.97
 20
588.9
 30
0.0
 11
312.47
 21
587.94
 31
0.0
  0
LINE
  5
34A
330
1E
100
AcDbEntity
  8
default
  6
Continuous
 62
     1
100
AcDbLine
 10
-310.97
 20
588.9
 30
0.0
 11
-312.47
 21
587.94
 31
0.0
  0
LINE
  5
34B
330
1E
100
AcDbEntity
  8
default
  6
Continuous
 62
     3
100
AcDbLine
 10
312.47
 20
587.94
 30
0.0
 11
313.9599999999999
 21
586.98
 31
0.0
  0
LINE
  5
34C
330
1E
100
AcDbEntity
  8
default
  6
Continuous
 62
     1
100
AcDbLine
 10
-312.47
 20
587.94
 30
0.0
 11
-313.9599999999999
 21
586.98
 31
0.0
  0
LINE
  5
34D
330
1E
100
AcDbEntity
  8
default
  6
Continuous
 62
     3
100
AcDbLine
 10
313.9599999999999
 20
586.98
 30
0.0
 11
315.45
 21
586.0199999999999
 31
0.0
  0
LINE
  5
34E
330
1E
100
AcDbEntity
  8
default
  6
Continuous
 62
     1
100
AcDbLine
 10
-313.9599999999999
 20
586.98
 30
0.0
 11
-315.45
 21
586.0199999999999
 31
0.0
  0
LINE
  5
34F
330
1E
100
AcDbEntity
  8
default
  6
Continuous
 62
     3
100
AcDbLine
 10
315.45
 20
586.0199999999999
 30
0.0
 11
316.93
 21
585.0499999999999
 31
0.0
  0
LINE
  5
350
330
1E
100
AcDbEntity
  8
default
  6
Continuous
 62
     1
100
AcDbLine
 10
-315.45
 20
586.0199999999999
 30
0.0
 11
-316.93
 21
585.0499999999999
 31
0.0
  0
LINE
  5
351
330
1E
100
AcDbEntity
  8
default
  6
Continuous
 62
     3
100
AcDbLine
 10
316.93
 20
585.0499999999999
 30
0.0
 11
318.41
 21
584.07
 31
0.0
  0
LINE
  5
352
330
1E
100
AcDbEntity
  8
default
  6
Continuous
 62
     1
100
AcDbLine
 10
-316.93
 20
585.0499999999999
 30
0.0
 11
-318.41
 21
584.07
 31
0.0
  0
LINE
  5
353
330
1E
100
AcDbEntity
  8
default
  6
Continuous
 62
     3
100
AcDbLine
 10
318.41
 20
584.07
 30
0.0
 11
319.89
 21
583.09
 31
0.0
  0
LINE
  5
354
330
1E
100
AcDbEntity
  8
default
  6
Continuous
 62
     1
100
AcDbLine
 10
-318.41
 20
584.07
 30
0.0
 11
-319.89
 21
583.09
 31
0.0
  0
LINE
  5
355
330
1E
100
AcDbEntity
  8
default
  6
Continuous
 62
     3
100
AcDbLine
 10
319.89
 20
583.09
 30
0.0
 11
321.36
 21
582.1
 31
0.0
  0
LINE
  5
356
330
1E
100
AcDbEntity
  8
default
  6
Continuous
 62
     1
100
AcDbLine
 10
-319.89
 20
583.09
 30
0.0
 11
-321.36
 21
582.1
 31
0.0
  0
LINE
  5
357
330
1E
100
AcDbEntity
  8
default
  6
Continuous
 62
     3
100
AcDbLine
 10
321.36
 20
582.1
 30
0.0
 11
322.8299999999999
 21
581.11
 31
0.0
  0
LINE
  5
358
330
1E
100
AcDbEntity
  8
default
  6
Continuous
 62
     1
100
AcDbLine
 10
-321.36
 20
582.1
 30
0.0
 11
-322.8299999999999
 21
581.11
 31
0.0
  0
LINE
  5
359
330
1E
100
AcDbEntity
  8
default
  6
Continuous
 62
     3
100
AcDbLine
 10
322.8299999999999
 20
581.11
 30
0.0
 11
324.3
 21
580.12
 31
0.0
  0
LINE
  5
35A
330
1E
100
AcDbEntity
  8
default
  6
Continuous
 62
     1
100
AcDbLine
 10
-322.8299999999999
 20
581.11
 30
0.0
 11
-324.3
 21
580.12
 31
0.0
  0
LINE
  5
35B
330
1E
100
AcDbEntity
  8
default
  6
Continuous
 62
     3
100
AcDbLine
 10
324.3
 20
580.12
 30
0.0
 11
327.22
 21
578.11
 31
0.0
  0
LINE
  5
35C
330
1E
100
AcDbEntity
  8
default
  6
Continuous
 62
     1
100
AcDbLine
 10
-324.3
 20
580.12
 30
0.0
 11
-327.22
 21
578.11
 31
0.0
  0
LINE
  5
35D
330
1E
100
AcDbEntity
  8
default
  6
Continuous
 62
     3
100
AcDbLine
 10
327.22
 20
578.11
 30
0.0
 11
328.2399999999999
 21
577.39
 31
0.0
  0
LINE
  5
35E
330
1E
100
AcDbEntity
  8
default
  6
Continuous
 62
     1
100
AcDbLine
 10
-327.22
 20
578.11
 30
0.0
 11
-328.2399999999999
 21
577.39
 31
0.0
  0
LINE
  5
35F
330
1E
100
AcDbEntity
  8
default
  6
Continuous
 62
     3
100
AcDbLine
 10
328.2399999999999
 20
577.39
 30
0.0
 11
329.26
 21
576.6799999999999
 31
0.0
  0
LINE
  5
360
330
1E
100
AcDbEntity
  8
default
  6
Continuous
 62
     1
100
AcDbLine
 10
-328.2399999999999
 20
577.39
 30
0.0
 11
-329.26
 21
576.6799999999999
 31
0.0
  0
LINE
  5
361
330
1E
100
AcDbEntity
  8
default
  6
Continuous
 62
     3
100
AcDbLine
 10
329.26
 20
576.6799999999999
 30
0.0
 11
330.2799999999999
 21
575.95
 31
0.0
  0
LINE
  5
362
330
1E
100
AcDbEntity
  8
default
  6
Continuous
 62
     1
100
AcDbLine
 10
-329.26
 20
576.6799999999999
 30
0.0
 11
-330.2799999999999
 21
575.95
 31
0.0
  0
LINE
  5
363
330
1E
100
AcDbEntity
  8
default
  6
Continuous
 62
     3
100
AcDbLine
 10
330.2799999999999
 20
575.95
 30
0.0
 11
331.3
 21
575.2299999999999
 31
0.0
  0
LINE
  5
364
330
1E
100
AcDbEntity
  8
default
  6
Continuous
 62
     1
100
AcDbLine
 10
-330.2799999999999
 20
575.95
 30
0.0
 11
-331.3
 21
575.2299999999999
 31
0.0
  0
LINE
  5
365
330
1E
100
AcDbEntity
  8
default
  6
Continuous
 62
     3
100
AcDbLine
 10
331.3
 20
575.2299999999999
 30
0.0
 11
332.3199999999999
 21
574.5
 31
0.0
  0
LINE
  5
366
330
1E
100
AcDbEntity
  8
default
  6
Continuous
 62
     1
100
AcDbLine
 10
-331.3
 20
575.2299999999999
 30
0.0
 11
-332.3199999999999
 21
574.5
 31
0.0
  0
LINE
  5
367
330
1E
100
AcDbEntity
  8
default
  6
Continuous
 62
     3
100
AcDbLine
 10
332.3199999999999
 20
574.5
 30
0.0
 11
333.3299999999999
 21
573.77
 31
0.0
  0
LINE
  5
368
330
1E
100
AcDbEntity
  8
default
  6
Continuous
 62
     1
100
AcDbLine
 10
-332.3199999999999
 20
574.5
 30
0.0
 11
-333.3299999999999
 21
573.77
 31
0.0
  0
LINE
  5
369
330
1E
100
AcDbEntity
  8
default
  6
Continuous
 62
     3
100
AcDbLine
 10
333.3299999999999
 20
573.77
 30
0.0
 11
334.3399999999999
 21
573.0299999999999
 31
0.0
  0
LINE
  5
36A
330
1E
100
AcDbEntity
  8
default
  6
Continuous
 62
     1
100
AcDbLine
 10
-333.3299999999999
 20
573.77
 30
0.0
 11
-334.3399999999999
 21
573.0299999999999
 31
0.0
  0
LINE
  5
36B
330
1E
100
AcDbEntity
  8
default
  6
Continuous
 62
     3
100
AcDbLine
 10
334.3399999999999
 20
573.0299999999999
 30
0.0
 11
335.3399999999999
 21
572.29
 31
0.0
  0
LINE
  5
36C
330
1E
100
AcDbEntity
  8
default
  6
Continuous
 62
     1
100
AcDbLine
 10
-334.3399999999999
 20
573.0299999999999
 30
0.0
 11
-335.3399999999999
 21
572.29
 31
0.0
  0
LINE
  5
36D
330
1E
100
AcDbEntity
  8
default
  6
Continuous
 62
     3
100
AcDbLine
 10
335.3399999999999
 20
572.29
 30
0.0
 11
336.3399999999999
 21
571.5499999999999
 31
0.0
  0
LINE
  5
36E
330
1E
100
AcDbEntity
  8
default
  6
Continuous
 62
     1
100
AcDbLine
 10
-335.3399999999999
 20
572.29
 30
0.0
 11
-336.3399999999999
 21
571.5499999999999
 31
0.0
  0
LINE
  5
36F
330
1E
100
AcDbEntity
  8
default
  6
Continuous
 62
     3
100
AcDbLine
 10
336.3399999999999
 20
571.5499999999999
 30
0.0
 11
337.3399999999999
 21
570.7999999999999
 31
0.0
  0
LINE
  5
370
330
1E
100
AcDbEntity
  8
default
  6
Continuous
 62
     1
100
AcDbLine
 10
-336.3399999999999
 20
571.5499999999999
 30
0.0
 11
-337.3399999999999
 21
570.7999999999999
 31
0.0
  0
LINE
  5
371
330
1E
100
AcDbEntity
  8
default
  6
Continuous
 62
     3
100
AcDbLine
 10
337.3399999999999
 20
570.7999999999999
 30
0.0
 11
338.3399999999999
 21
570.04
 31
0.0
  0
LINE
  5
372
330
1E
100
AcDbEntity
  8
default
  6
Continuous
 62
     1
100
AcDbLine
 10
-337.3399999999999
 20
570.7999999999999
 30
0.0
 11
-338.3399999999999
 21
570.04
 31
0.0
  0
LINE
  5
373
330
1E
100
AcDbEntity
  8
default
  6
Continuous
 62
     3
100
AcDbLine
 10
338.3399999999999
 20
570.04
 30
0.0
 11
339.3299999999999
 21
569.2899999999999
 31
0.0
  0
LINE
  5
374
330
1E
100
AcDbEntity
  8
default
  6
Continuous
 62
     1
100
AcDbLine
 10
-338.3399999999999
 20
570.04
 30
0.0
 11
-339.3299999999999
 21
569.2899999999999
 31
0.0
  0
LINE
  5
375
330
1E
100
AcDbEntity
  8
default
  6
Continuous
 62
     3
100
AcDbLine
 10
339.3299999999999
 20
569.2899999999999
 30
0.0
 11
340.3299999999999
 21
568.5299999999999
 31
0.0
  0
LINE
  5
376
330
1E
100
AcDbEntity
  8
default
  6
Continuous
 62
     1
100
AcDbLine
 10
-339.3299999999999
 20
569.2899999999999
 30
0.0
 11
-340.3299999999999
 21
568.5299999999999
 31
0.0
  0
LINE
  5
377
330
1E
100
AcDbEntity
  8
default
  6
Continuous
 62
     3
100
AcDbLine
 10
340.3299999999999
 20
568.5299999999999
 30
0.0
 11
341.31
 21
567.7699999999999
 31
0.0
  0
LINE
  5
378
330
1E
100
AcDbEntity
  8
default
  6
Continuous
 62
     1
100
AcDbLine
 10
-340.3299999999999
 20
568.5299999999999
 30
0.0
 11
-341.31
 21
567.7699999999999
 31
0.0
  0
LINE
  5
379
330
1E
100
AcDbEntity
  8
default
  6
Continuous
 62
     3
100
AcDbLine
 10
341.31
 20
567.7699999999999
 30
0.0
 11
342.3
 21
567.0
 31
0.0
  0
LINE
  5
37A
330
1E
100
AcDbEntity
  8
default
  6
Continuous
 62
     1
100
AcDbLine
 10
-341.31
 20
567.7699999999999
 30
0.0
 11
-342.3
 21
567.0
 31
0.0
  0
LINE
  5
37B
330
1E
100
AcDbEntity
  8
default
  6
Continuous
 62
     3
100
AcDbLine
 10
342.3
 20
567.0
 30
0.0
 11
343.2799999999999
 21
566.23
 31
0.0
  0
LINE
  5
37C
330
1E
100
AcDbEntity
  8
default
  6
Continuous
 62
     1
100
AcDbLine
 10
-342.3
 20
567.0
 30
0.0
 11
-343.2799999999999
 21
566.23
 31
0.0
  0
LINE
  5
37D
330
1E
100
AcDbEntity
  8
default
  6
Continuous
 62
     3
100
AcDbLine
 10
343.2799999999999
 20
566.23
 30
0.0
 11
344.26
 21
565.45
 31
0.0
  0
LINE
  5
37E
330
1E
100
AcDbEntity
  8
default
  6
Continuous
 62
     1
100
AcDbLine
 10
-343.2799999999999
 20
566.23
 30
0.0
 11
-344.26
 21
565.45
 31
0.0
  0
LINE
  5
37F
330
1E
100
AcDbEntity
  8
default
  6
Continuous
 62
     3
100
AcDbLine
 10
344.26
 20
565.45
 30
0.0
 11
345.24
 21
564.67
 31
0.0
  0
LINE
  5
380
330
1E
100
AcDbEntity
  8
default
  6
Continuous
 62
     1
100
AcDbLine
 10
-344.26
 20
565.45
 30
0.0
 11
-345.24
 21
564.67
 31
0.0
  0
LINE
  5
381
330
1E
100
AcDbEntity
  8
default
  6
Continuous
 62
     3
100
AcDbLine
 10
345.24
 20
564.67
 30
0.0
 11
346.2099999999999
 21
563.8899999999999
 31
0.0
  0
LINE
  5
382
330
1E
100
AcDbEntity
  8
default
  6
Continuous
 62
     1
100
AcDbLine
 10
-345.24
 20
564.67
 30
0.0
 11
-346.2099999999999
 21
563.8899999999999
 31
0.0
  0
LINE
  5
383
330
1E
100
AcDbEntity
  8
default
  6
Continuous
 62
     3
100
AcDbLine
 10
346.2099999999999
 20
563.8899999999999
 30
0.0
 11
347.1799999999999
 21
563.1
 31
0.0
  0
LINE
  5
384
330
1E
100
AcDbEntity
  8
default
  6
Continuous
 62
     1
100
AcDbLine
 10
-346.2099999999999
 20
563.8899999999999
 30
0.0
 11
-347.1799999999999
 21
563.1
 31
0.0
  0
LINE
  5
385
330
1E
100
AcDbEntity
  8
default
  6
Continuous
 62
     3
100
AcDbLine
 10
347.1799999999999
 20
563.1
 30
0.0
 11
348.15
 21
562.3099999999999
 31
0.0
  0
LINE
  5
386
330
1E
100
AcDbEntity
  8
default
  6
Continuous
 62
     1
100
AcDbLine
 10
-347.1799999999999
 20
563.1
 30
0.0
 11
-348.15
 21
562.3099999999999
 31
0.0
  0
LINE
  5
387
330
1E
100
AcDbEntity
  8
default
  6
Continuous
 62
     3
100
AcDbLine
 10
348.15
 20
562.3099999999999
 30
0.0
 11
349.11
 21
561.5199999999999
 31
0.0
  0
LINE
  5
388
330
1E
100
AcDbEntity
  8
default
  6
Continuous
 62
     1
100
AcDbLine
 10
-348.15
 20
562.3099999999999
 30
0.0
 11
-349.11
 21
561.5199999999999
 31
0.0
  0
LINE
  5
389
330
1E
100
AcDbEntity
  8
default
  6
Continuous
 62
     3
100
AcDbLine
 10
349.11
 20
561.5199999999999
 30
0.0
 11
350.0799999999999
 21
560.72
 31
0.0
  0
LINE
  5
38A
330
1E
100
AcDbEntity
  8
default
  6
Continuous
 62
     1
100
AcDbLine
 10
-349.11
 20
561.5199999999999
 30
0.0
 11
-350.0799999999999
 21
560.72
 31
0.0
  0
LINE
  5
38B
330
1E
100
AcDbEntity
  8
default
  6
Continuous
 62
     3
100
AcDbLine
 10
350.0799999999999
 20
560.72
 30
0.0
 11
351.0299999999999
 21
559.9199999999999
 31
0.0
  0
LINE
  5
38C
330
1E
100
AcDbEntity
  8
default
  6
Continuous
 62
     1
100
AcDbLine
 10
-350.0799999999999
 20
560.72
 30
0.0
 11
-351.0299999999999
 21
559.9199999999999
 31
0.0
  0
LINE
  5
38D
330
1E
100
AcDbEntity
  8
default
  6
Continuous
 62
     3
100
AcDbLine
 10
351.0299999999999
 20
559.9199999999999
 30
0.0
 11
351.99
 21
559.1199999999999
 31
0.0
  0
LINE
  5
38E
330
1E
100
AcDbEntity
  8
default
  6
Continuous
 62
     1
100
AcDbLine
 10
-351.0299999999999
 20
559.9199999999999
 30
0.0
 11
-351.99
 21
559.1199999999999
 31
0.0
  0
LINE
  5
38F
330
1E
100
AcDbEntity
  8
default
  6
Continuous
 62
     3
100
AcDbLine
 10
351.99
 20
559.1199999999999
 30
0.0
 11
352.9399999999999
 21
558.3099999999999
 31
0.0
  0
LINE
  5
390
330
1E
100
AcDbEntity
  8
default
  6
Continuous
 62
     1
100
AcDbLine
 10
-351.99
 20
559.1199999999999
 30
0.0
 11
-352.9399999999999
 21
558.3099999999999
 31
0.0
  0
LINE
  5
391
330
1E
100
AcDbEntity
  8
default
  6
Continuous
 62
     3
100
AcDbLine
 10
352.9399999999999
 20
558.3099999999999
 30
0.0
 11
353.8899999999999
 21
557.5
 31
0.0
  0
LINE
  5
392
330
1E
100
AcDbEntity
  8
default
  6
Continuous
 62
     1
100
AcDbLine
 10
-352.9399999999999
 20
558.3099999999999
 30
0.0
 11
-353.8899999999999
 21
557.5
 31
0.0
  0
LINE
  5
393
330
1E
100
AcDbEntity
  8
default
  6
Continuous
 62
     3
100
AcDbLine
 10
353.8899999999999
 20
557.5
 30
0.0
 11
354.8399999999999
 21
556.6799999999999
 31
0.0
  0
LINE
  5
394
330
1E
100
AcDbEntity
  8
default
  6
Continuous
 62
     1
100
AcDbLine
 10
-353.8899999999999
 20
557.5
 30
0.0
 11
-354.8399999999999
 21
556.6799999999999
 31
0.0
  0
LINE
  5
395
330
1E
100
AcDbEntity
  8
default
  6
Continuous
 62
     3
100
AcDbLine
 10
354.8399999999999
 20
556.6799999999999
 30
0.0
 11
355.7799999999999
 21
555.86
 31
0.0
  0
LINE
  5
396
330
1E
100
AcDbEntity
  8
default
  6
Continuous
 62
     1
100
AcDbLine
 10
-354.8399999999999
 20
556.6799999999999
 30
0.0
 11
-355.7799999999999
 21
555.86
 31
0.0
  0
LINE
  5
397
330
1E
100
AcDbEntity
  8
default
  6
Continuous
 62
     3
100
AcDbLine
 10
355.7799999999999
 20
555.86
 30
0.0
 11
356.72
 21
555.0399999999999
 31
0.0
  0
LINE
  5
398
330
1E
100
AcDbEntity
  8
default
  6
Continuous
 62
     1
100
AcDbLine
 10
-355.7799999999999
 20
555.86
 30
0.0
 11
-356.72
 21
555.0399999999999
 31
0.0
  0
LINE
  5
399
330
1E
100
AcDbEntity
  8
default
  6
Continuous
 62
     3
100
AcDbLine
 10
356.72
 20
555.0399999999999
 30
0.0
 11
357.66
 21
554.21
 31
0.0
  0
LINE
  5
39A
330
1E
100
AcDbEntity
  8
default
  6
Continuous
 62
     1
100
AcDbLine
 10
-356.72
 20
555.0399999999999
 30
0.0
 11
-357.66
 21
554.21
 31
0.0
  0
LINE
  5
39B
330
1E
100
AcDbEntity
  8
default
  6
Continuous
 62
     3
100
AcDbLine
 10
357.66
 20
554.21
 30
0.0
 11
358.5899999999999
 21
553.38
 31
0.0
  0
LINE
  5
39C
330
1E
100
AcDbEntity
  8
default
  6
Continuous
 62
     1
100
AcDbLine
 10
-357.66
 20
554.21
 30
0.0
 11
-358.5899999999999
 21
553.38
 31
0.0
  0
LINE
  5
39D
330
1E
100
AcDbEntity
  8
default
  6
Continuous
 62
     3
100
AcDbLine
 10
358.5899999999999
 20
553.38
 30
0.0
 11
359.5199999999999
 21
552.55
 31
0.0
  0
LINE
  5
39E
330
1E
100
AcDbEntity
  8
default
  6
Continuous
 62
     1
100
AcDbLine
 10
-358.5899999999999
 20
553.38
 30
0.0
 11
-359.5199999999999
 21
552.55
 31
0.0
  0
LINE
  5
39F
330
1E
100
AcDbEntity
  8
default
  6
Continuous
 62
     3
100
AcDbLine
 10
359.5199999999999
 20
552.55
 30
0.0
 11
360.4499999999999
 21
551.71
 31
0.0
  0
LINE
  5
3A0
330
1E
100
AcDbEntity
  8
default
  6
Continuous
 62
     1
100
AcDbLine
 10
-359.5199999999999
 20
552.55
 30
0.0
 11
-360.4499999999999
 21
551.71
 31
0.0
  0
LINE
  5
3A1
330
1E
100
AcDbEntity
  8
default
  6
Continuous
 62
     3
100
AcDbLine
 10
360.4499999999999
 20
551.71
 30
0.0
 11
361.37
 21
550.87
 31
0.0
  0
LINE
  5
3A2
330
1E
100
AcDbEntity
  8
default
  6
Continuous
 62
     1
100
AcDbLine
 10
-360.4499999999999
 20
551.71
 30
0.0
 11
-361.37
 21
550.87
 31
0.0
  0
LINE
  5
3A3
330
1E
100
AcDbEntity
  8
default
  6
Continuous
 62
     3
100
AcDbLine
 10
361.37
 20
550.87
 30
0.0
 11
362.29
 21
550.03
 31
0.0
  0
LINE
  5
3A4
330
1E
100
AcDbEntity
  8
default
  6
Continuous
 62
     1
100
AcDbLine
 10
-361.37
 20
550.87
 30
0.0
 11
-362.29
 21
550.03
 31
0.0
  0
LINE
  5
3A5
330
1E
100
AcDbEntity
  8
default
  6
Continuous
 62
     3
100
AcDbLine
 10
362.29
 20
550.03
 30
0.0
 11
363.2099999999999
 21
549.1799999999999
 31
0.0
  0
LINE
  5
3A6
330
1E
100
AcDbEntity
  8
default
  6
Continuous
 62
     1
100
AcDbLine
 10
-362.29
 20
550.03
 30
0.0
 11
-363.2099999999999
 21
549.1799999999999
 31
0.0
  0
LINE
  5
3A7
330
1E
100
AcDbEntity
  8
default
  6
Continuous
 62
     3
100
AcDbLine
 10
363.2099999999999
 20
549.1799999999999
 30
0.0
 11
364.1199999999999
 21
548.33
 31
0.0
  0
LINE
  5
3A8
330
1E
100
AcDbEntity
  8
default
  6
Continuous
 62
     1
100
AcDbLine
 10
-363.2099999999999
 20
549.1799999999999
 30
0.0
 11
-364.1199999999999
 21
548.33
 31
0.0
  0
LINE
  5
3A9
330
1E
100
AcDbEntity
  8
default
  6
Continuous
 62
     3
100
AcDbLine
 10
364.1199999999999
 20
548.33
 30
0.0
 11
365.0299999999999
 21
547.48
 31
0.0
  0
LINE
  5
3AA
330
1E
100
AcDbEntity
  8
default
  6
Continuous
 62
     1
100
AcDbLine
 10
-364.1199999999999
 20
548.33
 30
0.0
 11
-365.0299999999999
 21
547.48
 31
0.0
  0
LINE
  5
3AB
330
1E
100
AcDbEntity
  8
default
  6
Continuous
 62
     3
100
AcDbLine
 10
365.0299999999999
 20
547.48
 30
0.0
 11
365.94
 21
546.6199999999999
 31
0.0
  0
LINE
  5
3AC
330
1E
100
AcDbEntity
  8
default
  6
Continuous
 62
     1
100
AcDbLine
 10
-365.0299999999999
 20
547.48
 30
0.0
 11
-365.94
 21
546.6199999999999
 31
0.0
  0
LINE
  5
3AD
330
1E
100
AcDbEntity
  8
default
  6
Continuous
 62
     3
100
AcDbLine
 10
365.94
 20
546.6199999999999
 30
0.0
 11
366.85
 21
545.76
 31
0.0
  0
LINE
  5
3AE
330
1E
100
AcDbEntity
  8
default
  6
Continuous
 62
     1
100
AcDbLine
 10
-365.94
 20
546.6199999999999
 30
0.0
 11
-366.85
 21
545.76
 31
0.0
  0
LINE
  5
3AF
330
1E
100
AcDbEntity
  8
default
  6
Continuous
 62
     3
100
AcDbLine
 10
366.85
 20
545.76
 30
0.0
 11
367.75
 21
544.89
 31
0.0
  0
LINE
  5
3B0
330
1E
100
AcDbEntity
  8
default
  6
Continuous
 62
     1
100
AcDbLine
 10
-366.85
 20
545.76
 30
0.0
 11
-367.75
 21
544.89
 31
0.0
  0
LINE
  5
3B1
330
1E
100
AcDbEntity
  8
default
  6
Continuous
 62
     3
100
AcDbLine
 10
367.75
 20
544.89
 30
0.0
 11
368.6399999999999
 21
544.0199999999999
 31
0.0
  0
LINE
  5
3B2
330
1E
100
AcDbEntity
  8
default
  6
Continuous
 62
     1
100
AcDbLine
 10
-367.75
 20
544.89
 30
0.0
 11
-368.6399999999999
 21
544.0199999999999
 31
0.0
  0
LINE
  5
3B3
330
1E
100
AcDbEntity
  8
default
  6
Continuous
 62
     3
100
AcDbLine
 10
368.6399999999999
 20
544.0199999999999
 30
0.0
 11
369.54
 21
543.1499999999999
 31
0.0
  0
LINE
  5
3B4
330
1E
100
AcDbEntity
  8
default
  6
Continuous
 62
     1
100
AcDbLine
 10
-368.6399999999999
 20
544.0199999999999
 30
0.0
 11
-369.54
 21
543.1499999999999
 31
0.0
  0
LINE
  5
3B5
330
1E
100
AcDbEntity
  8
default
  6
Continuous
 62
     3
100
AcDbLine
 10
369.54
 20
543.1499999999999
 30
0.0
 11
370.4299999999999
 21
542.2799999999999
 31
0.0
  0
LINE
  5
3B6
330
1E
100
AcDbEntity
  8
default
  6
Continuous
 62
     1
100
AcDbLine
 10
-369.54
 20
543.1499999999999
 30
0.0
 11
-370.4299999999999
 21
542.2799999999999
 31
0.0
  0
LINE
  5
3B7
330
1E
100
AcDbEntity
  8
default
  6
Continuous
 62
     3
100
AcDbLine
 10
370.4299999999999
 20
542.2799999999999
 30
0.0
 11
371.32
 21
541.3999999999999
 31
0.0
  0
LINE
  5
3B8
330
1E
100
AcDbEntity
  8
default
  6
Continuous
 62
     1
100
AcDbLine
 10
-370.4299999999999
 20
542.2799999999999
 30
0.0
 11
-371.32
 21
541.3999999999999
 31
0.0
  0
LINE
  5
3B9
330
1E
100
AcDbEntity
  8
default
  6
Continuous
 62
     3
100
AcDbLine
 10
371.32
 20
541.3999999999999
 30
0.0
 11
372.1999999999999
 21
540.51
 31
0.0
  0
LINE
  5
3BA
330
1E
100
AcDbEntity
  8
default
  6
Continuous
 62
     1
100
AcDbLine
 10
-371.32
 20
541.3999999999999
 30
0.0
 11
-372.1999999999999
 21
540.51
 31
0.0
  0
LINE
  5
3BB
330
1E
100
AcDbEntity
  8
default
  6
Continuous
 62
     3
100
AcDbLine
 10
372.1999999999999
 20
540.51
 30
0.0
 11
373.0799999999999
 21
539.63
 31
0.0
  0
LINE
  5
3BC
330
1E
100
AcDbEntity
  8
default
  6
Continuous
 62
     1
100
AcDbLine
 10
-372.1999999999999
 20
540.51
 30
0.0
 11
-373.0799999999999
 21
539.63
 31
0.0
  0
LINE
  5
3BD
330
1E
100
AcDbEntity
  8
default
  6
Continuous
 62
     3
100
AcDbLine
 10
373.0799999999999
 20
539.63
 30
0.0
 11
373.9599999999999
 21
538.74
 31
0.0
  0
LINE
  5
3BE
330
1E
100
AcDbEntity
  8
default
  6
Continuous
 62
     1
100
AcDbLine
 10
-373.0799999999999
 20
539.63
 30
0.0
 11
-373.9599999999999
 21
538.74
 31
0.0
  0
LINE
  5
3BF
330
1E
100
AcDbEntity
  8
default
  6
Continuous
 62
     3
100
AcDbLine
 10
373.9599999999999
 20
538.74
 30
0.0
 11
374.8299999999999
 21
537.85
 31
0.0
  0
LINE
  5
3C0
330
1E
100
AcDbEntity
  8
default
  6
Continuous
 62
     1
100
AcDbLine
 10
-373.9599999999999
 20
538.74
 30
0.0
 11
-374.8299999999999
 21
537.85
 31
0.0
  0
LINE
  5
3C1
330
1E
100
AcDbEntity
  8
default
  6
Continuous
 62
     3
100
AcDbLine
 10
374.8299999999999
 20
537.85
 30
0.0
 11
375.7
 21
536.95
 31
0.0
  0
LINE
  5
3C2
330
1E
100
AcDbEntity
  8
default
  6
Continuous
 62
     1
100
AcDbLine
 10
-374.8299999999999
 20
537.85
 30
0.0
 11
-375.7
 21
536.95
 31
0.0
  0
LINE
  5
3C3
330
1E
100
AcDbEntity
  8
default
  6
Continuous
 62
     3
100
AcDbLine
 10
375.7
 20
536.95
 30
0.0
 11
376.5699999999999
 21
536.05
 31
0.0
  0
LINE
  5
3C4
330
1E
100
AcDbEntity
  8
default
  6
Continuous
 62
     1
100
AcDbLine
 10
-375.7
 20
536.95
 30
0.0
 11
-376.5699999999999
 21
536.05
 31
0.0
  0
LINE
  5
3C5
330
1E
100
AcDbEntity
  8
default
  6
Continuous
 62
     3
100
AcDbLine
 10
376.5699999999999
 20
536.05
 30
0.0
 11
377.43
 21
535.1499999999999
 31
0.0
  0
LINE
  5
3C6
330
1E
100
AcDbEntity
  8
default
  6
Continuous
 62
     1
100
AcDbLine
 10
-376.5699999999999
 20
536.05
 30
0.0
 11
-377.43
 21
535.1499999999999
 31
0.0
  0
LINE
  5
3C7
330
1E
100
AcDbEntity
  8
default
  6
Continuous
 62
     3
100
AcDbLine
 10
377.43
 20
535.1499999999999
 30
0.0
 11
378.29
 21
534.25
 31
0.0
  0
LINE
  5
3C8
330
1E
100
AcDbEntity
  8
default
  6
Continuous
 62
     1
100
AcDbLine
 10
-377.43
 20
535.1499999999999
 30
0.0
 11
-378.29
 21
534.25
 31
0.0
  0
LINE
  5
3C9
330
1E
100
AcDbEntity
  8
default
  6
Continuous
 62
     3
100
AcDbLine
 10
378.29
 20
534.25
 30
0.0
 11
379.1499999999999
 21
533.34
 31
0.0
  0
LINE
  5
3CA
330
1E
100
AcDbEntity
  8
default
  6
Continuous
 62
     1
100
AcDbLine
 10
-378.29
 20
534.25
 30
0.0
 11
-379.1499999999999
 21
533.34
 31
0.0
  0
LINE
  5
3CB
330
1E
100
AcDbEntity
  8
default
  6
Continuous
 62
     3
100
AcDbLine
 10
379.1499999999999
 20
533.34
 30
0.0
 11
380.0
 21
532.4199999999999
 31
0.0
  0
LINE
  5
3CC
330
1E
100
AcDbEntity
  8
default
  6
Continuous
 62
     1
100
AcDbLine
 10
-379.1499999999999
 20
533.34
 30
0.0
 11
-380.0
 21
532.4199999999999
 31
0.0
  0
LINE
  5
3CD
330
1E
100
AcDbEntity
  8
default
  6
Continuous
 62
     3
100
AcDbLine
 10
380.0
 20
532.4199999999999
 30
0.0
 11
380.85
 21
531.51
 31
0.0
  0
LINE
  5
3CE
330
1E
100
AcDbEntity
  8
default
  6
Continuous
 62
     1
100
AcDbLine
 10
-380.0
 20
532.4199999999999
 30
0.0
 11
-380.85
 21
531.51
 31
0.0
  0
LINE
  5
3CF
330
1E
100
AcDbEntity
  8
default
  6
Continuous
 62
     3
100
AcDbLine
 10
380.85
 20
531.51
 30
0.0
 11
381.7
 21
530.59
 31
0.0
  0
LINE
  5
3D0
330
1E
100
AcDbEntity
  8
default
  6
Continuous
 62
     1
100
AcDbLine
 10
-380.85
 20
531.51
 30
0.0
 11
-381.7
 21
530.59
 31
0.0
  0
LINE
  5
3D1
330
1E
100
AcDbEntity
  8
default
  6
Continuous
 62
     3
100
AcDbLine
 10
381.7
 20
530.59
 30
0.0
 11
382.54
 21
529.6699999999999
 31
0.0
  0
LINE
  5
3D2
330
1E
100
AcDbEntity
  8
default
  6
Continuous
 62
     1
100
AcDbLine
 10
-381.7
 20
530.59
 30
0.0
 11
-382.54
 21
529.6699999999999
 31
0.0
  0
LINE
  5
3D3
330
1E
100
AcDbEntity
  8
default
  6
Continuous
 62
     3
100
AcDbLine
 10
382.54
 20
529.6699999999999
 30
0.0
 11
383.38
 21
528.7399999999999
 31
0.0
  0
LINE
  5
3D4
330
1E
100
AcDbEntity
  8
default
  6
Continuous
 62
     1
100
AcDbLine
 10
-382.54
 20
529.6699999999999
 30
0.0
 11
-383.38
 21
528.7399999999999
 31
0.0
  0
LINE
  5
3D5
330
1E
100
AcDbEntity
  8
default
  6
Continuous
 62
     3
100
AcDbLine
 10
383.38
 20
528.7399999999999
 30
0.0
 11
384.22
 21
527.82
 31
0.0
  0
LINE
  5
3D6
330
1E
100
AcDbEntity
  8
default
  6
Continuous
 62
     1
100
AcDbLine
 10
-383.38
 20
528.7399999999999
 30
0.0
 11
-384.22
 21
527.82
 31
0.0
  0
LINE
  5
3D7
330
1E
100
AcDbEntity
  8
default
  6
Continuous
 62
     3
100
AcDbLine
 10
384.22
 20
527.82
 30
0.0
 11
385.05
 21
526.8799999999999
 31
0.0
  0
LINE
  5
3D8
330
1E
100
AcDbEntity
  8
default
  6
Continuous
 62
     1
100
AcDbLine
 10
-384.22
 20
527.82
 30
0.0
 11
-385.05
 21
526.8799999999999
 31
0.0
  0
LINE
  5
3D9
330
1E
100
AcDbEntity
  8
default
  6
Continuous
 62
     3
100
AcDbLine
 10
385.05
 20
526.8799999999999
 30
0.0
 11
385.88
 21
525.95
 31
0.0
  0
LINE
  5
3DA
330
1E
100
AcDbEntity
  8
default
  6
Continuous
 62
     1
100
AcDbLine
 10
-385.05
 20
526.8799999999999
 30
0.0
 11
-385.88
 21
525.95
 31
0.0
  0
LINE
  5
3DB
330
1E
100
AcDbEntity
  8
default
  6
Continuous
 62
     3
100
AcDbLine
 10
385.88
 20
525.95
 30
0.0
 11
386.6999999999999
 21
525.0099999999999
 31
0.0
  0
LINE
  5
3DC
330
1E
100
AcDbEntity
  8
default
  6
Continuous
 62
     1
100
AcDbLine
 10
-385.88
 20
525.95
 30
0.0
 11
-386.6999999999999
 21
525.0099999999999
 31
0.0
  0
LINE
  5
3DD
330
1E
100
AcDbEntity
  8
default
  6
Continuous
 62
     3
100
AcDbLine
 10
386.6999999999999
 20
525.0099999999999
 30
0.0
 11
387.5299999999999
 21
524.07
 31
0.0
  0
LINE
  5
3DE
330
1E
100
AcDbEntity
  8
default
  6
Continuous
 62
     1
100
AcDbLine
 10
-386.6999999999999
 20
525.0099999999999
 30
0.0
 11
-387.5299999999999
 21
524.07
 31
0.0
  0
LINE
  5
3DF
330
1E
100
AcDbEntity
  8
default
  6
Continuous
 62
     3
100
AcDbLine
 10
387.5299999999999
 20
524.07
 30
0.0
 11
388.3399999999999
 21
523.13
 31
0.0
  0
LINE
  5
3E0
330
1E
100
AcDbEntity
  8
default
  6
Continuous
 62
     1
100
AcDbLine
 10
-387.5299999999999
 20
524.07
 30
0.0
 11
-388.3399999999999
 21
523.13
 31
0.0
  0
LINE
  5
3E1
330
1E
100
AcDbEntity
  8
default
  6
Continuous
 62
     3
100
AcDbLine
 10
388.3399999999999
 20
523.13
 30
0.0
 11
389.16
 21
522.1799999999999
 31
0.0
  0
LINE
  5
3E2
330
1E
100
AcDbEntity
  8
default
  6
Continuous
 62
     1
100
AcDbLine
 10
-388.3399999999999
 20
523.13
 30
0.0
 11
-389.16
 21
522.1799999999999
 31
0.0
  0
LINE
  5
3E3
330
1E
100
AcDbEntity
  8
default
  6
Continuous
 62
     3
100
AcDbLine
 10
389.16
 20
522.1799999999999
 30
0.0
 11
389.97
 21
521.2299999999999
 31
0.0
  0
LINE
  5
3E4
330
1E
100
AcDbEntity
  8
default
  6
Continuous
 62
     1
100
AcDbLine
 10
-389.16
 20
522.1799999999999
 30
0.0
 11
-389.97
 21
521.2299999999999
 31
0.0
  0
LINE
  5
3E5
330
1E
100
AcDbEntity
  8
default
  6
Continuous
 62
     3
100
AcDbLine
 10
389.97
 20
521.2299999999999
 30
0.0
 11
390.7699999999999
 21
520.2799999999999
 31
0.0
  0
LINE
  5
3E6
330
1E
100
AcDbEntity
  8
default
  6
Continuous
 62
     1
100
AcDbLine
 10
-389.97
 20
521.2299999999999
 30
0.0
 11
-390.7699999999999
 21
520.2799999999999
 31
0.0
  0
LINE
  5
3E7
330
1E
100
AcDbEntity
  8
default
  6
Continuous
 62
     3
100
AcDbLine
 10
390.7699999999999
 20
520.2799999999999
 30
0.0
 11
391.5799999999999
 21
519.32
 31
0.0
  0
LINE
  5
3E8
330
1E
100
AcDbEntity
  8
default
  6
Continuous
 62
     1
100
AcDbLine
 10
-390.7699999999999
 20
520.2799999999999
 30
0.0
 11
-391.5799999999999
 21
519.32
 31
0.0
  0
LINE
  5
3E9
330
1E
100
AcDbEntity
  8
default
  6
Continuous
 62
     3
100
AcDbLine
 10
391.5799999999999
 20
519.32
 30
0.0
 11
392.3799999999999
 21
518.36
 31
0.0
  0
LINE
  5
3EA
330
1E
100
AcDbEntity
  8
default
  6
Continuous
 62
     1
100
AcDbLine
 10
-391.5799999999999
 20
519.32
 30
0.0
 11
-392.3799999999999
 21
518.36
 31
0.0
  0
LINE
  5
3EB
330
1E
100
AcDbEntity
  8
default
  6
Continuous
 62
     3
100
AcDbLine
 10
392.3799999999999
 20
518.36
 30
0.0
 11
393.17
 21
517.3999999999999
 31
0.0
  0
LINE
  5
3EC
330
1E
100
AcDbEntity
  8
default
  6
Continuous
 62
     1
100
AcDbLine
 10
-392.3799999999999
 20
518.36
 30
0.0
 11
-393.17
 21
517.3999999999999
 31
0.0
  0
LINE
  5
3ED
330
1E
100
AcDbEntity
  8
default
  6
Continuous
 62
     3
100
AcDbLine
 10
393.17
 20
517.3999999999999
 30
0.0
 11
393.97
 21
516.4299999999999
 31
0.0
  0
LINE
  5
3EE
330
1E
100
AcDbEntity
  8
default
  6
Continuous
 62
     1
100
AcDbLine
 10
-393.17
 20
517.3999999999999
 30
0.0
 11
-393.97
 21
516.4299999999999
 31
0.0
  0
LINE
  5
3EF
330
1E
100
AcDbEntity
  8
default
  6
Continuous
 62
     3
100
AcDbLine
 10
393.97
 20
516.4299999999999
 30
0.0
 11
394.75
 21
515.46
 31
0.0
  0
LINE
  5
3F0
330
1E
100
AcDbEntity
  8
default
  6
Continuous
 62
     1
100
AcDbLine
 10
-393.97
 20
516.4299999999999
 30
0.0
 11
-394.75
 21
515.46
 31
0.0
  0
LINE
  5
3F1
330
1E
100
AcDbEntity
  8
default
  6
Continuous
 62
     3
100
AcDbLine
 10
394.75
 20
515.46
 30
0.0
 11
395.54
 21
514.4899999999999
 31
0.0
  0
LINE
  5
3F2
330
1E
100
AcDbEntity
  8
default
  6
Continuous
 62
     1
100
AcDbLine
 10
-394.75
 20
515.46
 30
0.0
 11
-395.54
 21
514.4899999999999
 31
0.0
  0
LINE
  5
3F3
330
1E
100
AcDbEntity
  8
default
  6
Continuous
 62
     3
100
AcDbLine
 10
395.54
 20
514.4899999999999
 30
0.0
 11
396.32
 21
513.52
 31
0.0
  0
LINE
  5
3F4
330
1E
100
AcDbEntity
  8
default
  6
Continuous
 62
     1
100
AcDbLine
 10
-395.54
 20
514.4899999999999
 30
0.0
 11
-396.32
 21
513.52
 31
0.0
  0
LINE
  5
3F5
330
1E
100
AcDbEntity
  8
default
  6
Continuous
 62
     3
100
AcDbLine
 10
396.32
 20
513.52
 30
0.0
 11
397.1
 21
512.5399999999999
 31
0.0
  0
LINE
  5
3F6
330
1E
100
AcDbEntity
  8
default
  6
Continuous
 62
     1
100
AcDbLine
 10
-396.32
 20
513.52
 30
0.0
 11
-397.1
 21
512.5399999999999
 31
0.0
  0
LINE
  5
3F7
330
1E
100
AcDbEntity
  8
default
  6
Continuous
 62
     3
100
AcDbLine
 10
397.1
 20
512.5399999999999
 30
0.0
 11
397.87
 21
511.5599999999999
 31
0.0
  0
LINE
  5
3F8
330
1E
100
AcDbEntity
  8
default
  6
Continuous
 62
     1
100
AcDbLine
 10
-397.1
 20
512.5399999999999
 30
0.0
 11
-397.87
 21
511.5599999999999
 31
0.0
  0
LINE
  5
3F9
330
1E
100
AcDbEntity
  8
default
  6
Continuous
 62
     3
100
AcDbLine
 10
397.87
 20
511.5599999999999
 30
0.0
 11
398.64
 21
510.58
 31
0.0
  0
LINE
  5
3FA
330
1E
100
AcDbEntity
  8
default
  6
Continuous
 62
     1
100
AcDbLine
 10
-397.87
 20
511.5599999999999
 30
0.0
 11
-398.64
 21
510.58
 31
0.0
  0
LINE
  5
3FB
330
1E
100
AcDbEntity
  8
default
  6
Continuous
 62
     3
100
AcDbLine
 10
398.64
 20
510.58
 30
0.0
 11
399.41
 21
509.5899999999999
 31
0.0
  0
LINE
  5
3FC
330
1E
100
AcDbEntity
  8
default
  6
Continuous
 62
     1
100
AcDbLine
 10
-398.64
 20
510.58
 30
0.0
 11
-399.41
 21
509.5899999999999
 31
0.0
  0
LINE
  5
3FD
330
1E
100
AcDbEntity
  8
default
  6
Continuous
 62
     3
100
AcDbLine
 10
399.41
 20
509.5899999999999
 30
0.0
 11
400.17
 21
508.6
 31
0.0
  0
LINE
  5
3FE
330
1E
100
AcDbEntity
  8
default
  6
Continuous
 62
     1
100
AcDbLine
 10
-399.41
 20
509.5899999999999
 30
0.0
 11
-400.17
 21
508.6
 31
0.0
  0
LINE
  5
3FF
330
1E
100
AcDbEntity
  8
default
  6
Continuous
 62
     3
100
AcDbLine
 10
400.17
 20
508.6
 30
0.0
 11
400.93
 21
507.61
 31
0.0
  0
LINE
  5
400
330
1E
100
AcDbEntity
  8
default
  6
Continuous
 62
     1
100
AcDbLine
 10
-400.17
 20
508.6
 30
0.0
 11
-400.93
 21
507.61
 31
0.0
  0
LINE
  5
401
330
1E
100
AcDbEntity
  8
default
  6
Continuous
 62
     3
100
AcDbLine
 10
400.93
 20
507.61
 30
0.0
 11
401.6799999999999
 21
506.61
 31
0.0
  0
LINE
  5
402
330
1E
100
AcDbEntity
  8
default
  6
Continuous
 62
     1
100
AcDbLine
 10
-400.93
 20
507.61
 30
0.0
 11
-401.6799999999999
 21
506.61
 31
0.0
  0
LINE
  5
403
330
1E
100
AcDbEntity
  8
default
  6
Continuous
 62
     3
100
AcDbLine
 10
401.6799999999999
 20
506.61
 30
0.0
 11
402.43
 21
505.6099999999999
 31
0.0
  0
LINE
  5
404
330
1E
100
AcDbEntity
  8
default
  6
Continuous
 62
     1
100
AcDbLine
 10
-401.6799999999999
 20
506.61
 30
0.0
 11
-402.43
 21
505.6099999999999
 31
0.0
  0
LINE
  5
405
330
1E
100
AcDbEntity
  8
default
  6
Continuous
 62
     3
100
AcDbLine
 10
402.43
 20
505.6099999999999
 30
0.0
 11
403.18
 21
504.61
 31
0.0
  0
LINE
  5
406
330
1E
100
AcDbEntity
  8
default
  6
Continuous
 62
     1
100
AcDbLine
 10
-402.43
 20
505.6099999999999
 30
0.0
 11
-403.18
 21
504.61
 31
0.0
  0
LINE
  5
407
330
1E
100
AcDbEntity
  8
default
  6
Continuous
 62
     3
100
AcDbLine
 10
403.18
 20
504.61
 30
0.0
 11
403.92
 21
503.61
 31
0.0
  0
LINE
  5
408
330
1E
100
AcDbEntity
  8
default
  6
Continuous
 62
     1
100
AcDbLine
 10
-403.18
 20
504.61
 30
0.0
 11
-403.92
 21
503.61
 31
0.0
  0
LINE
  5
409
330
1E
100
AcDbEntity
  8
default
  6
Continuous
 62
     3
100
AcDbLine
 10
403.92
 20
503.61
 30
0.0
 11
404.66
 21
502.6
 31
0.0
  0
LINE
  5
40A
330
1E
100
AcDbEntity
  8
default
  6
Continuous
 62
     1
100
AcDbLine
 10
-403.92
 20
503.61
 30
0.0
 11
-404.66
 21
502.6
 31
0.0
  0
LINE
  5
40B
330
1E
100
AcDbEntity
  8
default
  6
Continuous
 62
     3
100
AcDbLine
 10
404.66
 20
502.6
 30
0.0
 11
405.4
 21
501.59
 31
0.0
  0
LINE
  5
40C
330
1E
100
AcDbEntity
  8
default
  6
Continuous
 62
     1
100
AcDbLine
 10
-404.66
 20
502.6
 30
0.0
 11
-405.4
 21
501.59
 31
0.0
  0
LINE
  5
40D
330
1E
100
AcDbEntity
  8
default
  6
Continuous
 62
     3
100
AcDbLine
 10
405.4
 20
501.59
 30
0.0
 11
406.13
 21
500.5799999999999
 31
0.0
  0
LINE
  5
40E
330
1E
100
AcDbEntity
  8
default
  6
Continuous
 62
     1
100
AcDbLine
 10
-405.4
 20
501.59
 30
0.0
 11
-406.13
 21
500.5799999999999
 31
0.0
  0
LINE
  5
40F
330
1E
100
AcDbEntity
  8
default
  6
Continuous
 62
     3
100
AcDbLine
 10
406.13
 20
500.5799999999999
 30
0.0
 11
406.8599999999999
 21
499.56
 31
0.0
  0
LINE
  5
410
330
1E
100
AcDbEntity
  8
default
  6
Continuous
 62
     1
100
AcDbLine
 10
-406.13
 20
500.5799999999999
 30
0.0
 11
-406.8599999999999
 21
499.56
 31
0.0
  0
LINE
  5
411
330
1E
100
AcDbEntity
  8
default
  6
Continuous
 62
     3
100
AcDbLine
 10
406.8599999999999
 20
499.56
 30
0.0
 11
407.58
 21
498.55
 31
0.0
  0
LINE
  5
412
330
1E
100
AcDbEntity
  8
default
  6
Continuous
 62
     1
100
AcDbLine
 10
-406.8599999999999
 20
499.56
 30
0.0
 11
-407.58
 21
498.55
 31
0.0
  0
LINE
  5
413
330
1E
100
AcDbEntity
  8
default
  6
Continuous
 62
     3
100
AcDbLine
 10
407.58
 20
498.55
 30
0.0
 11
408.3
 21
497.5299999999999
 31
0.0
  0
LINE
  5
414
330
1E
100
AcDbEntity
  8
default
  6
Continuous
 62
     1
100
AcDbLine
 10
-407.58
 20
498.55
 30
0.0
 11
-408.3
 21
497.5299999999999
 31
0.0
  0
LINE
  5
415
330
1E
100
AcDbEntity
  8
default
  6
Continuous
 62
     3
100
AcDbLine
 10
408.3
 20
497.5299999999999
 30
0.0
 11
409.02
 21
496.4999999999999
 31
0.0
  0
LINE
  5
416
330
1E
100
AcDbEntity
  8
default
  6
Continuous
 62
     1
100
AcDbLine
 10
-408.3
 20
497.5299999999999
 30
0.0
 11
-409.02
 21
496.4999999999999
 31
0.0
  0
LINE
  5
417
330
1E
100
AcDbEntity
  8
default
  6
Continuous
 62
     3
100
AcDbLine
 10
409.02
 20
496.4999999999999
 30
0.0
 11
409.73
 21
495.48
 31
0.0
  0
LINE
  5
418
330
1E
100
AcDbEntity
  8
default
  6
Continuous
 62
     1
100
AcDbLine
 10
-409.02
 20
496.4999999999999
 30
0.0
 11
-409.73
 21
495.48
 31
0.0
  0
LINE
  5
419
330
1E
100
AcDbEntity
  8
default
  6
Continuous
 62
     3
100
AcDbLine
 10
409.73
 20
495.48
 30
0.0
 11
410.44
 21
494.4499999999999
 31
0.0
  0
LINE
  5
41A
330
1E
100
AcDbEntity
  8
default
  6
Continuous
 62
     1
100
AcDbLine
 10
-409.73
 20
495.48
 30
0.0
 11
-410.44
 21
494.4499999999999
 31
0.0
  0
LINE
  5
41B
330
1E
100
AcDbEntity
  8
default
  6
Continuous
 62
     3
100
AcDbLine
 10
410.44
 20
494.4499999999999
 30
0.0
 11
411.1399999999999
 21
493.42
 31
0.0
  0
LINE
  5
41C
330
1E
100
AcDbEntity
  8
default
  6
Continuous
 62
     1
100
AcDbLine
 10
-410.44
 20
494.4499999999999
 30
0.0
 11
-411.1399999999999
 21
493.42
 31
0.0
  0
LINE
  5
41D
330
1E
100
AcDbEntity
  8
default
  6
Continuous
 62
     3
100
AcDbLine
 10
411.1399999999999
 20
493.42
 30
0.0
 11
411.8399999999999
 21
492.3799999999999
 31
0.0
  0
LINE
  5
41E
330
1E
100
AcDbEntity
  8
default
  6
Continuous
 62
     1
100
AcDbLine
 10
-411.1399999999999
 20
493.42
 30
0.0
 11
-411.8399999999999
 21
492.3799999999999
 31
0.0
  0
LINE
  5
41F
330
1E
100
AcDbEntity
  8
default
  6
Continuous
 62
     3
100
AcDbLine
 10
411.8399999999999
 20
492.3799999999999
 30
0.0
 11
413.2299999999999
 21
490.31
 31
0.0
  0
LINE
  5
420
330
1E
100
AcDbEntity
  8
default
  6
Continuous
 62
     1
100
AcDbLine
 10
-411.8399999999999
 20
492.3799999999999
 30
0.0
 11
-413.2299999999999
 21
490.31
 31
0.0
  0
LINE
  5
421
330
1E
100
AcDbEntity
  8
default
  6
Continuous
 62
     3
100
AcDbLine
 10
413.2299999999999
 20
490.31
 30
0.0
 11
413.7799999999999
 21
489.47
 31
0.0
  0
LINE
  5
422
330
1E
100
AcDbEntity
  8
default
  6
Continuous
 62
     1
100
AcDbLine
 10
-413.2299999999999
 20
490.31
 30
0.0
 11
-413.7799999999999
 21
489.47
 31
0.0
  0
LINE
  5
423
330
1E
100
AcDbEntity
  8
default
  6
Continuous
 62
     3
100
AcDbLine
 10
413.7799999999999
 20
489.47
 30
0.0
 11
414.3299999999999
 21
488.64
 31
0.0
  0
LINE
  5
424
330
1E
100
AcDbEntity
  8
default
  6
Continuous
 62
     1
100
AcDbLine
 10
-413.7799999999999
 20
489.47
 30
0.0
 11
-414.3299999999999
 21
488.64
 31
0.0
  0
LINE
  5
425
330
1E
100
AcDbEntity
  8
default
  6
Continuous
 62
     3
100
AcDbLine
 10
414.3299999999999
 20
488.64
 30
0.0
 11
414.8699999999999
 21
487.8
 31
0.0
  0
LINE
  5
426
330
1E
100
AcDbEntity
  8
default
  6
Continuous
 62
     1
100
AcDbLine
 10
-414.3299999999999
 20
488.64
 30
0.0
 11
-414.8699999999999
 21
487.8
 31
0.0
  0
LINE
  5
427
330
1E
100
AcDbEntity
  8
default
  6
Continuous
 62
     3
100
AcDbLine
 10
414.8699999999999
 20
487.8
 30
0.0
 11
415.41
 21
486.96
 31
0.0
  0
LINE
  5
428
330
1E
100
AcDbEntity
  8
default
  6
Continuous
 62
     1
100
AcDbLine
 10
-414.8699999999999
 20
487.8
 30
0.0
 11
-415.41
 21
486.96
 31
0.0
  0
LINE
  5
429
330
1E
100
AcDbEntity
  8
default
  6
Continuous
 62
     3
100
AcDbLine
 10
415.41
 20
486.96
 30
0.0
 11
415.9499999999999
 21
486.12
 31
0.0
  0
LINE
  5
42A
330
1E
100
AcDbEntity
  8
default
  6
Continuous
 62
     1
100
AcDbLine
 10
-415.41
 20
486.96
 30
0.0
 11
-415.9499999999999
 21
486.12
 31
0.0
  0
LINE
  5
42B
330
1E
100
AcDbEntity
  8
default
  6
Continuous
 62
     3
100
AcDbLine
 10
415.9499999999999
 20
486.12
 30
0.0
 11
416.48
 21
485.28
 31
0.0
  0
LINE
  5
42C
330
1E
100
AcDbEntity
  8
default
  6
Continuous
 62
     1
100
AcDbLine
 10
-415.9499999999999
 20
486.12
 30
0.0
 11
-416.48
 21
485.28
 31
0.0
  0
LINE
  5
42D
330
1E
100
AcDbEntity
  8
default
  6
Continuous
 62
     3
100
AcDbLine
 10
416.48
 20
485.28
 30
0.0
 11
417.0099999999999
 21
484.44
 31
0.0
  0
LINE
  5
42E
330
1E
100
AcDbEntity
  8
default
  6
Continuous
 62
     1
100
AcDbLine
 10
-416.48
 20
485.28
 30
0.0
 11
-417.0099999999999
 21
484.44
 31
0.0
  0
LINE
  5
42F
330
1E
100
AcDbEntity
  8
default
  6
Continuous
 62
     3
100
AcDbLine
 10
417.0099999999999
 20
484.44
 30
0.0
 11
417.54
 21
483.5899999999999
 31
0.0
  0
LINE
  5
430
330
1E
100
AcDbEntity
  8
default
  6
Continuous
 62
     1
100
AcDbLine
 10
-417.0099999999999
 20
484.44
 30
0.0
 11
-417.54
 21
483.5899999999999
 31
0.0
  0
LINE
  5
431
330
1E
100
AcDbEntity
  8
default
  6
Continuous
 62
     3
100
AcDbLine
 10
417.54
 20
483.5899999999999
 30
0.0
 11
418.0699999999999
 21
482.7399999999999
 31
0.0
  0
LINE
  5
432
330
1E
100
AcDbEntity
  8
default
  6
Continuous
 62
     1
100
AcDbLine
 10
-417.54
 20
483.5899999999999
 30
0.0
 11
-418.0699999999999
 21
482.7399999999999
 31
0.0
  0
LINE
  5
433
330
1E
100
AcDbEntity
  8
default
  6
Continuous
 62
     3
100
AcDbLine
 10
418.0699999999999
 20
482.7399999999999
 30
0.0
 11
418.59
 21
481.89
 31
0.0
  0
LINE
  5
434
330
1E
100
AcDbEntity
  8
default
  6
Continuous
 62
     1
100
AcDbLine
 10
-418.0699999999999
 20
482.7399999999999
 30
0.0
 11
-418.59
 21
481.89
 31
0.0
  0
LINE
  5
435
330
1E
100
AcDbEntity
  8
default
  6
Continuous
 62
     3
100
AcDbLine
 10
418.59
 20
481.89
 30
0.0
 11
419.11
 21
481.04
 31
0.0
  0
LINE
  5
436
330
1E
100
AcDbEntity
  8
default
  6
Continuous
 62
     1
100
AcDbLine
 10
-418.59
 20
481.89
 30
0.0
 11
-419.11
 21
481.04
 31
0.0
  0
LINE
  5
437
330
1E
100
AcDbEntity
  8
default
  6
Continuous
 62
     3
100
AcDbLine
 10
419.11
 20
481.04
 30
0.0
 11
419.6299999999999
 21
480.18
 31
0.0
  0
LINE
  5
438
330
1E
100
AcDbEntity
  8
default
  6
Continuous
 62
     1
100
AcDbLine
 10
-419.11
 20
481.04
 30
0.0
 11
-419.6299999999999
 21
480.18
 31
0.0
  0
LINE
  5
439
330
1E
100
AcDbEntity
  8
default
  6
Continuous
 62
     3
100
AcDbLine
 10
419.6299999999999
 20
480.18
 30
0.0
 11
420.1399999999999
 21
479.33
 31
0.0
  0
LINE
  5
43A
330
1E
100
AcDbEntity
  8
default
  6
Continuous
 62
     1
100
AcDbLine
 10
-419.6299999999999
 20
480.18
 30
0.0
 11
-420.1399999999999
 21
479.33
 31
0.0
  0
LINE
  5
43B
330
1E
100
AcDbEntity
  8
default
  6
Continuous
 62
     3
100
AcDbLine
 10
420.1399999999999
 20
479.33
 30
0.0
 11
420.65
 21
478.4699999999999
 31
0.0
  0
LINE
  5
43C
330
1E
100
AcDbEntity
  8
default
  6
Continuous
 62
     1
100
AcDbLine
 10
-420.1399999999999
 20
479.33
 30
0.0
 11
-420.65
 21
478.4699999999999
 31
0.0
  0
LINE
  5
43D
330
1E
100
AcDbEntity
  8
default
  6
Continuous
 62
     3
100
AcDbLine
 10
420.65
 20
478.4699999999999
 30
0.0
 11
421.16
 21
477.61
 31
0.0
  0
LINE
  5
43E
330
1E
100
AcDbEntity
  8
default
  6
Continuous
 62
     1
100
AcDbLine
 10
-420.65
 20
478.4699999999999
 30
0.0
 11
-421.16
 21
477.61
 31
0.0
  0
LINE
  5
43F
330
1E
100
AcDbEntity
  8
default
  6
Continuous
 62
     3
100
AcDbLine
 10
421.16
 20
477.61
 30
0.0
 11
421.66
 21
476.75
 31
0.0
  0
LINE
  5
440
330
1E
100
AcDbEntity
  8
default
  6
Continuous
 62
     1
100
AcDbLine
 10
-421.16
 20
477.61
 30
0.0
 11
-421.66
 21
476.75
 31
0.0
  0
LINE
  5
441
330
1E
100
AcDbEntity
  8
default
  6
Continuous
 62
     3
100
AcDbLine
 10
421.66
 20
476.75
 30
0.0
 11
422.16
 21
475.8899999999999
 31
0.0
  0
LINE
  5
442
330
1E
100
AcDbEntity
  8
default
  6
Continuous
 62
     1
100
AcDbLine
 10
-421.66
 20
476.75
 30
0.0
 11
-422.16
 21
475.8899999999999
 31
0.0
  0
LINE
  5
443
330
1E
100
AcDbEntity
  8
default
  6
Continuous
 62
     3
100
AcDbLine
 10
422.16
 20
475.8899999999999
 30
0.0
 11
422.66
 21
475.0199999999999
 31
0.0
  0
LINE
  5
444
330
1E
100
AcDbEntity
  8
default
  6
Continuous
 62
     1
100
AcDbLine
 10
-422.16
 20
475.8899999999999
 30
0.0
 11
-422.66
 21
475.0199999999999
 31
0.0
  0
LINE
  5
445
330
1E
100
AcDbEntity
  8
default
  6
Continuous
 62
     3
100
AcDbLine
 10
422.66
 20
475.0199999999999
 30
0.0
 11
423.1499999999999
 21
474.15
 31
0.0
  0
LINE
  5
446
330
1E
100
AcDbEntity
  8
default
  6
Continuous
 62
     1
100
AcDbLine
 10
-422.66
 20
475.0199999999999
 30
0.0
 11
-423.1499999999999
 21
474.15
 31
0.0
  0
LINE
  5
447
330
1E
100
AcDbEntity
  8
default
  6
Continuous
 62
     3
100
AcDbLine
 10
423.1499999999999
 20
474.15
 30
0.0
 11
423.6399999999999
 21
473.2899999999999
 31
0.0
  0
LINE
  5
448
330
1E
100
AcDbEntity
  8
default
  6
Continuous
 62
     1
100
AcDbLine
 10
-423.1499999999999
 20
474.15
 30
0.0
 11
-423.6399999999999
 21
473.2899999999999
 31
0.0
  0
LINE
  5
449
330
1E
100
AcDbEntity
  8
default
  6
Continuous
 62
     3
100
AcDbLine
 10
423.6399999999999
 20
473.2899999999999
 30
0.0
 11
424.1299999999999
 21
472.42
 31
0.0
  0
LINE
  5
44A
330
1E
100
AcDbEntity
  8
default
  6
Continuous
 62
     1
100
AcDbLine
 10
-423.6399999999999
 20
473.2899999999999
 30
0.0
 11
-424.1299999999999
 21
472.42
 31
0.0
  0
LINE
  5
44B
330
1E
100
AcDbEntity
  8
default
  6
Continuous
 62
     3
100
AcDbLine
 10
424.1299999999999
 20
472.42
 30
0.0
 11
424.61
 21
471.54
 31
0.0
  0
LINE
  5
44C
330
1E
100
AcDbEntity
  8
default
  6
Continuous
 62
     1
100
AcDbLine
 10
-424.1299999999999
 20
472.42
 30
0.0
 11
-424.61
 21
471.54
 31
0.0
  0
LINE
  5
44D
330
1E
100
AcDbEntity
  8
default
  6
Continuous
 62
     3
100
AcDbLine
 10
424.61
 20
471.54
 30
0.0
 11
425.1
 21
470.67
 31
0.0
  0
LINE
  5
44E
330
1E
100
AcDbEntity
  8
default
  6
Continuous
 62
     1
100
AcDbLine
 10
-424.61
 20
471.54
 30
0.0
 11
-425.1
 21
470.67
 31
0.0
  0
LINE
  5
44F
330
1E
100
AcDbEntity
  8
default
  6
Continuous
 62
     3
100
AcDbLine
 10
425.1
 20
470.67
 30
0.0
 11
425.57
 21
469.79
 31
0.0
  0
LINE
  5
450
330
1E
100
AcDbEntity
  8
default
  6
Continuous
 62
     1
100
AcDbLine
 10
-425.1
 20
470.67
 30
0.0
 11
-425.57
 21
469.79
 31
0.0
  0
LINE
  5
451
330
1E
100
AcDbEntity
  8
default
  6
Continuous
 62
     3
100
AcDbLine
 10
425.57
 20
469.79
 30
0.0
 11
426.05
 21
468.92
 31
0.0
  0
LINE
  5
452
330
1E
100
AcDbEntity
  8
default
  6
Continuous
 62
     1
100
AcDbLine
 10
-425.57
 20
469.79
 30
0.0
 11
-426.05
 21
468.92
 31
0.0
  0
LINE
  5
453
330
1E
100
AcDbEntity
  8
default
  6
Continuous
 62
     3
100
AcDbLine
 10
426.05
 20
468.92
 30
0.0
 11
426.52
 21
468.04
 31
0.0
  0
LINE
  5
454
330
1E
100
AcDbEntity
  8
default
  6
Continuous
 62
     1
100
AcDbLine
 10
-426.05
 20
468.92
 30
0.0
 11
-426.52
 21
468.04
 31
0.0
  0
LINE
  5
455
330
1E
100
AcDbEntity
  8
default
  6
Continuous
 62
     3
100
AcDbLine
 10
426.52
 20
468.04
 30
0.0
 11
426.9899999999999
 21
467.16
 31
0.0
  0
LINE
  5
456
330
1E
100
AcDbEntity
  8
default
  6
Continuous
 62
     1
100
AcDbLine
 10
-426.52
 20
468.04
 30
0.0
 11
-426.9899999999999
 21
467.16
 31
0.0
  0
LINE
  5
457
330
1E
100
AcDbEntity
  8
default
  6
Continuous
 62
     3
100
AcDbLine
 10
426.9899999999999
 20
467.16
 30
0.0
 11
427.4599999999999
 21
466.27
 31
0.0
  0
LINE
  5
458
330
1E
100
AcDbEntity
  8
default
  6
Continuous
 62
     1
100
AcDbLine
 10
-426.9899999999999
 20
467.16
 30
0.0
 11
-427.4599999999999
 21
466.27
 31
0.0
  0
LINE
  5
459
330
1E
100
AcDbEntity
  8
default
  6
Continuous
 62
     3
100
AcDbLine
 10
427.4599999999999
 20
466.27
 30
0.0
 11
427.92
 21
465.39
 31
0.0
  0
LINE
  5
45A
330
1E
100
AcDbEntity
  8
default
  6
Continuous
 62
     1
100
AcDbLine
 10
-427.4599999999999
 20
466.27
 30
0.0
 11
-427.92
 21
465.39
 31
0.0
  0
LINE
  5
45B
330
1E
100
AcDbEntity
  8
default
  6
Continuous
 62
     3
100
AcDbLine
 10
427.92
 20
465.39
 30
0.0
 11
428.38
 21
464.5
 31
0.0
  0
LINE
  5
45C
330
1E
100
AcDbEntity
  8
default
  6
Continuous
 62
     1
100
AcDbLine
 10
-427.92
 20
465.39
 30
0.0
 11
-428.38
 21
464.5
 31
0.0
  0
LINE
  5
45D
330
1E
100
AcDbEntity
  8
default
  6
Continuous
 62
     3
100
AcDbLine
 10
428.38
 20
464.5
 30
0.0
 11
428.8299999999999
 21
463.6099999999999
 31
0.0
  0
LINE
  5
45E
330
1E
100
AcDbEntity
  8
default
  6
Continuous
 62
     1
100
AcDbLine
 10
-428.38
 20
464.5
 30
0.0
 11
-428.8299999999999
 21
463.6099999999999
 31
0.0
  0
LINE
  5
45F
330
1E
100
AcDbEntity
  8
default
  6
Continuous
 62
     3
100
AcDbLine
 10
428.8299999999999
 20
463.6099999999999
 30
0.0
 11
429.29
 21
462.7299999999999
 31
0.0
  0
LINE
  5
460
330
1E
100
AcDbEntity
  8
default
  6
Continuous
 62
     1
100
AcDbLine
 10
-428.8299999999999
 20
463.6099999999999
 30
0.0
 11
-429.29
 21
462.7299999999999
 31
0.0
  0
LINE
  5
461
330
1E
100
AcDbEntity
  8
default
  6
Continuous
 62
     3
100
AcDbLine
 10
429.29
 20
462.7299999999999
 30
0.0
 11
429.7299999999999
 21
461.8299999999999
 31
0.0
  0
LINE
  5
462
330
1E
100
AcDbEntity
  8
default
  6
Continuous
 62
     1
100
AcDbLine
 10
-429.29
 20
462.7299999999999
 30
0.0
 11
-429.7299999999999
 21
461.8299999999999
 31
0.0
  0
LINE
  5
463
330
1E
100
AcDbEntity
  8
default
  6
Continuous
 62
     3
100
AcDbLine
 10
429.7299999999999
 20
461.8299999999999
 30
0.0
 11
430.18
 21
460.9399999999999
 31
0.0
  0
LINE
  5
464
330
1E
100
AcDbEntity
  8
default
  6
Continuous
 62
     1
100
AcDbLine
 10
-429.7299999999999
 20
461.8299999999999
 30
0.0
 11
-430.18
 21
460.9399999999999
 31
0.0
  0
LINE
  5
465
330
1E
100
AcDbEntity
  8
default
  6
Continuous
 62
     3
100
AcDbLine
 10
430.18
 20
460.9399999999999
 30
0.0
 11
430.62
 21
460.05
 31
0.0
  0
LINE
  5
466
330
1E
100
AcDbEntity
  8
default
  6
Continuous
 62
     1
100
AcDbLine
 10
-430.18
 20
460.9399999999999
 30
0.0
 11
-430.62
 21
460.05
 31
0.0
  0
LINE
  5
467
330
1E
100
AcDbEntity
  8
default
  6
Continuous
 62
     3
100
AcDbLine
 10
430.62
 20
460.05
 30
0.0
 11
431.0599999999999
 21
459.1499999999999
 31
0.0
  0
LINE
  5
468
330
1E
100
AcDbEntity
  8
default
  6
Continuous
 62
     1
100
AcDbLine
 10
-430.62
 20
460.05
 30
0.0
 11
-431.0599999999999
 21
459.1499999999999
 31
0.0
  0
LINE
  5
469
330
1E
100
AcDbEntity
  8
default
  6
Continuous
 62
     3
100
AcDbLine
 10
431.0599999999999
 20
459.1499999999999
 30
0.0
 11
431.5
 21
458.25
 31
0.0
  0
LINE
  5
46A
330
1E
100
AcDbEntity
  8
default
  6
Continuous
 62
     1
100
AcDbLine
 10
-431.0599999999999
 20
459.1499999999999
 30
0.0
 11
-431.5
 21
458.25
 31
0.0
  0
LINE
  5
46B
330
1E
100
AcDbEntity
  8
default
  6
Continuous
 62
     3
100
AcDbLine
 10
431.5
 20
458.25
 30
0.0
 11
431.93
 21
457.35
 31
0.0
  0
LINE
  5
46C
330
1E
100
AcDbEntity
  8
default
  6
Continuous
 62
     1
100
AcDbLine
 10
-431.5
 20
458.25
 30
0.0
 11
-431.93
 21
457.35
 31
0.0
  0
LINE
  5
46D
330
1E
100
AcDbEntity
  8
default
  6
Continuous
 62
     3
100
AcDbLine
 10
431.93
 20
457.35
 30
0.0
 11
432.3599999999999
 21
456.4499999999999
 31
0.0
  0
LINE
  5
46E
330
1E
100
AcDbEntity
  8
default
  6
Continuous
 62
     1
100
AcDbLine
 10
-431.93
 20
457.35
 30
0.0
 11
-432.3599999999999
 21
456.4499999999999
 31
0.0
  0
LINE
  5
46F
330
1E
100
AcDbEntity
  8
default
  6
Continuous
 62
     3
100
AcDbLine
 10
432.3599999999999
 20
456.4499999999999
 30
0.0
 11
432.79
 21
455.55
 31
0.0
  0
LINE
  5
470
330
1E
100
AcDbEntity
  8
default
  6
Continuous
 62
     1
100
AcDbLine
 10
-432.3599999999999
 20
456.4499999999999
 30
0.0
 11
-432.79
 21
455.55
 31
0.0
  0
LINE
  5
471
330
1E
100
AcDbEntity
  8
default
  6
Continuous
 62
     3
100
AcDbLine
 10
432.79
 20
455.55
 30
0.0
 11
433.2099999999999
 21
454.6499999999999
 31
0.0
  0
LINE
  5
472
330
1E
100
AcDbEntity
  8
default
  6
Continuous
 62
     1
100
AcDbLine
 10
-432.79
 20
455.55
 30
0.0
 11
-433.2099999999999
 21
454.6499999999999
 31
0.0
  0
LINE
  5
473
330
1E
100
AcDbEntity
  8
default
  6
Continuous
 62
     3
100
AcDbLine
 10
433.2099999999999
 20
454.6499999999999
 30
0.0
 11
433.63
 21
453.7399999999999
 31
0.0
  0
LINE
  5
474
330
1E
100
AcDbEntity
  8
default
  6
Continuous
 62
     1
100
AcDbLine
 10
-433.2099999999999
 20
454.6499999999999
 30
0.0
 11
-433.63
 21
453.7399999999999
 31
0.0
  0
LINE
  5
475
330
1E
100
AcDbEntity
  8
default
  6
Continuous
 62
     3
100
AcDbLine
 10
433.63
 20
453.7399999999999
 30
0.0
 11
434.05
 21
452.8399999999999
 31
0.0
  0
LINE
  5
476
330
1E
100
AcDbEntity
  8
default
  6
Continuous
 62
     1
100
AcDbLine
 10
-433.63
 20
453.7399999999999
 30
0.0
 11
-434.05
 21
452.8399999999999
 31
0.0
  0
LINE
  5
477
330
1E
100
AcDbEntity
  8
default
  6
Continuous
 62
     3
100
AcDbLine
 10
434.05
 20
452.8399999999999
 30
0.0
 11
434.4599999999999
 21
451.93
 31
0.0
  0
LINE
  5
478
330
1E
100
AcDbEntity
  8
default
  6
Continuous
 62
     1
100
AcDbLine
 10
-434.05
 20
452.8399999999999
 30
0.0
 11
-434.4599999999999
 21
451.93
 31
0.0
  0
LINE
  5
479
330
1E
100
AcDbEntity
  8
default
  6
Continuous
 62
     3
100
AcDbLine
 10
434.4599999999999
 20
451.93
 30
0.0
 11
434.87
 21
451.02
 31
0.0
  0
LINE
  5
47A
330
1E
100
AcDbEntity
  8
default
  6
Continuous
 62
     1
100
AcDbLine
 10
-434.4599999999999
 20
451.93
 30
0.0
 11
-434.87
 21
451.02
 31
0.0
  0
LINE
  5
47B
330
1E
100
AcDbEntity
  8
default
  6
Continuous
 62
     3
100
AcDbLine
 10
434.87
 20
451.02
 30
0.0
 11
435.28
 21
450.11
 31
0.0
  0
LINE
  5
47C
330
1E
100
AcDbEntity
  8
default
  6
Continuous
 62
     1
100
AcDbLine
 10
-434.87
 20
451.02
 30
0.0
 11
-435.28
 21
450.11
 31
0.0
  0
LINE
  5
47D
330
1E
100
AcDbEntity
  8
default
  6
Continuous
 62
     3
100
AcDbLine
 10
435.28
 20
450.11
 30
0.0
 11
435.6799999999999
 21
449.19
 31
0.0
  0
LINE
  5
47E
330
1E
100
AcDbEntity
  8
default
  6
Continuous
 62
     1
100
AcDbLine
 10
-435.28
 20
450.11
 30
0.0
 11
-435.6799999999999
 21
449.19
 31
0.0
  0
LINE
  5
47F
330
1E
100
AcDbEntity
  8
default
  6
Continuous
 62
     3
100
AcDbLine
 10
435.6799999999999
 20
449.19
 30
0.0
 11
436.08
 21
448.28
 31
0.0
  0
LINE
  5
480
330
1E
100
AcDbEntity
  8
default
  6
Continuous
 62
     1
100
AcDbLine
 10
-435.6799999999999
 20
449.19
 30
0.0
 11
-436.08
 21
448.28
 31
0.0
  0
LINE
  5
481
330
1E
100
AcDbEntity
  8
default
  6
Continuous
 62
     3
100
AcDbLine
 10
436.08
 20
448.28
 30
0.0
 11
436.48
 21
447.36
 31
0.0
  0
LINE
  5
482
330
1E
100
AcDbEntity
  8
default
  6
Continuous
 62
     1
100
AcDbLine
 10
-436.08
 20
448.28
 30
0.0
 11
-436.48
 21
447.36
 31
0.0
  0
LINE
  5
483
330
1E
100
AcDbEntity
  8
default
  6
Continuous
 62
     3
100
AcDbLine
 10
436.48
 20
447.36
 30
0.0
 11
436.87
 21
446.45
 31
0.0
  0
LINE
  5
484
330
1E
100
AcDbEntity
  8
default
  6
Continuous
 62
     1
100
AcDbLine
 10
-436.48
 20
447.36
 30
0.0
 11
-436.87
 21
446.45
 31
0.0
  0
LINE
  5
485
330
1E
100
AcDbEntity
  8
default
  6
Continuous
 62
     3
100
AcDbLine
 10
436.87
 20
446.45
 30
0.0
 11
437.26
 21
445.53
 31
0.0
  0
LINE
  5
486
330
1E
100
AcDbEntity
  8
default
  6
Continuous
 62
     1
100
AcDbLine
 10
-436.87
 20
446.45
 30
0.0
 11
-437.26
 21
445.53
 31
0.0
  0
LINE
  5
487
330
1E
100
AcDbEntity
  8
default
  6
Continuous
 62
     3
100
AcDbLine
 10
437.26
 20
445.53
 30
0.0
 11
437.65
 21
444.61
 31
0.0
  0
LINE
  5
488
330
1E
100
AcDbEntity
  8
default
  6
Continuous
 62
     1
100
AcDbLine
 10
-437.26
 20
445.53
 30
0.0
 11
-437.65
 21
444.61
 31
0.0
  0
LINE
  5
489
330
1E
100
AcDbEntity
  8
default
  6
Continuous
 62
     3
100
AcDbLine
 10
437.65
 20
444.61
 30
0.0
 11
438.03
 21
443.69
 31
0.0
  0
LINE
  5
48A
330
1E
100
AcDbEntity
  8
default
  6
Continuous
 62
     1
100
AcDbLine
 10
-437.65
 20
444.61
 30
0.0
 11
-438.03
 21
443.69
 31
0.0
  0
LINE
  5
48B
330
1E
100
AcDbEntity
  8
default
  6
Continuous
 62
     3
100
AcDbLine
 10
438.03
 20
443.69
 30
0.0
 11
438.41
 21
442.7599999999999
 31
0.0
  0
LINE
  5
48C
330
1E
100
AcDbEntity
  8
default
  6
Continuous
 62
     1
100
AcDbLine
 10
-438.03
 20
443.69
 30
0.0
 11
-438.41
 21
442.7599999999999
 31
0.0
  0
LINE
  5
48D
330
1E
100
AcDbEntity
  8
default
  6
Continuous
 62
     3
100
AcDbLine
 10
438.41
 20
442.7599999999999
 30
0.0
 11
438.79
 21
441.84
 31
0.0
  0
LINE
  5
48E
330
1E
100
AcDbEntity
  8
default
  6
Continuous
 62
     1
100
AcDbLine
 10
-438.41
 20
442.7599999999999
 30
0.0
 11
-438.79
 21
441.84
 31
0.0
  0
LINE
  5
48F
330
1E
100
AcDbEntity
  8
default
  6
Continuous
 62
     3
100
AcDbLine
 10
438.79
 20
441.84
 30
0.0
 11
439.16
 21
440.91
 31
0.0
  0
LINE
  5
490
330
1E
100
AcDbEntity
  8
default
  6
Continuous
 62
     1
100
AcDbLine
 10
-438.79
 20
441.84
 30
0.0
 11
-439.16
 21
440.91
 31
0.0
  0
LINE
  5
491
330
1E
100
AcDbEntity
  8
default
  6
Continuous
 62
     3
100
AcDbLine
 10
439.16
 20
440.91
 30
0.0
 11
439.5299999999999
 21
439.99
 31
0.0
  0
LINE
  5
492
330
1E
100
AcDbEntity
  8
default
  6
Continuous
 62
     1
100
AcDbLine
 10
-439.16
 20
440.91
 30
0.0
 11
-439.5299999999999
 21
439.99
 31
0.0
  0
LINE
  5
493
330
1E
100
AcDbEntity
  8
default
  6
Continuous
 62
     3
100
AcDbLine
 10
439.5299999999999
 20
439.99
 30
0.0
 11
439.89
 21
439.06
 31
0.0
  0
LINE
  5
494
330
1E
100
AcDbEntity
  8
default
  6
Continuous
 62
     1
100
AcDbLine
 10
-439.5299999999999
 20
439.99
 30
0.0
 11
-439.89
 21
439.06
 31
0.0
  0
LINE
  5
495
330
1E
100
AcDbEntity
  8
default
  6
Continuous
 62
     3
100
AcDbLine
 10
439.89
 20
439.06
 30
0.0
 11
440.2599999999999
 21
438.13
 31
0.0
  0
LINE
  5
496
330
1E
100
AcDbEntity
  8
default
  6
Continuous
 62
     1
100
AcDbLine
 10
-439.89
 20
439.06
 30
0.0
 11
-440.2599999999999
 21
438.13
 31
0.0
  0
LINE
  5
497
330
1E
100
AcDbEntity
  8
default
  6
Continuous
 62
     3
100
AcDbLine
 10
440.2599999999999
 20
438.13
 30
0.0
 11
440.62
 21
437.1999999999999
 31
0.0
  0
LINE
  5
498
330
1E
100
AcDbEntity
  8
default
  6
Continuous
 62
     1
100
AcDbLine
 10
-440.2599999999999
 20
438.13
 30
0.0
 11
-440.62
 21
437.1999999999999
 31
0.0
  0
LINE
  5
499
330
1E
100
AcDbEntity
  8
default
  6
Continuous
 62
     3
100
AcDbLine
 10
440.62
 20
437.1999999999999
 30
0.0
 11
440.9699999999999
 21
436.27
 31
0.0
  0
LINE
  5
49A
330
1E
100
AcDbEntity
  8
default
  6
Continuous
 62
     1
100
AcDbLine
 10
-440.62
 20
437.1999999999999
 30
0.0
 11
-440.9699999999999
 21
436.27
 31
0.0
  0
LINE
  5
49B
330
1E
100
AcDbEntity
  8
default
  6
Continuous
 62
     3
100
AcDbLine
 10
440.9699999999999
 20
436.27
 30
0.0
 11
441.3299999999999
 21
435.3299999999999
 31
0.0
  0
LINE
  5
49C
330
1E
100
AcDbEntity
  8
default
  6
Continuous
 62
     1
100
AcDbLine
 10
-440.9699999999999
 20
436.27
 30
0.0
 11
-441.3299999999999
 21
435.3299999999999
 31
0.0
  0
LINE
  5
49D
330
1E
100
AcDbEntity
  8
default
  6
Continuous
 62
     3
100
AcDbLine
 10
441.3299999999999
 20
435.3299999999999
 30
0.0
 11
441.67
 21
434.4
 31
0.0
  0
LINE
  5
49E
330
1E
100
AcDbEntity
  8
default
  6
Continuous
 62
     1
100
AcDbLine
 10
-441.3299999999999
 20
435.3299999999999
 30
0.0
 11
-441.67
 21
434.4
 31
0.0
  0
LINE
  5
49F
330
1E
100
AcDbEntity
  8
default
  6
Continuous
 62
     3
100
AcDbLine
 10
441.67
 20
434.4
 30
0.0
 11
442.02
 21
433.46
 31
0.0
  0
LINE
  5
4A0
330
1E
100
AcDbEntity
  8
default
  6
Continuous
 62
     1
100
AcDbLine
 10
-441.67
 20
434.4
 30
0.0
 11
-442.02
 21
433.46
 31
0.0
  0
LINE
  5
4A1
330
1E
100
AcDbEntity
  8
default
  6
Continuous
 62
     3
100
AcDbLine
 10
442.02
 20
433.46
 30
0.0
 11
442.36
 21
432.5199999999999
 31
0.0
  0
LINE
  5
4A2
330
1E
100
AcDbEntity
  8
default
  6
Continuous
 62
     1
100
AcDbLine
 10
-442.02
 20
433.46
 30
0.0
 11
-442.36
 21
432.5199999999999
 31
0.0
  0
LINE
  5
4A3
330
1E
100
AcDbEntity
  8
default
  6
Continuous
 62
     3
100
AcDbLine
 10
442.36
 20
432.5199999999999
 30
0.0
 11
442.6999999999999
 21
431.59
 31
0.0
  0
LINE
  5
4A4
330
1E
100
AcDbEntity
  8
default
  6
Continuous
 62
     1
100
AcDbLine
 10
-442.36
 20
432.5199999999999
 30
0.0
 11
-442.6999999999999
 21
431.59
 31
0.0
  0
LINE
  5
4A5
330
1E
100
AcDbEntity
  8
default
  6
Continuous
 62
     3
100
AcDbLine
 10
442.6999999999999
 20
431.59
 30
0.0
 11
443.04
 21
430.6499999999999
 31
0.0
  0
LINE
  5
4A6
330
1E
100
AcDbEntity
  8
default
  6
Continuous
 62
     1
100
AcDbLine
 10
-442.6999999999999
 20
431.59
 30
0.0
 11
-443.04
 21
430.6499999999999
 31
0.0
  0
LINE
  5
4A7
330
1E
100
AcDbEntity
  8
default
  6
Continuous
 62
     3
100
AcDbLine
 10
443.04
 20
430.6499999999999
 30
0.0
 11
443.3699999999999
 21
429.7099999999999
 31
0.0
  0
LINE
  5
4A8
330
1E
100
AcDbEntity
  8
default
  6
Continuous
 62
     1
100
AcDbLine
 10
-443.04
 20
430.6499999999999
 30
0.0
 11
-443.3699999999999
 21
429.7099999999999
 31
0.0
  0
LINE
  5
4A9
330
1E
100
AcDbEntity
  8
default
  6
Continuous
 62
     3
100
AcDbLine
 10
443.3699999999999
 20
429.7099999999999
 30
0.0
 11
443.7
 21
428.76
 31
0.0
  0
LINE
  5
4AA
330
1E
100
AcDbEntity
  8
default
  6
Continuous
 62
     1
100
AcDbLine
 10
-443.3699999999999
 20
429.7099999999999
 30
0.0
 11
-443.7
 21
428.76
 31
0.0
  0
LINE
  5
4AB
330
1E
100
AcDbEntity
  8
default
  6
Continuous
 62
     3
100
AcDbLine
 10
443.7
 20
428.76
 30
0.0
 11
444.0199999999999
 21
427.82
 31
0.0
  0
LINE
  5
4AC
330
1E
100
AcDbEntity
  8
default
  6
Continuous
 62
     1
100
AcDbLine
 10
-443.7
 20
428.76
 30
0.0
 11
-444.0199999999999
 21
427.82
 31
0.0
  0
LINE
  5
4AD
330
1E
100
AcDbEntity
  8
default
  6
Continuous
 62
     3
100
AcDbLine
 10
444.0199999999999
 20
427.82
 30
0.0
 11
444.35
 21
426.8799999999999
 31
0.0
  0
LINE
  5
4AE
330
1E
100
AcDbEntity
  8
default
  6
Continuous
 62
     1
100
AcDbLine
 10
-444.0199999999999
 20
427.82
 30
0.0
 11
-444.35
 21
426.8799999999999
 31
0.0
  0
LINE
  5
4AF
330
1E
100
AcDbEntity
  8
default
  6
Continuous
 62
     3
100
AcDbLine
 10
444.35
 20
426.8799999999999
 30
0.0
 11
444.66
 21
425.93
 31
0.0
  0
LINE
  5
4B0
330
1E
100
AcDbEntity
  8
default
  6
Continuous
 62
     1
100
AcDbLine
 10
-444.35
 20
426.8799999999999
 30
0.0
 11
-444.66
 21
425.93
 31
0.0
  0
LINE
  5
4B1
330
1E
100
AcDbEntity
  8
default
  6
Continuous
 62
     3
100
AcDbLine
 10
444.66
 20
425.93
 30
0.0
 11
444.98
 21
424.98
 31
0.0
  0
LINE
  5
4B2
330
1E
100
AcDbEntity
  8
default
  6
Continuous
 62
     1
100
AcDbLine
 10
-444.66
 20
425.93
 30
0.0
 11
-444.98
 21
424.98
 31
0.0
  0
LINE
  5
4B3
330
1E
100
AcDbEntity
  8
default
  6
Continuous
 62
     3
100
AcDbLine
 10
444.98
 20
424.98
 30
0.0
 11
445.29
 21
424.0299999999999
 31
0.0
  0
LINE
  5
4B4
330
1E
100
AcDbEntity
  8
default
  6
Continuous
 62
     1
100
AcDbLine
 10
-444.98
 20
424.98
 30
0.0
 11
-445.29
 21
424.0299999999999
 31
0.0
  0
LINE
  5
4B5
330
1E
100
AcDbEntity
  8
default
  6
Continuous
 62
     3
100
AcDbLine
 10
445.29
 20
424.0299999999999
 30
0.0
 11
445.6
 21
423.09
 31
0.0
  0
LINE
  5
4B6
330
1E
100
AcDbEntity
  8
default
  6
Continuous
 62
     1
100
AcDbLine
 10
-445.29
 20
424.0299999999999
 30
0.0
 11
-445.6
 21
423.09
 31
0.0
  0
LINE
  5
4B7
330
1E
100
AcDbEntity
  8
default
  6
Continuous
 62
     3
100
AcDbLine
 10
445.6
 20
423.09
 30
0.0
 11
445.8999999999999
 21
422.14
 31
0.0
  0
LINE
  5
4B8
330
1E
100
AcDbEntity
  8
default
  6
Continuous
 62
     1
100
AcDbLine
 10
-445.6
 20
423.09
 30
0.0
 11
-445.8999999999999
 21
422.14
 31
0.0
  0
LINE
  5
4B9
330
1E
100
AcDbEntity
  8
default
  6
Continuous
 62
     3
100
AcDbLine
 10
445.8999999999999
 20
422.14
 30
0.0
 11
446.1999999999999
 21
421.18
 31
0.0
  0
LINE
  5
4BA
330
1E
100
AcDbEntity
  8
default
  6
Continuous
 62
     1
100
AcDbLine
 10
-445.8999999999999
 20
422.14
 30
0.0
 11
-446.1999999999999
 21
421.18
 31
0.0
  0
LINE
  5
4BB
330
1E
100
AcDbEntity
  8
default
  6
Continuous
 62
     3
100
AcDbLine
 10
446.1999999999999
 20
421.18
 30
0.0
 11
446.4999999999999
 21
420.23
 31
0.0
  0
LINE
  5
4BC
330
1E
100
AcDbEntity
  8
default
  6
Continuous
 62
     1
100
AcDbLine
 10
-446.1999999999999
 20
421.18
 30
0.0
 11
-446.4999999999999
 21
420.23
 31
0.0
  0
LINE
  5
4BD
330
1E
100
AcDbEntity
  8
default
  6
Continuous
 62
     3
100
AcDbLine
 10
446.4999999999999
 20
420.23
 30
0.0
 11
446.7999999999999
 21
419.28
 31
0.0
  0
LINE
  5
4BE
330
1E
100
AcDbEntity
  8
default
  6
Continuous
 62
     1
100
AcDbLine
 10
-446.4999999999999
 20
420.23
 30
0.0
 11
-446.7999999999999
 21
419.28
 31
0.0
  0
LINE
  5
4BF
330
1E
100
AcDbEntity
  8
default
  6
Continuous
 62
     3
100
AcDbLine
 10
446.7999999999999
 20
419.28
 30
0.0
 11
447.0899999999999
 21
418.32
 31
0.0
  0
LINE
  5
4C0
330
1E
100
AcDbEntity
  8
default
  6
Continuous
 62
     1
100
AcDbLine
 10
-446.7999999999999
 20
419.28
 30
0.0
 11
-447.0899999999999
 21
418.32
 31
0.0
  0
LINE
  5
4C1
330
1E
100
AcDbEntity
  8
default
  6
Continuous
 62
     3
100
AcDbLine
 10
447.0899999999999
 20
418.32
 30
0.0
 11
447.37
 21
417.37
 31
0.0
  0
LINE
  5
4C2
330
1E
100
AcDbEntity
  8
default
  6
Continuous
 62
     1
100
AcDbLine
 10
-447.0899999999999
 20
418.32
 30
0.0
 11
-447.37
 21
417.37
 31
0.0
  0
LINE
  5
4C3
330
1E
100
AcDbEntity
  8
default
  6
Continuous
 62
     3
100
AcDbLine
 10
447.37
 20
417.37
 30
0.0
 11
447.66
 21
416.41
 31
0.0
  0
LINE
  5
4C4
330
1E
100
AcDbEntity
  8
default
  6
Continuous
 62
     1
100
AcDbLine
 10
-447.37
 20
417.37
 30
0.0
 11
-447.66
 21
416.41
 31
0.0
  0
LINE
  5
4C5
330
1E
100
AcDbEntity
  8
default
  6
Continuous
 62
     3
100
AcDbLine
 10
447.66
 20
416.41
 30
0.0
 11
447.94
 21
415.4499999999999
 31
0.0
  0
LINE
  5
4C6
330
1E
100
AcDbEntity
  8
default
  6
Continuous
 62
     1
100
AcDbLine
 10
-447.66
 20
416.41
 30
0.0
 11
-447.94
 21
415.4499999999999
 31
0.0
  0
LINE
  5
4C7
330
1E
100
AcDbEntity
  8
default
  6
Continuous
 62
     3
100
AcDbLine
 10
447.94
 20
415.4499999999999
 30
0.0
 11
448.2099999999999
 21
414.4899999999999
 31
0.0
  0
LINE
  5
4C8
330
1E
100
AcDbEntity
  8
default
  6
Continuous
 62
     1
100
AcDbLine
 10
-447.94
 20
415.4499999999999
 30
0.0
 11
-448.2099999999999
 21
414.4899999999999
 31
0.0
  0
LINE
  5
4C9
330
1E
100
AcDbEntity
  8
default
  6
Continuous
 62
     3
100
AcDbLine
 10
448.2099999999999
 20
414.4899999999999
 30
0.0
 11
448.49
 21
413.5299999999999
 31
0.0
  0
LINE
  5
4CA
330
1E
100
AcDbEntity
  8
default
  6
Continuous
 62
     1
100
AcDbLine
 10
-448.2099999999999
 20
414.4899999999999
 30
0.0
 11
-448.49
 21
413.5299999999999
 31
0.0
  0
LINE
  5
4CB
330
1E
100
AcDbEntity
  8
default
  6
Continuous
 62
     3
100
AcDbLine
 10
448.49
 20
413.5299999999999
 30
0.0
 11
448.7599999999999
 21
412.57
 31
0.0
  0
LINE
  5
4CC
330
1E
100
AcDbEntity
  8
default
  6
Continuous
 62
     1
100
AcDbLine
 10
-448.49
 20
413.5299999999999
 30
0.0
 11
-448.7599999999999
 21
412.57
 31
0.0
  0
LINE
  5
4CD
330
1E
100
AcDbEntity
  8
default
  6
Continuous
 62
     3
100
AcDbLine
 10
448.7599999999999
 20
412.57
 30
0.0
 11
449.0199999999999
 21
411.61
 31
0.0
  0
LINE
  5
4CE
330
1E
100
AcDbEntity
  8
default
  6
Continuous
 62
     1
100
AcDbLine
 10
-448.7599999999999
 20
412.57
 30
0.0
 11
-449.0199999999999
 21
411.61
 31
0.0
  0
LINE
  5
4CF
330
1E
100
AcDbEntity
  8
default
  6
Continuous
 62
     3
100
AcDbLine
 10
449.0199999999999
 20
411.61
 30
0.0
 11
449.29
 21
410.6499999999999
 31
0.0
  0
LINE
  5
4D0
330
1E
100
AcDbEntity
  8
default
  6
Continuous
 62
     1
100
AcDbLine
 10
-449.0199999999999
 20
411.61
 30
0.0
 11
-449.29
 21
410.6499999999999
 31
0.0
  0
LINE
  5
4D1
330
1E
100
AcDbEntity
  8
default
  6
Continuous
 62
     3
100
AcDbLine
 10
449.29
 20
410.6499999999999
 30
0.0
 11
449.5499999999999
 21
409.6899999999999
 31
0.0
  0
LINE
  5
4D2
330
1E
100
AcDbEntity
  8
default
  6
Continuous
 62
     1
100
AcDbLine
 10
-449.29
 20
410.6499999999999
 30
0.0
 11
-449.5499999999999
 21
409.6899999999999
 31
0.0
  0
LINE
  5
4D3
330
1E
100
AcDbEntity
  8
default
  6
Continuous
 62
     3
100
AcDbLine
 10
449.5499999999999
 20
409.6899999999999
 30
0.0
 11
449.8
 21
408.72
 31
0.0
  0
LINE
  5
4D4
330
1E
100
AcDbEntity
  8
default
  6
Continuous
 62
     1
100
AcDbLine
 10
-449.5499999999999
 20
409.6899999999999
 30
0.0
 11
-449.8
 21
408.72
 31
0.0
  0
LINE
  5
4D5
330
1E
100
AcDbEntity
  8
default
  6
Continuous
 62
     3
100
AcDbLine
 10
449.8
 20
408.72
 30
0.0
 11
450.05
 21
407.76
 31
0.0
  0
LINE
  5
4D6
330
1E
100
AcDbEntity
  8
default
  6
Continuous
 62
     1
100
AcDbLine
 10
-449.8
 20
408.72
 30
0.0
 11
-450.05
 21
407.76
 31
0.0
  0
LINE
  5
4D7
330
1E
100
AcDbEntity
  8
default
  6
Continuous
 62
     3
100
AcDbLine
 10
450.05
 20
407.76
 30
0.0
 11
450.3
 21
406.7899999999999
 31
0.0
  0
LINE
  5
4D8
330
1E
100
AcDbEntity
  8
default
  6
Continuous
 62
     1
100
AcDbLine
 10
-450.05
 20
407.76
 30
0.0
 11
-450.3
 21
406.7899999999999
 31
0.0
  0
LINE
  5
4D9
330
1E
100
AcDbEntity
  8
default
  6
Continuous
 62
     3
100
AcDbLine
 10
450.3
 20
406.7899999999999
 30
0.0
 11
450.55
 21
405.82
 31
0.0
  0
LINE
  5
4DA
330
1E
100
AcDbEntity
  8
default
  6
Continuous
 62
     1
100
AcDbLine
 10
-450.3
 20
406.7899999999999
 30
0.0
 11
-450.55
 21
405.82
 31
0.0
  0
LINE
  5
4DB
330
1E
100
AcDbEntity
  8
default
  6
Continuous
 62
     3
100
AcDbLine
 10
450.55
 20
405.82
 30
0.0
 11
450.79
 21
404.85
 31
0.0
  0
LINE
  5
4DC
330
1E
100
AcDbEntity
  8
default
  6
Continuous
 62
     1
100
AcDbLine
 10
-450.55
 20
405.82
 30
0.0
 11
-450.79
 21
404.85
 31
0.0
  0
LINE
  5
4DD
330
1E
100
AcDbEntity
  8
default
  6
Continuous
 62
     3
100
AcDbLine
 10
450.79
 20
404.85
 30
0.0
 11
451.0299999999999
 21
403.88
 31
0.0
  0
LINE
  5
4DE
330
1E
100
AcDbEntity
  8
default
  6
Continuous
 62
     1
100
AcDbLine
 10
-450.79
 20
404.85
 30
0.0
 11
-451.0299999999999
 21
403.88
 31
0.0
  0
LINE
  5
4DF
330
1E
100
AcDbEntity
  8
default
  6
Continuous
 62
     3
100
AcDbLine
 10
451.0299999999999
 20
403.88
 30
0.0
 11
451.2599999999999
 21
402.91
 31
0.0
  0
LINE
  5
4E0
330
1E
100
AcDbEntity
  8
default
  6
Continuous
 62
     1
100
AcDbLine
 10
-451.0299999999999
 20
403.88
 30
0.0
 11
-451.2599999999999
 21
402.91
 31
0.0
  0
LINE
  5
4E1
330
1E
100
AcDbEntity
  8
default
  6
Continuous
 62
     3
100
AcDbLine
 10
451.2599999999999
 20
402.91
 30
0.0
 11
451.4899999999999
 21
401.94
 31
0.0
  0
LINE
  5
4E2
330
1E
100
AcDbEntity
  8
default
  6
Continuous
 62
     1
100
AcDbLine
 10
-451.2599999999999
 20
402.91
 30
0.0
 11
-451.4899999999999
 21
401.94
 31
0.0
  0
LINE
  5
4E3
330
1E
100
AcDbEntity
  8
default
  6
Continuous
 62
     3
100
AcDbLine
 10
451.4899999999999
 20
401.94
 30
0.0
 11
451.72
 21
400.97
 31
0.0
  0
LINE
  5
4E4
330
1E
100
AcDbEntity
  8
default
  6
Continuous
 62
     1
100
AcDbLine
 10
-451.4899999999999
 20
401.94
 30
0.0
 11
-451.72
 21
400.97
 31
0.0
  0
LINE
  5
4E5
330
1E
100
AcDbEntity
  8
default
  6
Continuous
 62
     3
100
AcDbLine
 10
451.72
 20
400.97
 30
0.0
 11
451.94
 21
400.0
 31
0.0
  0
LINE
  5
4E6
330
1E
100
AcDbEntity
  8
default
  6
Continuous
 62
     1
100
AcDbLine
 10
-451.72
 20
400.97
 30
0.0
 11
-451.94
 21
400.0
 31
0.0
  0
LINE
  5
4E7
330
1E
100
AcDbEntity
  8
default
  6
Continuous
 62
     3
100
AcDbLine
 10
0.0
 20
0.0
 30
0.0
 11
0.0
 21
-254.49
 31
0.0
  0
LINE
  5
4E8
330
1E
100
AcDbEntity
  8
default
  6
Continuous
 62
     1
100
AcDbLine
 10
0.0
 20
0.0
 30
0.0
 11
0.0
 21
-254.49
 31
0.0
  0
LINE
  5
4E9
330
1E
100
AcDbEntity
  8
default
  6
Continuous
 62
     3
100
AcDbLine
 10
24.79
 20
-0.16
 30
0.0
 11
24.79
 21
-254.42
 31
0.0
  0
LINE
  5
4EA
330
1E
100
AcDbEntity
  8
default
  6
Continuous
 62
     1
100
AcDbLine
 10
-24.79
 20
-0.16
 30
0.0
 11
-24.79
 21
-254.42
 31
0.0
  0
LINE
  5
4EB
330
1E
100
AcDbEntity
  8
default
  6
Continuous
 62
     3
100
AcDbLine
 10
49.55
 20
-0.65
 30
0.0
 11
49.55
 21
-254.1999999999999
 31
0.0
  0
LINE
  5
4EC
330
1E
100
AcDbEntity
  8
default
  6
Continuous
 62
     1
100
AcDbLine
 10
-49.55
 20
-0.65
 30
0.0
 11
-49.55
 21
-254.1999999999999
 31
0.0
  0
LINE
  5
4ED
330
1E
100
AcDbEntity
  8
default
  6
Continuous
 62
     3
100
AcDbLine
 10
74.25
 20
-1.45
 30
0.0
 11
74.25
 21
-253.84
 31
0.0
  0
LINE
  5
4EE
330
1E
100
AcDbEntity
  8
default
  6
Continuous
 62
     1
100
AcDbLine
 10
-74.25
 20
-1.45
 30
0.0
 11
-74.25
 21
-253.84
 31
0.0
  0
LINE
  5
4EF
330
1E
100
AcDbEntity
  8
default
  6
Continuous
 62
     3
100
AcDbLine
 10
98.87
 20
-2.58
 30
0.0
 11
98.87
 21
-253.3399999999999
 31
0.0
  0
LINE
  5
4F0
330
1E
100
AcDbEntity
  8
default
  6
Continuous
 62
     1
100
AcDbLine
 10
-98.87
 20
-2.58
 30
0.0
 11
-98.87
 21
-253.3399999999999
 31
0.0
  0
LINE
  5
4F1
330
1E
100
AcDbEntity
  8
default
  6
Continuous
 62
     3
100
AcDbLine
 10
123.3899999999999
 20
-4.04
 30
0.0
 11
123.3899999999999
 21
-252.7
 31
0.0
  0
LINE
  5
4F2
330
1E
100
AcDbEntity
  8
default
  6
Continuous
 62
     1
100
AcDbLine
 10
-123.3899999999999
 20
-4.04
 30
0.0
 11
-123.3899999999999
 21
-252.7
 31
0.0
  0
LINE
  5
4F3
330
1E
100
AcDbEntity
  8
default
  6
Continuous
 62
     3
100
AcDbLine
 10
147.78
 20
-5.82
 30
0.0
 11
147.78
 21
-251.9099999999999
 31
0.0
  0
LINE
  5
4F4
330
1E
100
AcDbEntity
  8
default
  6
Continuous
 62
     1
100
AcDbLine
 10
-147.78
 20
-5.82
 30
0.0
 11
-147.78
 21
-251.9099999999999
 31
0.0
  0
LINE
  5
4F5
330
1E
100
AcDbEntity
  8
default
  6
Continuous
 62
     3
100
AcDbLine
 10
172.02
 20
-7.929999999999999
 30
0.0
 11
172.02
 21
-250.9799999999999
 31
0.0
  0
LINE
  5
4F6
330
1E
100
AcDbEntity
  8
default
  6
Continuous
 62
     1
100
AcDbLine
 10
-172.02
 20
-7.929999999999999
 30
0.0
 11
-172.02
 21
-250.9799999999999
 31
0.0
  0
LINE
  5
4F7
330
1E
100
AcDbEntity
  8
default
  6
Continuous
 62
     3
100
AcDbLine
 10
196.1
 20
-10.36999999999999
 30
0.0
 11
196.1
 21
-249.9099999999999
 31
0.0
  0
LINE
  5
4F8
330
1E
100
AcDbEntity
  8
default
  6
Continuous
 62
     1
100
AcDbLine
 10
-196.1
 20
-10.36999999999999
 30
0.0
 11
-196.1
 21
-249.9099999999999
 31
0.0
  0
LINE
  5
4F9
330
1E
100
AcDbEntity
  8
default
  6
Continuous
 62
     3
100
AcDbLine
 10
219.9799999999999
 20
-13.14
 30
0.0
 11
219.9799999999999
 21
-248.7
 31
0.0
  0
LINE
  5
4FA
330
1E
100
AcDbEntity
  8
default
  6
Continuous
 62
     1
100
AcDbLine
 10
-219.9799999999999
 20
-13.14
 30
0.0
 11
-219.9799999999999
 21
-248.7
 31
0.0
  0
LINE
  5
4FB
330
1E
100
AcDbEntity
  8
default
  6
Continuous
 62
     3
100
AcDbLine
 10
243.6399999999999
 20
-16.26
 30
0.0
 11
243.6399999999999
 21
-247.34
 31
0.0
  0
LINE
  5
4FC
330
1E
100
AcDbEntity
  8
default
  6
Continuous
 62
     1
100
AcDbLine
 10
-243.6399999999999
 20
-16.26
 30
0.0
 11
-243.6399999999999
 21
-247.34
 31
0.0
  0
LINE
  5
4FD
330
1E
100
AcDbEntity
  8
default
  6
Continuous
 62
     3
100
AcDbLine
 10
267.0599999999999
 20
-19.71999999999999
 30
0.0
 11
267.0599999999999
 21
-245.84
 31
0.0
  0
LINE
  5
4FE
330
1E
100
AcDbEntity
  8
default
  6
Continuous
 62
     1
100
AcDbLine
 10
-267.0599999999999
 20
-19.71999999999999
 30
0.0
 11
-267.0599999999999
 21
-245.84
 31
0.0
  0
LINE
  5
4FF
330
1E
100
AcDbEntity
  8
default
  6
Continuous
 62
     3
100
AcDbLine
 10
290.2099999999999
 20
-23.53
 30
0.0
 11
290.2099999999999
 21
-244.1999999999999
 31
0.0
  0
LINE
  5
500
330
1E
100
AcDbEntity
  8
default
  6
Continuous
 62
     1
100
AcDbLine
 10
-290.2099999999999
 20
-23.53
 30
0.0
 11
-290.2099999999999
 21
-244.1999999999999
 31
0.0
  0
LINE
  5
501
330
1E
100
AcDbEntity
  8
default
  6
Continuous
 62
     3
100
AcDbLine
 10
313.07
 20
-27.73
 30
0.0
 11
313.07
 21
-242.41
 31
0.0
  0
LINE
  5
502
330
1E
100
AcDbEntity
  8
default
  6
Continuous
 62
     1
100
AcDbLine
 10
-313.07
 20
-27.73
 30
0.0
 11
-313.07
 21
-242.41
 31
0.0
  0
LINE
  5
503
330
1E
100
AcDbEntity
  8
default
  6
Continuous
 62
     3
100
AcDbLine
 10
335.61
 20
-32.6
 30
0.0
 11
335.61
 21
-240.49
 31
0.0
  0
LINE
  5
504
330
1E
100
AcDbEntity
  8
default
  6
Continuous
 62
     1
100
AcDbLine
 10
-335.61
 20
-32.6
 30
0.0
 11
-335.61
 21
-240.49
 31
0.0
  0
LINE
  5
505
330
1E
100
AcDbEntity
  8
default
  6
Continuous
 62
     3
100
AcDbLine
 10
357.7599999999999
 20
-38.2
 30
0.0
 11
357.7599999999999
 21
-238.4199999999999
 31
0.0
  0
LINE
  5
506
330
1E
100
AcDbEntity
  8
default
  6
Continuous
 62
     1
100
AcDbLine
 10
-357.7599999999999
 20
-38.2
 30
0.0
 11
-357.7599999999999
 21
-238.4199999999999
 31
0.0
  0
LINE
  5
507
330
1E
100
AcDbEntity
  8
default
  6
Continuous
 62
     3
100
AcDbLine
 10
379.51
 20
-44.53
 30
0.0
 11
379.51
 21
-236.22
 31
0.0
  0
LINE
  5
508
330
1E
100
AcDbEntity
  8
default
  6
Continuous
 62
     1
100
AcDbLine
 10
-379.51
 20
-44.53
 30
0.0
 11
-379.51
 21
-236.22
 31
0.0
  0
LINE
  5
509
330
1E
100
AcDbEntity
  8
default
  6
Continuous
 62
     3
100
AcDbLine
 10
400.79
 20
-51.56
 30
0.0
 11
400.79
 21
-233.8899999999999
 31
0.0
  0
LINE
  5
50A
330
1E
100
AcDbEntity
  8
default
  6
Continuous
 62
     1
100
AcDbLine
 10
-400.79
 20
-51.56
 30
0.0
 11
-400.79
 21
-233.8899999999999
 31
0.0
  0
LINE
  5
50B
330
1E
100
AcDbEntity
  8
default
  6
Continuous
 62
     3
100
AcDbLine
 10
421.5799999999999
 20
-59.29999999999999
 30
0.0
 11
421.5799999999999
 21
-231.42
 31
0.0
  0
LINE
  5
50C
330
1E
100
AcDbEntity
  8
default
  6
Continuous
 62
     1
100
AcDbLine
 10
-421.5799999999999
 20
-59.29999999999999
 30
0.0
 11
-421.5799999999999
 21
-231.42
 31
0.0
  0
LINE
  5
50D
330
1E
100
AcDbEntity
  8
default
  6
Continuous
 62
     3
100
AcDbLine
 10
441.83
 20
-67.73
 30
0.0
 11
441.83
 21
-228.8199999999999
 31
0.0
  0
LINE
  5
50E
330
1E
100
AcDbEntity
  8
default
  6
Continuous
 62
     1
100
AcDbLine
 10
-441.83
 20
-67.73
 30
0.0
 11
-441.83
 21
-228.8199999999999
 31
0.0
  0
LINE
  5
50F
330
1E
100
AcDbEntity
  8
default
  6
Continuous
 62
     3
100
AcDbLine
 10
461.5
 20
-76.84999999999999
 30
0.0
 11
461.5
 21
-226.11
 31
0.0
  0
LINE
  5
510
330
1E
100
AcDbEntity
  8
default
  6
Continuous
 62
     1
100
AcDbLine
 10
-461.5
 20
-76.84999999999999
 30
0.0
 11
-461.5
 21
-226.11
 31
0.0
  0
LINE
  5
511
330
1E
100
AcDbEntity
  8
default
  6
Continuous
 62
     3
100
AcDbLine
 10
480.56
 20
-86.66999999999999
 30
0.0
 11
480.56
 21
-223.27
 31
0.0
  0
LINE
  5
512
330
1E
100
AcDbEntity
  8
default
  6
Continuous
 62
     1
100
AcDbLine
 10
-480.56
 20
-86.66999999999999
 30
0.0
 11
-480.56
 21
-223.27
 31
0.0
  0
LINE
  5
513
330
1E
100
AcDbEntity
  8
default
  6
Continuous
 62
     3
100
AcDbLine
 10
498.96
 20
-97.2
 30
0.0
 11
498.96
 21
-220.27
 31
0.0
  0
LINE
  5
514
330
1E
100
AcDbEntity
  8
default
  6
Continuous
 62
     1
100
AcDbLine
 10
-498.96
 20
-97.2
 30
0.0
 11
-498.96
 21
-220.27
 31
0.0
  0
LINE
  5
515
330
1E
100
AcDbEntity
  8
default
  6
Continuous
 62
     3
100
AcDbLine
 10
516.65
 20
-108.4699999999999
 30
0.0
 11
516.65
 21
-217.08
 31
0.0
  0
LINE
  5
516
330
1E
100
AcDbEntity
  8
default
  6
Continuous
 62
     1
100
AcDbLine
 10
-516.65
 20
-108.4699999999999
 30
0.0
 11
-516.65
 21
-217.08
 31
0.0
  0
LINE
  5
517
330
1E
100
AcDbEntity
  8
default
  6
Continuous
 62
     3
100
AcDbLine
 10
533.6
 20
-120.56
 30
0.0
 11
533.6
 21
-213.7199999999999
 31
0.0
  0
LINE
  5
518
330
1E
100
AcDbEntity
  8
default
  6
Continuous
 62
     1
100
AcDbLine
 10
-533.6
 20
-120.56
 30
0.0
 11
-533.6
 21
-213.7199999999999
 31
0.0
  0
LINE
  5
519
330
1E
100
AcDbEntity
  8
default
  6
Continuous
 62
     3
100
AcDbLine
 10
549.73
 20
-133.5699999999999
 30
0.0
 11
549.73
 21
-210.2199999999999
 31
0.0
  0
LINE
  5
51A
330
1E
100
AcDbEntity
  8
default
  6
Continuous
 62
     1
100
AcDbLine
 10
-549.73
 20
-133.5699999999999
 30
0.0
 11
-549.73
 21
-210.2199999999999
 31
0.0
  0
LINE
  5
51B
330
1E
100
AcDbEntity
  8
default
  6
Continuous
 62
     3
100
AcDbLine
 10
565.0
 20
-147.75
 30
0.0
 11
565.0
 21
-206.5999999999999
 31
0.0
  0
LINE
  5
51C
330
1E
100
AcDbEntity
  8
default
  6
Continuous
 62
     1
100
AcDbLine
 10
-565.0
 20
-147.75
 30
0.0
 11
-565.0
 21
-206.5999999999999
 31
0.0
  0
LINE
  5
51D
330
1E
100
AcDbEntity
  8
default
  6
Continuous
 62
     1
100
AcDbLine
 10
0.0
 20
671.4299999999999
 30
0.0
 11
0.0
 21
721.4299999999999
 31
0.0
  0
LINE
  5
51E
330
1E
100
AcDbEntity
  8
default
  6
Continuous
 62
   252
100
AcDbLine
 10
0.0
 20
671.4299999999999
 30
0.0
 11
0.0
 21
721.4299999999999
 31
0.0
  0
LINE
  5
51F
330
1E
100
AcDbEntity
  8
default
  6
Continuous
 62
     1
100
AcDbLine
 10
24.79
 20
670.98
 30
0.0
 11
24.79
 21
720.98
 31
0.0
  0
LINE
  5
520
330
1E
100
AcDbEntity
  8
default
  6
Continuous
 62
   252
100
AcDbLine
 10
24.79
 20
670.98
 30
0.0
 11
26.6
 21
720.95
 31
0.0
  0
LINE
  5
521
330
1E
100
AcDbEntity
  8
default
  6
Continuous
 62
     1
100
AcDbLine
 10
49.5
 20
669.6399999999999
 30
0.0
 11
49.5
 21
719.6399999999999
 31
0.0
  0
LINE
  5
522
330
1E
100
AcDbEntity
  8
default
  6
Continuous
 62
   252
100
AcDbLine
 10
49.5
 20
669.6399999999999
 30
0.0
 11
53.07
 21
719.51
 31
0.0
  0
LINE
  5
523
330
1E
100
AcDbEntity
  8
default
  6
Continuous
 62
     1
100
AcDbLine
 10
74.1
 20
667.41
 30
0.0
 11
74.1
 21
717.41
 31
0.0
  0
LINE
  5
524
330
1E
100
AcDbEntity
  8
default
  6
Continuous
 62
   252
100
AcDbLine
 10
74.1
 20
667.41
 30
0.0
 11
79.55
 21
717.1199999999999
 31
0.0
  0
LINE
  5
525
330
1E
100
AcDbEntity
  8
default
  6
Continuous
 62
     1
100
AcDbLine
 10
98.52
 20
664.3099999999999
 30
0.0
 11
98.52
 21
714.3099999999999
 31
0.0
  0
LINE
  5
526
330
1E
100
AcDbEntity
  8
default
  6
Continuous
 62
   252
100
AcDbLine
 10
98.52
 20
664.3099999999999
 30
0.0
 11
105.7099999999999
 21
713.79
 31
0.0
  0
LINE
  5
527
330
1E
100
AcDbEntity
  8
default
  6
Continuous
 62
     1
100
AcDbLine
 10
122.72
 20
660.35
 30
0.0
 11
122.72
 21
710.35
 31
0.0
  0
LINE
  5
528
330
1E
100
AcDbEntity
  8
default
  6
Continuous
 62
   252
100
AcDbLine
 10
122.72
 20
660.35
 30
0.0
 11
131.63
 21
709.5499999999999
 31
0.0
  0
LINE
  5
529
330
1E
100
AcDbEntity
  8
default
  6
Continuous
 62
     1
100
AcDbLine
 10
146.6399999999999
 20
655.5599999999999
 30
0.0
 11
146.6399999999999
 21
705.5599999999999
 31
0.0
  0
LINE
  5
52A
330
1E
100
AcDbEntity
  8
default
  6
Continuous
 62
   252
100
AcDbLine
 10
146.6399999999999
 20
655.5599999999999
 30
0.0
 11
157.3899999999999
 21
704.3899999999999
 31
0.0
  0
LINE
  5
52B
330
1E
100
AcDbEntity
  8
default
  6
Continuous
 62
     1
100
AcDbLine
 10
170.2199999999999
 20
649.95
 30
0.0
 11
170.2199999999999
 21
699.95
 31
0.0
  0
LINE
  5
52C
330
1E
100
AcDbEntity
  8
default
  6
Continuous
 62
   252
100
AcDbLine
 10
170.2199999999999
 20
649.95
 30
0.0
 11
182.77
 21
698.35
 31
0.0
  0
LINE
  5
52D
330
1E
100
AcDbEntity
  8
default
  6
Continuous
 62
     1
100
AcDbLine
 10
193.3799999999999
 20
643.3699999999999
 30
0.0
 11
193.3799999999999
 21
693.3699999999999
 31
0.0
  0
LINE
  5
52E
330
1E
100
AcDbEntity
  8
default
  6
Continuous
 62
   252
100
AcDbLine
 10
193.3799999999999
 20
643.3699999999999
 30
0.0
 11
208.18
 21
691.1299999999999
 31
0.0
  0
LINE
  5
52F
330
1E
100
AcDbEntity
  8
default
  6
Continuous
 62
     1
100
AcDbLine
 10
216.0
 20
635.73
 30
0.0
 11
216.0
 21
685.73
 31
0.0
  0
LINE
  5
530
330
1E
100
AcDbEntity
  8
default
  6
Continuous
 62
   252
100
AcDbLine
 10
216.0
 20
635.73
 30
0.0
 11
233.1999999999999
 21
682.6799999999999
 31
0.0
  0
LINE
  5
531
330
1E
100
AcDbEntity
  8
default
  6
Continuous
 62
     1
100
AcDbLine
 10
238.02
 20
627.09
 30
0.0
 11
238.02
 21
677.09
 31
0.0
  0
LINE
  5
532
330
1E
100
AcDbEntity
  8
default
  6
Continuous
 62
   252
100
AcDbLine
 10
238.02
 20
627.09
 30
0.0
 11
257.41
 21
673.1799999999999
 31
0.0
  0
LINE
  5
533
330
1E
100
AcDbEntity
  8
default
  6
Continuous
 62
     1
100
AcDbLine
 10
259.3799999999999
 20
617.49
 30
0.0
 11
259.3799999999999
 21
667.49
 31
0.0
  0
LINE
  5
534
330
1E
100
AcDbEntity
  8
default
  6
Continuous
 62
   252
100
AcDbLine
 10
259.3799999999999
 20
617.49
 30
0.0
 11
280.92
 21
662.6199999999999
 31
0.0
  0
LINE
  5
535
330
1E
100
AcDbEntity
  8
default
  6
Continuous
 62
     1
100
AcDbLine
 10
280.0299999999999
 20
607.0199999999999
 30
0.0
 11
280.0299999999999
 21
657.0199999999999
 31
0.0
  0
LINE
  5
536
330
1E
100
AcDbEntity
  8
default
  6
Continuous
 62
   252
100
AcDbLine
 10
280.0299999999999
 20
607.0199999999999
 30
0.0
 11
303.66
 21
651.08
 31
0.0
  0
LINE
  5
537
330
1E
100
AcDbEntity
  8
default
  6
Continuous
 62
     1
100
AcDbLine
 10
299.91
 20
595.73
 30
0.0
 11
299.91
 21
645.73
 31
0.0
  0
LINE
  5
538
330
1E
100
AcDbEntity
  8
default
  6
Continuous
 62
   252
100
AcDbLine
 10
299.91
 20
595.73
 30
0.0
 11
325.5799999999999
 21
638.63
 31
0.0
  0
LINE
  5
539
330
1E
100
AcDbEntity
  8
default
  6
Continuous
 62
     1
100
AcDbLine
 10
318.9599999999999
 20
583.71
 30
0.0
 11
318.9599999999999
 21
633.71
 31
0.0
  0
LINE
  5
53A
330
1E
100
AcDbEntity
  8
default
  6
Continuous
 62
   252
100
AcDbLine
 10
318.9599999999999
 20
583.71
 30
0.0
 11
346.6299999999999
 21
625.36
 31
0.0
  0
LINE
  5
53B
330
1E
100
AcDbEntity
  8
default
  6
Continuous
 62
     1
100
AcDbLine
 10
337.1
 20
570.98
 30
0.0
 11
337.1
 21
620.98
 31
0.0
  0
LINE
  5
53C
330
1E
100
AcDbEntity
  8
default
  6
Continuous
 62
   252
100
AcDbLine
 10
337.1
 20
570.98
 30
0.0
 11
367.06
 21
611.01
 31
0.0
  0
LINE
  5
53D
330
1E
100
AcDbEntity
  8
default
  6
Continuous
 62
     1
100
AcDbLine
 10
354.04
 20
557.37
 30
0.0
 11
354.04
 21
607.37
 31
0.0
  0
LINE
  5
53E
330
1E
100
AcDbEntity
  8
default
  6
Continuous
 62
   252
100
AcDbLine
 10
354.04
 20
557.37
 30
0.0
 11
386.69
 21
595.2399999999999
 31
0.0
  0
LINE
  5
53F
330
1E
100
AcDbEntity
  8
default
  6
Continuous
 62
     1
100
AcDbLine
 10
369.72
 20
542.97
 30
0.0
 11
369.72
 21
592.97
 31
0.0
  0
LINE
  5
540
330
1E
100
AcDbEntity
  8
default
  6
Continuous
 62
   252
100
AcDbLine
 10
369.72
 20
542.97
 30
0.0
 11
404.76
 21
578.6399999999999
 31
0.0
  0
LINE
  5
541
330
1E
100
AcDbEntity
  8
default
  6
Continuous
 62
     1
100
AcDbLine
 10
384.0899999999999
 20
527.96
 30
0.0
 11
384.0899999999999
 21
577.96
 31
0.0
  0
LINE
  5
542
330
1E
100
AcDbEntity
  8
default
  6
Continuous
 62
   252
100
AcDbLine
 10
384.0899999999999
 20
527.96
 30
0.0
 11
421.25
 21
561.4099999999999
 31
0.0
  0
LINE
  5
543
330
1E
100
AcDbEntity
  8
default
  6
Continuous
 62
     1
100
AcDbLine
 10
397.14
 20
512.48
 30
0.0
 11
397.14
 21
562.48
 31
0.0
  0
LINE
  5
544
330
1E
100
AcDbEntity
  8
default
  6
Continuous
 62
   252
100
AcDbLine
 10
397.14
 20
512.48
 30
0.0
 11
436.3999999999999
 21
543.45
 31
0.0
  0
LINE
  5
545
330
1E
100
AcDbEntity
  8
default
  6
Continuous
 62
     1
100
AcDbLine
 10
408.8799999999999
 20
496.6899999999999
 30
0.0
 11
408.8799999999999
 21
546.69
 31
0.0
  0
LINE
  5
546
330
1E
100
AcDbEntity
  8
default
  6
Continuous
 62
   252
100
AcDbLine
 10
408.8799999999999
 20
496.6899999999999
 30
0.0
 11
449.8499999999999
 21
525.35
 31
0.0
  0
LINE
  5
547
330
1E
100
AcDbEntity
  8
default
  6
Continuous
 62
     1
100
AcDbLine
 10
419.2899999999999
 20
480.73
 30
0.0
 11
419.2899999999999
 21
530.73
 31
0.0
  0
LINE
  5
548
330
1E
100
AcDbEntity
  8
default
  6
Continuous
 62
   252
100
AcDbLine
 10
419.2899999999999
 20
480.73
 30
0.0
 11
462.0899999999999
 21
506.6
 31
0.0
  0
LINE
  5
549
330
1E
100
AcDbEntity
  8
default
  6
Continuous
 62
     1
100
AcDbLine
 10
428.2799999999999
 20
464.69
 30
0.0
 11
428.2799999999999
 21
514.69
 31
0.0
  0
LINE
  5
54A
330
1E
100
AcDbEntity
  8
default
  6
Continuous
 62
   252
100
AcDbLine
 10
428.2799999999999
 20
464.69
 30
0.0
 11
472.6799999999999
 21
487.69
 31
0.0
  0
LINE
  5
54B
330
1E
100
AcDbEntity
  8
default
  6
Continuous
 62
     1
100
AcDbLine
 10
435.89
 20
448.7099999999999
 30
0.0
 11
435.89
 21
498.7099999999999
 31
0.0
  0
LINE
  5
54C
330
1E
100
AcDbEntity
  8
default
  6
Continuous
 62
   252
100
AcDbLine
 10
435.89
 20
448.7099999999999
 30
0.0
 11
481.7
 21
468.75
 31
0.0
  0
LINE
  5
54D
330
1E
100
AcDbEntity
  8
default
  6
Continuous
 62
     1
100
AcDbLine
 10
442.1899999999999
 20
432.99
 30
0.0
 11
442.1899999999999
 21
482.99
 31
0.0
  0
LINE
  5
54E
330
1E
100
AcDbEntity
  8
default
  6
Continuous
 62
   252
100
AcDbLine
 10
442.1899999999999
 20
432.99
 30
0.0
 11
489.16
 21
450.15
 31
0.0
  0
LINE
  5
54F
330
1E
100
AcDbEntity
  8
default
  6
Continuous
 62
     1
100
AcDbLine
 10
447.2799999999999
 20
417.68
 30
0.0
 11
447.2799999999999
 21
467.68
 31
0.0
  0
LINE
  5
550
330
1E
100
AcDbEntity
  8
default
  6
Continuous
 62
   252
100
AcDbLine
 10
447.2799999999999
 20
417.68
 30
0.0
 11
495.16
 21
432.07
 31
0.0
  0
LINE
  5
551
330
1E
100
AcDbEntity
  8
default
  6
Continuous
 62
     1
100
AcDbLine
 10
451.94
 20
400.0
 30
0.0
 11
451.94
 21
450.0
 31
0.0
  0
LINE
  5
552
330
1E
100
AcDbEntity
  8
default
  6
Continuous
 62
   252
100
AcDbLine
 10
451.94
 20
400.0
 30
0.0
 11
500.54
 21
411.7499999999999
 31
0.0
  0
LINE
  5
73F
330
1E
100
AcDbEntity
  8
default
  6
Continuous
 62
     1
100
AcDbLine
 10
0.0
 20
-880.2317398224463
 30
0.0
 11
6.990000000000009
 21
-880.2217398224463
 31
0.0
  0
LINE
  5
740
330
1E
100
AcDbEntity
  8
default
  6
Continuous
 62
     1
100
AcDbLine
 10
0.0
 20
-625.7417398224463
 30
0.0
 11
6.07000000000005
 21
-625.7517398224463
 31
0.0
  0
LINE
  5
741
330
1E
100
AcDbEntity
  8
default
  6
Continuous
 62
     1
100
AcDbLine
 10
-347.18
 20
-865.1717398224464
 30
0.0
 11
-353.23
 21
-864.6017398224463
 31
0.0
  0
LINE
  5
742
330
1E
100
AcDbEntity
  8
default
  6
Continuous
 62
     1
100
AcDbLine
 10
-352.5299999999999
 20
-662.5417398224462
 30
0.0
 11
-357.45
 21
-663.8617398224463
 31
0.0
  0
LINE
  5
743
330
1E
100
AcDbEntity
  8
default
  6
Continuous
 62
     1
100
AcDbLine
 10
-441.8299999999999
 20
-693.4717398224464
 30
0.0
 11
-441.8299999999999
 21
-854.5617398224463
 31
0.0
  0
LINE
  5
744
330
1E
100
AcDbEntity
  8
default
  6
Continuous
 62
     1
100
AcDbLine
 10
-421.5799999999999
 20
-685.0417398224463
 30
0.0
 11
-421.5799999999999
 21
-857.1617398224463
 31
0.0
  0
LINE
  5
745
330
1E
100
AcDbEntity
  8
default
  6
Continuous
 62
     1
100
AcDbLine
 10
-400.7899999999999
 20
-677.3017398224462
 30
0.0
 11
-400.7899999999999
 21
-859.6317398224464
 31
0.0
  0
LINE
  5
746
330
1E
100
AcDbEntity
  8
default
  6
Continuous
 62
     1
100
AcDbLine
 10
-379.51
 20
-670.2717398224462
 30
0.0
 11
-379.51
 21
-861.9617398224463
 31
0.0
  0
LINE
  5
747
330
1E
100
AcDbEntity
  8
default
  6
Continuous
 62
     1
100
AcDbLine
 10
-357.7599999999999
 20
-663.9417398224463
 30
0.0
 11
-357.7599999999999
 21
-864.1617398224463
 31
0.0
  0
LINE
  5
748
330
1E
100
AcDbEntity
  8
default
  6
Continuous
 62
     1
100
AcDbLine
 10
-447.72
 20
-696.1017398224463
 30
0.0
 11
-451.7999999999999
 21
-697.9717398224464
 31
0.0
  0
LINE
  5
749
330
1E
100
AcDbEntity
  8
default
  6
Continuous
 62
     1
100
AcDbLine
 10
-529.53
 20
-840.3017398224463
 30
0.0
 11
-534.0599999999999
 21
-839.3717398224463
 31
0.0
  0
LINE
  5
74A
330
1E
100
AcDbEntity
  8
default
  6
Continuous
 62
     1
100
AcDbLine
 10
-529.2799999999999
 20
-743.0817398224463
 30
0.0
 11
-532.22
 21
-745.2617398224463
 31
0.0
  0
LINE
  5
74B
330
1E
100
AcDbEntity
  8
default
  6
Continuous
 62
     1
100
AcDbLine
 10
-549.73
 20
-759.3117398224462
 30
0.0
 11
-549.73
 21
-835.9617398224463
 31
0.0
  0
LINE
  5
74C
330
1E
100
AcDbEntity
  8
default
  6
Continuous
 62
     1
100
AcDbLine
 10
-533.5999999999999
 20
-746.3017398224462
 30
0.0
 11
-533.5999999999999
 21
-839.4617398224463
 31
0.0
  0
LINE
  5
74D
330
1E
100
AcDbEntity
  8
default
  6
Continuous
 62
     1
100
AcDbLine
 10
-563.2699999999999
 20
-771.7717398224463
 30
0.0
 11
-565.0
 21
-773.4917398224463
 31
0.0
  0
LINE
  5
74E
330
1E
100
AcDbEntity
  8
default
  6
Continuous
 62
     1
100
AcDbLine
 10
-565.0
 20
-773.4917398224463
 30
0.0
 11
-565.0
 21
-832.3417398224464
 31
0.0
  0
LINE
  5
74F
330
1E
100
AcDbEntity
  8
default
  6
Continuous
 62
     1
100
AcDbLine
 10
-565.0
 20
-773.4917398224463
 30
0.0
 11
-565.0
 21
-832.3417398224464
 31
0.0
  0
LINE
  5
750
330
1E
100
AcDbEntity
  8
default
  6
Continuous
 62
     1
100
AcDbLine
 10
-551.65
 20
-835.5217398224462
 30
0.0
 11
-555.9099999999999
 21
-834.5317398224462
 31
0.0
  0
LINE
  5
751
330
1E
100
AcDbEntity
  8
default
  6
Continuous
 62
     1
100
AcDbLine
 10
-560.1199999999998
 20
-833.5317398224463
 30
0.0
 11
-564.2599999999999
 21
-832.5217398224463
 31
0.0
  0
LINE
  5
752
330
1E
100
AcDbEntity
  8
default
  6
Continuous
 62
     1
100
AcDbLine
 10
-564.2599999999999
 20
-832.5217398224463
 30
0.0
 11
-565.0
 21
-832.3417398224464
 31
0.0
  0
LINE
  5
753
330
1E
100
AcDbEntity
  8
default
  6
Continuous
 62
     1
100
AcDbLine
 10
-555.9099999999999
 20
-834.5317398224462
 30
0.0
 11
-560.1199999999998
 21
-833.5317398224463
 31
0.0
  0
LINE
  5
754
330
1E
100
AcDbEntity
  8
default
  6
Continuous
 62
     1
100
AcDbLine
 10
-538.5399999999999
 20
-838.4217398224464
 30
0.0
 11
-542.96
 21
-837.4717398224463
 31
0.0
  0
LINE
  5
755
330
1E
100
AcDbEntity
  8
default
  6
Continuous
 62
     1
100
AcDbLine
 10
-547.3299999999999
 20
-836.5017398224463
 30
0.0
 11
-551.65
 21
-835.5217398224462
 31
0.0
  0
LINE
  5
756
330
1E
100
AcDbEntity
  8
default
  6
Continuous
 62
     1
100
AcDbLine
 10
-542.96
 20
-837.4717398224463
 30
0.0
 11
-547.3299999999999
 21
-836.5017398224463
 31
0.0
  0
LINE
  5
757
330
1E
100
AcDbEntity
  8
default
  6
Continuous
 62
     1
100
AcDbLine
 10
-534.0599999999999
 20
-839.3717398224463
 30
0.0
 11
-538.5399999999999
 21
-838.4217398224464
 31
0.0
  0
LINE
  5
758
330
1E
100
AcDbEntity
  8
default
  6
Continuous
 62
     1
100
AcDbLine
 10
-551.29
 20
-760.6717398224463
 30
0.0
 11
-553.7999999999999
 21
-762.8817398224462
 31
0.0
  0
LINE
  5
759
330
1E
100
AcDbEntity
  8
default
  6
Continuous
 62
     1
100
AcDbLine
 10
-560.99
 20
-769.5417398224463
 30
0.0
 11
-563.2699999999999
 21
-771.7717398224463
 31
0.0
  0
LINE
  5
75A
330
1E
100
AcDbEntity
  8
default
  6
Continuous
 62
     1
100
AcDbLine
 10
-558.65
 20
-767.3217398224464
 30
0.0
 11
-560.99
 21
-769.5417398224463
 31
0.0
  0
LINE
  5
75B
330
1E
100
AcDbEntity
  8
default
  6
Continuous
 62
     1
100
AcDbLine
 10
-556.25
 20
-765.1017398224463
 30
0.0
 11
-558.65
 21
-767.3217398224464
 31
0.0
  0
LINE
  5
75C
330
1E
100
AcDbEntity
  8
default
  6
Continuous
 62
     1
100
AcDbLine
 10
-553.7999999999999
 20
-762.8817398224462
 30
0.0
 11
-556.25
 21
-765.1017398224463
 31
0.0
  0
LINE
  5
75D
330
1E
100
AcDbEntity
  8
default
  6
Continuous
 62
     1
100
AcDbLine
 10
-543.45
 20
-754.0317398224463
 30
0.0
 11
-546.1199999999998
 21
-756.2417398224463
 31
0.0
  0
LINE
  5
75E
330
1E
100
AcDbEntity
  8
default
  6
Continuous
 62
     1
100
AcDbLine
 10
-548.73
 20
-758.4517398224464
 30
0.0
 11
-551.29
 21
-760.6717398224463
 31
0.0
  0
LINE
  5
75F
330
1E
100
AcDbEntity
  8
default
  6
Continuous
 62
     1
100
AcDbLine
 10
-546.1199999999998
 20
-756.2417398224463
 30
0.0
 11
-548.73
 21
-758.4517398224464
 31
0.0
  0
LINE
  5
760
330
1E
100
AcDbEntity
  8
default
  6
Continuous
 62
     1
100
AcDbLine
 10
-540.72
 20
-751.8317398224463
 30
0.0
 11
-543.45
 21
-754.0317398224463
 31
0.0
  0
LINE
  5
761
330
1E
100
AcDbEntity
  8
default
  6
Continuous
 62
     1
100
AcDbLine
 10
-537.94
 20
-749.6317398224463
 30
0.0
 11
-540.72
 21
-751.8317398224463
 31
0.0
  0
LINE
  5
762
330
1E
100
AcDbEntity
  8
default
  6
Continuous
 62
     1
100
AcDbLine
 10
-535.1100000000001
 20
-747.4417398224463
 30
0.0
 11
-537.94
 21
-749.6317398224463
 31
0.0
  0
LINE
  5
763
330
1E
100
AcDbEntity
  8
default
  6
Continuous
 62
     1
100
AcDbLine
 10
-532.22
 20
-745.2617398224463
 30
0.0
 11
-535.1100000000001
 21
-747.4417398224463
 31
0.0
  0
LINE
  5
764
330
1E
100
AcDbEntity
  8
default
  6
Continuous
 62
     1
100
AcDbLine
 10
-461.5
 20
-702.5917398224463
 30
0.0
 11
-461.5
 21
-851.8517398224464
 31
0.0
  0
LINE
  5
765
330
1E
100
AcDbEntity
  8
default
  6
Continuous
 62
     1
100
AcDbLine
 10
-471.1399999999998
 20
-850.4417398224463
 30
0.0
 11
-476.2799999999999
 21
-849.6717398224463
 31
0.0
  0
LINE
  5
766
330
1E
100
AcDbEntity
  8
default
  6
Continuous
 62
     1
100
AcDbLine
 10
-439.3600000000001
 20
-854.8917398224462
 30
0.0
 11
-444.77
 21
-854.1717398224463
 31
0.0
  0
LINE
  5
767
330
1E
100
AcDbEntity
  8
default
  6
Continuous
 62
     1
100
AcDbLine
 10
-460.73
 20
-851.9617398224463
 30
0.0
 11
-465.96
 21
-851.2017398224463
 31
0.0
  0
LINE
  5
768
330
1E
100
AcDbEntity
  8
default
  6
Continuous
 62
     1
100
AcDbLine
 10
-465.96
 20
-851.2017398224463
 30
0.0
 11
-471.1399999999998
 21
-850.4417398224463
 31
0.0
  0
LINE
  5
769
330
1E
100
AcDbEntity
  8
default
  6
Continuous
 62
     1
100
AcDbLine
 10
-450.1300000000001
 20
-853.4417398224464
 30
0.0
 11
-455.46
 21
-852.7017398224463
 31
0.0
  0
LINE
  5
76A
330
1E
100
AcDbEntity
  8
default
  6
Continuous
 62
     1
100
AcDbLine
 10
-455.46
 20
-852.7017398224463
 30
0.0
 11
-460.73
 21
-851.9617398224463
 31
0.0
  0
LINE
  5
76B
330
1E
100
AcDbEntity
  8
default
  6
Continuous
 62
     1
100
AcDbLine
 10
-444.77
 20
-854.1717398224463
 30
0.0
 11
-450.1300000000001
 21
-853.4417398224464
 31
0.0
  0
LINE
  5
76C
330
1E
100
AcDbEntity
  8
default
  6
Continuous
 62
     1
100
AcDbLine
 10
-394.5299999999999
 20
-860.3317398224463
 30
0.0
 11
-400.2799999999999
 21
-859.6917398224464
 31
0.0
  0
LINE
  5
76D
330
1E
100
AcDbEntity
  8
default
  6
Continuous
 62
     1
100
AcDbLine
 10
-417.2799999999999
 20
-857.6917398224464
 30
0.0
 11
-422.8600000000001
 21
-857.0017398224463
 31
0.0
  0
LINE
  5
76E
330
1E
100
AcDbEntity
  8
default
  6
Continuous
 62
     1
100
AcDbLine
 10
-428.4
 20
-856.3117398224463
 30
0.0
 11
-433.9000000000001
 21
-855.6017398224463
 31
0.0
  0
LINE
  5
76F
330
1E
100
AcDbEntity
  8
default
  6
Continuous
 62
     1
100
AcDbLine
 10
-433.9000000000001
 20
-855.6017398224463
 30
0.0
 11
-439.3600000000001
 21
-854.8917398224462
 31
0.0
  0
LINE
  5
770
330
1E
100
AcDbEntity
  8
default
  6
Continuous
 62
     1
100
AcDbLine
 10
-422.8600000000001
 20
-857.0017398224463
 30
0.0
 11
-428.4
 21
-856.3117398224463
 31
0.0
  0
LINE
  5
771
330
1E
100
AcDbEntity
  8
default
  6
Continuous
 62
     1
100
AcDbLine
 10
-405.9899999999999
 20
-859.0317398224463
 30
0.0
 11
-411.6500000000001
 21
-858.3617398224463
 31
0.0
  0
LINE
  5
772
330
1E
100
AcDbEntity
  8
default
  6
Continuous
 62
     1
100
AcDbLine
 10
-411.6500000000001
 20
-858.3617398224463
 30
0.0
 11
-417.2799999999999
 21
-857.6917398224464
 31
0.0
  0
LINE
  5
773
330
1E
100
AcDbEntity
  8
default
  6
Continuous
 62
     1
100
AcDbLine
 10
-400.2799999999999
 20
-859.6917398224464
 30
0.0
 11
-405.9899999999999
 21
-859.0317398224463
 31
0.0
  0
LINE
  5
774
330
1E
100
AcDbEntity
  8
default
  6
Continuous
 62
     1
100
AcDbLine
 10
-371.16
 20
-862.8317398224464
 30
0.0
 11
-377.0599999999999
 21
-862.2217398224464
 31
0.0
  0
LINE
  5
775
330
1E
100
AcDbEntity
  8
default
  6
Continuous
 62
     1
100
AcDbLine
 10
-382.92
 20
-861.6017398224464
 30
0.0
 11
-388.75
 21
-860.9717398224463
 31
0.0
  0
LINE
  5
776
330
1E
100
AcDbEntity
  8
default
  6
Continuous
 62
     1
100
AcDbLine
 10
-388.75
 20
-860.9717398224463
 30
0.0
 11
-394.5299999999999
 21
-860.3317398224463
 31
0.0
  0
LINE
  5
777
330
1E
100
AcDbEntity
  8
default
  6
Continuous
 62
     1
100
AcDbLine
 10
-377.0599999999999
 20
-862.2217398224464
 30
0.0
 11
-382.92
 21
-861.6017398224464
 31
0.0
  0
LINE
  5
778
330
1E
100
AcDbEntity
  8
default
  6
Continuous
 62
     1
100
AcDbLine
 10
-359.24
 20
-864.0217398224462
 30
0.0
 11
-365.22
 21
-863.4317398224464
 31
0.0
  0
LINE
  5
779
330
1E
100
AcDbEntity
  8
default
  6
Continuous
 62
     1
100
AcDbLine
 10
-365.22
 20
-863.4317398224464
 30
0.0
 11
-371.16
 21
-862.8317398224464
 31
0.0
  0
LINE
  5
77A
330
1E
100
AcDbEntity
  8
default
  6
Continuous
 62
     1
100
AcDbLine
 10
-353.23
 20
-864.6017398224463
 30
0.0
 11
-359.24
 21
-864.0217398224462
 31
0.0
  0
LINE
  5
77B
330
1E
100
AcDbEntity
  8
default
  6
Continuous
 62
     1
100
AcDbLine
 10
-516.65
 20
-734.2117398224464
 30
0.0
 11
-516.65
 21
-842.8217398224463
 31
0.0
  0
LINE
  5
77C
330
1E
100
AcDbEntity
  8
default
  6
Continuous
 62
     1
100
AcDbLine
 10
-498.96
 20
-722.9417398224463
 30
0.0
 11
-498.96
 21
-846.0117398224463
 31
0.0
  0
LINE
  5
77D
330
1E
100
AcDbEntity
  8
default
  6
Continuous
 62
     1
100
AcDbLine
 10
-480.5599999999999
 20
-712.4117398224463
 30
0.0
 11
-480.5599999999999
 21
-849.0117398224462
 31
0.0
  0
LINE
  5
77E
330
1E
100
AcDbEntity
  8
default
  6
Continuous
 62
     1
100
AcDbLine
 10
-481.3699999999998
 20
-848.8917398224463
 30
0.0
 11
-486.41
 21
-848.0917398224462
 31
0.0
  0
LINE
  5
77F
330
1E
100
AcDbEntity
  8
default
  6
Continuous
 62
     1
100
AcDbLine
 10
-506.0799999999999
 20
-844.7717398224463
 30
0.0
 11
-510.8699999999998
 21
-843.9017398224462
 31
0.0
  0
LINE
  5
780
330
1E
100
AcDbEntity
  8
default
  6
Continuous
 62
     1
100
AcDbLine
 10
-515.6100000000001
 20
-843.0217398224463
 30
0.0
 11
-520.2999999999999
 21
-842.1317398224463
 31
0.0
  0
LINE
  5
781
330
1E
100
AcDbEntity
  8
default
  6
Continuous
 62
     1
100
AcDbLine
 10
-524.94
 20
-841.2217398224463
 30
0.0
 11
-529.53
 21
-840.3017398224463
 31
0.0
  0
LINE
  5
782
330
1E
100
AcDbEntity
  8
default
  6
Continuous
 62
     1
100
AcDbLine
 10
-520.2999999999999
 20
-842.1317398224463
 30
0.0
 11
-524.94
 21
-841.2217398224463
 31
0.0
  0
LINE
  5
783
330
1E
100
AcDbEntity
  8
default
  6
Continuous
 62
     1
100
AcDbLine
 10
-510.8699999999998
 20
-843.9017398224462
 30
0.0
 11
-515.6100000000001
 21
-843.0217398224463
 31
0.0
  0
LINE
  5
784
330
1E
100
AcDbEntity
  8
default
  6
Continuous
 62
     1
100
AcDbLine
 10
-496.3399999999999
 20
-846.4617398224463
 30
0.0
 11
-501.24
 21
-845.6217398224463
 31
0.0
  0
LINE
  5
785
330
1E
100
AcDbEntity
  8
default
  6
Continuous
 62
     1
100
AcDbLine
 10
-501.24
 20
-845.6217398224463
 30
0.0
 11
-506.0799999999999
 21
-844.7717398224463
 31
0.0
  0
LINE
  5
786
330
1E
100
AcDbEntity
  8
default
  6
Continuous
 62
     1
100
AcDbLine
 10
-491.4
 20
-847.2817398224462
 30
0.0
 11
-496.3399999999999
 21
-846.4617398224463
 31
0.0
  0
LINE
  5
787
330
1E
100
AcDbEntity
  8
default
  6
Continuous
 62
     1
100
AcDbLine
 10
-486.41
 20
-848.0917398224462
 30
0.0
 11
-491.4
 21
-847.2817398224462
 31
0.0
  0
LINE
  5
788
330
1E
100
AcDbEntity
  8
default
  6
Continuous
 62
     1
100
AcDbLine
 10
-476.2799999999999
 20
-849.6717398224463
 30
0.0
 11
-481.3699999999998
 21
-848.8917398224463
 31
0.0
  0
LINE
  5
789
330
1E
100
AcDbEntity
  8
default
  6
Continuous
 62
     1
100
AcDbLine
 10
-482.72
 20
-713.5817398224463
 30
0.0
 11
-486.3699999999998
 21
-715.6117398224463
 31
0.0
  0
LINE
  5
78A
330
1E
100
AcDbEntity
  8
default
  6
Continuous
 62
     1
100
AcDbLine
 10
-517.0
 20
-734.4417398224464
 30
0.0
 11
-520.1500000000001
 21
-736.5817398224463
 31
0.0
  0
LINE
  5
78B
330
1E
100
AcDbEntity
  8
default
  6
Continuous
 62
     1
100
AcDbLine
 10
-526.29
 20
-740.9017398224463
 30
0.0
 11
-529.2799999999999
 21
-743.0817398224463
 31
0.0
  0
LINE
  5
78C
330
1E
100
AcDbEntity
  8
default
  6
Continuous
 62
     1
100
AcDbLine
 10
-523.2499999999999
 20
-738.7417398224463
 30
0.0
 11
-526.29
 21
-740.9017398224463
 31
0.0
  0
LINE
  5
78D
330
1E
100
AcDbEntity
  8
default
  6
Continuous
 62
     1
100
AcDbLine
 10
-520.1500000000001
 20
-736.5817398224463
 30
0.0
 11
-523.2499999999999
 21
-738.7417398224463
 31
0.0
  0
LINE
  5
78E
330
1E
100
AcDbEntity
  8
default
  6
Continuous
 62
     1
100
AcDbLine
 10
-507.24
 20
-728.0517398224462
 30
0.0
 11
-510.5499999999999
 21
-730.1717398224464
 31
0.0
  0
LINE
  5
78F
330
1E
100
AcDbEntity
  8
default
  6
Continuous
 62
     1
100
AcDbLine
 10
-513.7999999999999
 20
-732.3017398224463
 30
0.0
 11
-517.0
 21
-734.4417398224464
 31
0.0
  0
LINE
  5
790
330
1E
100
AcDbEntity
  8
default
  6
Continuous
 62
     1
100
AcDbLine
 10
-510.5499999999999
 20
-730.1717398224464
 30
0.0
 11
-513.7999999999999
 21
-732.3017398224463
 31
0.0
  0
LINE
  5
791
330
1E
100
AcDbEntity
  8
default
  6
Continuous
 62
     1
100
AcDbLine
 10
-486.3699999999998
 20
-715.6117398224463
 30
0.0
 11
-489.97
 21
-717.6517398224462
 31
0.0
  0
LINE
  5
792
330
1E
100
AcDbEntity
  8
default
  6
Continuous
 62
     1
100
AcDbLine
 10
-493.52
 20
-719.7017398224463
 30
0.0
 11
-497.0299999999999
 21
-721.7717398224463
 31
0.0
  0
LINE
  5
793
330
1E
100
AcDbEntity
  8
default
  6
Continuous
 62
     1
100
AcDbLine
 10
-503.8899999999999
 20
-725.9517398224463
 30
0.0
 11
-507.24
 21
-728.0517398224462
 31
0.0
  0
LINE
  5
794
330
1E
100
AcDbEntity
  8
default
  6
Continuous
 62
     1
100
AcDbLine
 10
-500.48
 20
-723.8517398224463
 30
0.0
 11
-503.8899999999999
 21
-725.9517398224463
 31
0.0
  0
LINE
  5
795
330
1E
100
AcDbEntity
  8
default
  6
Continuous
 62
     1
100
AcDbLine
 10
-497.0299999999999
 20
-721.7717398224463
 30
0.0
 11
-500.48
 21
-723.8517398224463
 31
0.0
  0
LINE
  5
796
330
1E
100
AcDbEntity
  8
default
  6
Continuous
 62
     1
100
AcDbLine
 10
-489.97
 20
-717.6517398224462
 30
0.0
 11
-493.52
 21
-719.7017398224463
 31
0.0
  0
LINE
  5
797
330
1E
100
AcDbEntity
  8
default
  6
Continuous
 62
     1
100
AcDbLine
 10
-459.8099999999999
 20
-701.7617398224463
 30
0.0
 11
-463.74
 21
-703.6917398224463
 31
0.0
  0
LINE
  5
798
330
1E
100
AcDbEntity
  8
default
  6
Continuous
 62
     1
100
AcDbLine
 10
-471.47
 20
-707.5917398224463
 30
0.0
 11
-475.2699999999999
 21
-709.5717398224463
 31
0.0
  0
LINE
  5
799
330
1E
100
AcDbEntity
  8
default
  6
Continuous
 62
     1
100
AcDbLine
 10
-479.0199999999999
 20
-711.5717398224464
 30
0.0
 11
-482.72
 21
-713.5817398224463
 31
0.0
  0
LINE
  5
79A
330
1E
100
AcDbEntity
  8
default
  6
Continuous
 62
     1
100
AcDbLine
 10
-475.2699999999999
 20
-709.5717398224463
 30
0.0
 11
-479.0199999999999
 21
-711.5717398224464
 31
0.0
  0
LINE
  5
79B
330
1E
100
AcDbEntity
  8
default
  6
Continuous
 62
     1
100
AcDbLine
 10
-467.6300000000001
 20
-705.6317398224463
 30
0.0
 11
-471.47
 21
-707.5917398224463
 31
0.0
  0
LINE
  5
79C
330
1E
100
AcDbEntity
  8
default
  6
Continuous
 62
     1
100
AcDbLine
 10
-463.74
 20
-703.6917398224463
 30
0.0
 11
-467.6300000000001
 21
-705.6317398224463
 31
0.0
  0
LINE
  5
79D
330
1E
100
AcDbEntity
  8
default
  6
Continuous
 62
     1
100
AcDbLine
 10
-451.7999999999999
 20
-697.9717398224464
 30
0.0
 11
-455.8199999999999
 21
-699.8517398224463
 31
0.0
  0
LINE
  5
79E
330
1E
100
AcDbEntity
  8
default
  6
Continuous
 62
     1
100
AcDbLine
 10
-455.8199999999999
 20
-699.8517398224463
 30
0.0
 11
-459.8099999999999
 21
-701.7617398224463
 31
0.0
  0
LINE
  5
79F
330
1E
100
AcDbEntity
  8
default
  6
Continuous
 62
     1
100
AcDbLine
 10
-439.45
 20
-692.4317398224464
 30
0.0
 11
-443.6100000000001
 21
-694.2517398224463
 31
0.0
  0
LINE
  5
7A0
330
1E
100
AcDbEntity
  8
default
  6
Continuous
 62
     1
100
AcDbLine
 10
-443.6100000000001
 20
-694.2517398224463
 30
0.0
 11
-447.72
 21
-696.1017398224463
 31
0.0
  0
LINE
  5
7A1
330
1E
100
AcDbEntity
  8
default
  6
Continuous
 62
     1
100
AcDbLine
 10
-395.49
 20
-675.4717398224463
 30
0.0
 11
-400.0699999999999
 21
-677.0517398224463
 31
0.0
  0
LINE
  5
7A2
330
1E
100
AcDbEntity
  8
default
  6
Continuous
 62
     1
100
AcDbLine
 10
-417.9899999999999
 20
-683.6417398224463
 30
0.0
 11
-422.3699999999999
 21
-685.3517398224463
 31
0.0
  0
LINE
  5
7A3
330
1E
100
AcDbEntity
  8
default
  6
Continuous
 62
     1
100
AcDbLine
 10
-426.7
 20
-687.0817398224463
 30
0.0
 11
-430.9899999999999
 21
-688.8417398224463
 31
0.0
  0
LINE
  5
7A4
330
1E
100
AcDbEntity
  8
default
  6
Continuous
 62
     1
100
AcDbLine
 10
-435.24
 20
-690.6217398224463
 30
0.0
 11
-439.45
 21
-692.4317398224464
 31
0.0
  0
LINE
  5
7A5
330
1E
100
AcDbEntity
  8
default
  6
Continuous
 62
     1
100
AcDbLine
 10
-430.9899999999999
 20
-688.8417398224463
 30
0.0
 11
-435.24
 21
-690.6217398224463
 31
0.0
  0
LINE
  5
7A6
330
1E
100
AcDbEntity
  8
default
  6
Continuous
 62
     1
100
AcDbLine
 10
-422.3699999999999
 20
-685.3517398224463
 30
0.0
 11
-426.7
 21
-687.0817398224463
 31
0.0
  0
LINE
  5
7A7
330
1E
100
AcDbEntity
  8
default
  6
Continuous
 62
     1
100
AcDbLine
 10
-400.0699999999999
 20
-677.0517398224463
 30
0.0
 11
-404.61
 21
-678.6617398224462
 31
0.0
  0
LINE
  5
7A8
330
1E
100
AcDbEntity
  8
default
  6
Continuous
 62
     1
100
AcDbLine
 10
-404.61
 20
-678.6617398224462
 30
0.0
 11
-409.1100000000001
 21
-680.2917398224463
 31
0.0
  0
LINE
  5
7A9
330
1E
100
AcDbEntity
  8
default
  6
Continuous
 62
     1
100
AcDbLine
 10
-413.5699999999999
 20
-681.9517398224463
 30
0.0
 11
-417.9899999999999
 21
-683.6417398224463
 31
0.0
  0
LINE
  5
7AA
330
1E
100
AcDbEntity
  8
default
  6
Continuous
 62
     1
100
AcDbLine
 10
-409.1100000000001
 20
-680.2917398224463
 30
0.0
 11
-413.5699999999999
 21
-681.9517398224463
 31
0.0
  0
LINE
  5
7AB
330
1E
100
AcDbEntity
  8
default
  6
Continuous
 62
     1
100
AcDbLine
 10
-372.0
 20
-667.9817398224463
 30
0.0
 11
-376.77
 21
-669.4217398224463
 31
0.0
  0
LINE
  5
7AC
330
1E
100
AcDbEntity
  8
default
  6
Continuous
 62
     1
100
AcDbLine
 10
-386.21
 20
-672.3917398224463
 30
0.0
 11
-390.8699999999999
 21
-673.9117398224463
 31
0.0
  0
LINE
  5
7AD
330
1E
100
AcDbEntity
  8
default
  6
Continuous
 62
     1
100
AcDbLine
 10
-390.8699999999999
 20
-673.9117398224463
 30
0.0
 11
-395.49
 21
-675.4717398224463
 31
0.0
  0
LINE
  5
7AE
330
1E
100
AcDbEntity
  8
default
  6
Continuous
 62
     1
100
AcDbLine
 10
-381.51
 20
-670.8917398224463
 30
0.0
 11
-386.21
 21
-672.3917398224463
 31
0.0
  0
LINE
  5
7AF
330
1E
100
AcDbEntity
  8
default
  6
Continuous
 62
     1
100
AcDbLine
 10
-376.77
 20
-669.4217398224463
 30
0.0
 11
-381.51
 21
-670.8917398224463
 31
0.0
  0
LINE
  5
7B0
330
1E
100
AcDbEntity
  8
default
  6
Continuous
 62
     1
100
AcDbLine
 10
-362.3399999999999
 20
-665.2017398224463
 30
0.0
 11
-367.18
 21
-666.5817398224463
 31
0.0
  0
LINE
  5
7B1
330
1E
100
AcDbEntity
  8
default
  6
Continuous
 62
     1
100
AcDbLine
 10
-367.18
 20
-666.5817398224463
 30
0.0
 11
-372.0
 21
-667.9817398224463
 31
0.0
  0
LINE
  5
7B2
330
1E
100
AcDbEntity
  8
default
  6
Continuous
 62
     1
100
AcDbLine
 10
-357.45
 20
-663.8617398224463
 30
0.0
 11
-362.3399999999999
 21
-665.2017398224463
 31
0.0
  0
LINE
  5
7B3
330
1E
100
AcDbEntity
  8
default
  6
Continuous
 62
     1
100
AcDbLine
 10
0.0
 20
-625.7417398224463
 30
0.0
 11
0.0
 21
-880.2317398224463
 31
0.0
  0
LINE
  5
7B4
330
1E
100
AcDbEntity
  8
default
  6
Continuous
 62
     3
100
AcDbLine
 10
0.0
 20
-625.7417398224463
 30
0.0
 11
0.0
 21
-916.3304774267457
 31
0.0
  0
LINE
  5
7B5
330
1E
100
AcDbEntity
  8
default
  6
Continuous
 62
     1
100
AcDbLine
 10
-335.6100000000001
 20
-658.3417398224463
 30
0.0
 11
-335.6100000000001
 21
-866.2317398224463
 31
0.0
  0
LINE
  5
7B6
330
1E
100
AcDbEntity
  8
default
  6
Continuous
 62
     1
100
AcDbLine
 10
-313.0699999999999
 20
-653.4717398224463
 30
0.0
 11
-313.0699999999999
 21
-868.1517398224462
 31
0.0
  0
LINE
  5
7B7
330
1E
100
AcDbEntity
  8
default
  6
Continuous
 62
     1
100
AcDbLine
 10
-290.21
 20
-649.2717398224463
 30
0.0
 11
-290.21
 21
-869.9417398224463
 31
0.0
  0
LINE
  5
7B8
330
1E
100
AcDbEntity
  8
default
  6
Continuous
 62
     1
100
AcDbLine
 10
-267.0599999999999
 20
-645.4617398224463
 30
0.0
 11
-267.0599999999999
 21
-871.5817398224464
 31
0.0
  0
LINE
  5
7B9
330
1E
100
AcDbEntity
  8
default
  6
Continuous
 62
     1
100
AcDbLine
 10
-243.6399999999999
 20
-642.0017398224463
 30
0.0
 11
-243.6399999999999
 21
-873.0817398224463
 31
0.0
  0
LINE
  5
7BA
330
1E
100
AcDbEntity
  8
default
  6
Continuous
 62
     1
100
AcDbLine
 10
-219.98
 20
-638.8817398224463
 30
0.0
 11
-219.98
 21
-874.4417398224463
 31
0.0
  0
LINE
  5
7BB
330
1E
100
AcDbEntity
  8
default
  6
Continuous
 62
     1
100
AcDbLine
 10
-196.1
 20
-636.1117398224463
 30
0.0
 11
-196.1
 21
-875.6517398224463
 31
0.0
  0
LINE
  5
7BC
330
1E
100
AcDbEntity
  8
default
  6
Continuous
 62
     1
100
AcDbLine
 10
-172.0199999999999
 20
-633.6717398224463
 30
0.0
 11
-172.0199999999999
 21
-876.7217398224463
 31
0.0
  0
LINE
  5
7BD
330
1E
100
AcDbEntity
  8
default
  6
Continuous
 62
     1
100
AcDbLine
 10
-147.7799999999999
 20
-631.5617398224463
 30
0.0
 11
-147.7799999999999
 21
-877.6517398224463
 31
0.0
  0
LINE
  5
7BE
330
1E
100
AcDbEntity
  8
default
  6
Continuous
 62
     1
100
AcDbLine
 10
-123.3899999999999
 20
-629.7817398224463
 30
0.0
 11
-123.3899999999999
 21
-878.4417398224464
 31
0.0
  0
LINE
  5
7BF
330
1E
100
AcDbEntity
  8
default
  6
Continuous
 62
     1
100
AcDbLine
 10
-98.87
 20
-628.3217398224463
 30
0.0
 11
-98.87
 21
-879.0817398224463
 31
0.0
  0
LINE
  5
7C0
330
1E
100
AcDbEntity
  8
default
  6
Continuous
 62
     1
100
AcDbLine
 10
-74.25
 20
-627.1917398224464
 30
0.0
 11
-74.25
 21
-885.8012800711076
 31
0.0
  0
LINE
  5
7C1
330
1E
100
AcDbEntity
  8
default
  6
Continuous
 62
     1
100
AcDbLine
 10
-49.54999999999995
 20
-626.3917398224463
 30
0.0
 11
-49.54999999999995
 21
-892.9080174535563
 31
0.0
  0
LINE
  5
7C2
330
1E
100
AcDbEntity
  8
default
  6
Continuous
 62
     1
100
AcDbLine
 10
-24.78999999999996
 20
-625.9017398224463
 30
0.0
 11
-24.78999999999996
 21
-904.0611009255933
 31
0.0
  0
LINE
  5
7C3
330
1E
100
AcDbEntity
  8
default
  6
Continuous
 62
     1
100
AcDbLine
 10
-172.87
 20
-876.6917398224464
 30
0.0
 11
-179.63
 21
-876.4017398224464
 31
0.0
  0
LINE
  5
7C4
330
1E
100
AcDbEntity
  8
default
  6
Continuous
 62
     1
100
AcDbLine
 10
-259.17
 20
-872.1017398224462
 30
0.0
 11
-265.6499999999999
 21
-871.6817398224463
 31
0.0
  0
LINE
  5
7C5
330
1E
100
AcDbEntity
  8
default
  6
Continuous
 62
     1
100
AcDbLine
 10
-303.9200000000001
 20
-868.8917398224463
 30
0.0
 11
-310.2
 21
-868.3917398224464
 31
0.0
  0
LINE
  5
7C6
330
1E
100
AcDbEntity
  8
default
  6
Continuous
 62
     1
100
AcDbLine
 10
-328.8399999999999
 20
-866.8317398224463
 30
0.0
 11
-334.99
 21
-866.2817398224463
 31
0.0
  0
LINE
  5
7C7
330
1E
100
AcDbEntity
  8
default
  6
Continuous
 62
     1
100
AcDbLine
 10
-341.0999999999999
 20
-865.7317398224464
 30
0.0
 11
-347.18
 21
-865.1717398224464
 31
0.0
  0
LINE
  5
7C8
330
1E
100
AcDbEntity
  8
default
  6
Continuous
 62
     1
100
AcDbLine
 10
-334.99
 20
-866.2817398224463
 30
0.0
 11
-341.0999999999999
 21
-865.7317398224464
 31
0.0
  0
LINE
  5
7C9
330
1E
100
AcDbEntity
  8
default
  6
Continuous
 62
     1
100
AcDbLine
 10
-316.45
 20
-867.8817398224463
 30
0.0
 11
-322.66
 21
-867.3617398224463
 31
0.0
  0
LINE
  5
7CA
330
1E
100
AcDbEntity
  8
default
  6
Continuous
 62
     1
100
AcDbLine
 10
-322.66
 20
-867.3617398224463
 30
0.0
 11
-328.8399999999999
 21
-866.8317398224463
 31
0.0
  0
LINE
  5
7CB
330
1E
100
AcDbEntity
  8
default
  6
Continuous
 62
     1
100
AcDbLine
 10
-310.2
 20
-868.3917398224464
 30
0.0
 11
-316.45
 21
-867.8817398224463
 31
0.0
  0
LINE
  5
7CC
330
1E
100
AcDbEntity
  8
default
  6
Continuous
 62
     1
100
AcDbLine
 10
-284.91
 20
-870.3317398224463
 30
0.0
 11
-291.2799999999999
 21
-869.8617398224463
 31
0.0
  0
LINE
  5
7CD
330
1E
100
AcDbEntity
  8
default
  6
Continuous
 62
     1
100
AcDbLine
 10
-297.62
 20
-869.3817398224464
 30
0.0
 11
-303.9200000000001
 21
-868.8917398224463
 31
0.0
  0
LINE
  5
7CE
330
1E
100
AcDbEntity
  8
default
  6
Continuous
 62
     1
100
AcDbLine
 10
-291.2799999999999
 20
-869.8617398224463
 30
0.0
 11
-297.62
 21
-869.3817398224464
 31
0.0
  0
LINE
  5
7CF
330
1E
100
AcDbEntity
  8
default
  6
Continuous
 62
     1
100
AcDbLine
 10
-272.1
 20
-871.2417398224463
 30
0.0
 11
-278.5199999999999
 21
-870.7917398224463
 31
0.0
  0
LINE
  5
7D0
330
1E
100
AcDbEntity
  8
default
  6
Continuous
 62
     1
100
AcDbLine
 10
-278.5199999999999
 20
-870.7917398224463
 30
0.0
 11
-284.91
 21
-870.3317398224463
 31
0.0
  0
LINE
  5
7D1
330
1E
100
AcDbEntity
  8
default
  6
Continuous
 62
     1
100
AcDbLine
 10
-265.6499999999999
 20
-871.6817398224463
 30
0.0
 11
-272.1
 21
-871.2417398224463
 31
0.0
  0
LINE
  5
7D2
330
1E
100
AcDbEntity
  8
default
  6
Continuous
 62
     1
100
AcDbLine
 10
-219.7999999999999
 20
-874.4517398224463
 30
0.0
 11
-226.4199999999999
 21
-874.0817398224463
 31
0.0
  0
LINE
  5
7D3
330
1E
100
AcDbEntity
  8
default
  6
Continuous
 62
     1
100
AcDbLine
 10
-239.59
 20
-873.3217398224464
 30
0.0
 11
-246.1399999999999
 21
-872.9317398224464
 31
0.0
  0
LINE
  5
7D4
330
1E
100
AcDbEntity
  8
default
  6
Continuous
 62
     1
100
AcDbLine
 10
-252.6699999999999
 20
-872.5217398224463
 30
0.0
 11
-259.17
 21
-872.1017398224462
 31
0.0
  0
LINE
  5
7D5
330
1E
100
AcDbEntity
  8
default
  6
Continuous
 62
     1
100
AcDbLine
 10
-246.1399999999999
 20
-872.9317398224464
 30
0.0
 11
-252.6699999999999
 21
-872.5217398224463
 31
0.0
  0
LINE
  5
7D6
330
1E
100
AcDbEntity
  8
default
  6
Continuous
 62
     1
100
AcDbLine
 10
-226.4199999999999
 20
-874.0817398224463
 30
0.0
 11
-233.02
 21
-873.7117398224464
 31
0.0
  0
LINE
  5
7D7
330
1E
100
AcDbEntity
  8
default
  6
Continuous
 62
     1
100
AcDbLine
 10
-233.02
 20
-873.7117398224464
 30
0.0
 11
-239.59
 21
-873.3217398224464
 31
0.0
  0
LINE
  5
7D8
330
1E
100
AcDbEntity
  8
default
  6
Continuous
 62
     1
100
AcDbLine
 10
-193.1
 20
-875.7917398224462
 30
0.0
 11
-199.7999999999999
 21
-875.4717398224464
 31
0.0
  0
LINE
  5
7D9
330
1E
100
AcDbEntity
  8
default
  6
Continuous
 62
     1
100
AcDbLine
 10
-206.49
 20
-875.1417398224463
 30
0.0
 11
-213.1499999999999
 21
-874.8017398224462
 31
0.0
  0
LINE
  5
7DA
330
1E
100
AcDbEntity
  8
default
  6
Continuous
 62
     1
100
AcDbLine
 10
-213.1499999999999
 20
-874.8017398224462
 30
0.0
 11
-219.7999999999999
 21
-874.4517398224463
 31
0.0
  0
LINE
  5
7DB
330
1E
100
AcDbEntity
  8
default
  6
Continuous
 62
     1
100
AcDbLine
 10
-199.7999999999999
 20
-875.4717398224464
 30
0.0
 11
-206.49
 21
-875.1417398224463
 31
0.0
  0
LINE
  5
7DC
330
1E
100
AcDbEntity
  8
default
  6
Continuous
 62
     1
100
AcDbLine
 10
-186.37
 20
-876.1017398224463
 30
0.0
 11
-193.1
 21
-875.7917398224462
 31
0.0
  0
LINE
  5
7DD
330
1E
100
AcDbEntity
  8
default
  6
Continuous
 62
     1
100
AcDbLine
 10
-179.63
 20
-876.4017398224464
 30
0.0
 11
-186.37
 21
-876.1017398224463
 31
0.0
  0
LINE
  5
7DE
330
1E
100
AcDbEntity
  8
default
  6
Continuous
 62
     1
100
AcDbLine
 10
-83.64999999999998
 20
-879.4117398224463
 30
0.0
 11
-90.58000000000005
 21
-879.2717398224462
 31
0.0
  0
LINE
  5
7DF
330
1E
100
AcDbEntity
  8
default
  6
Continuous
 62
     1
100
AcDbLine
 10
-131.96
 20
-878.1817398224463
 30
0.0
 11
-138.8199999999999
 21
-877.9617398224463
 31
0.0
  0
LINE
  5
7E0
330
1E
100
AcDbEntity
  8
default
  6
Continuous
 62
     1
100
AcDbLine
 10
-152.48
 20
-877.4817398224463
 30
0.0
 11
-159.2899999999999
 21
-877.2317398224464
 31
0.0
  0
LINE
  5
7E1
330
1E
100
AcDbEntity
  8
default
  6
Continuous
 62
     1
100
AcDbLine
 10
-159.2899999999999
 20
-877.2317398224464
 30
0.0
 11
-166.09
 21
-876.9617398224463
 31
0.0
  0
LINE
  5
7E2
330
1E
100
AcDbEntity
  8
default
  6
Continuous
 62
     1
100
AcDbLine
 10
-166.09
 20
-876.9617398224463
 30
0.0
 11
-172.87
 21
-876.6917398224464
 31
0.0
  0
LINE
  5
7E3
330
1E
100
AcDbEntity
  8
default
  6
Continuous
 62
     1
100
AcDbLine
 10
-138.8199999999999
 20
-877.9617398224463
 30
0.0
 11
-145.6599999999999
 21
-877.7317398224463
 31
0.0
  0
LINE
  5
7E4
330
1E
100
AcDbEntity
  8
default
  6
Continuous
 62
     1
100
AcDbLine
 10
-145.6599999999999
 20
-877.7317398224463
 30
0.0
 11
-152.48
 21
-877.4817398224463
 31
0.0
  0
LINE
  5
7E5
330
1E
100
AcDbEntity
  8
default
  6
Continuous
 62
     1
100
AcDbLine
 10
-104.4199999999999
 20
-878.9517398224463
 30
0.0
 11
-111.3199999999999
 21
-878.7717398224463
 31
0.0
  0
LINE
  5
7E6
330
1E
100
AcDbEntity
  8
default
  6
Continuous
 62
     1
100
AcDbLine
 10
-118.21
 20
-878.5917398224464
 30
0.0
 11
-125.09
 21
-878.3917398224463
 31
0.0
  0
LINE
  5
7E7
330
1E
100
AcDbEntity
  8
default
  6
Continuous
 62
     1
100
AcDbLine
 10
-125.09
 20
-878.3917398224463
 30
0.0
 11
-131.96
 21
-878.1817398224463
 31
0.0
  0
LINE
  5
7E8
330
1E
100
AcDbEntity
  8
default
  6
Continuous
 62
     1
100
AcDbLine
 10
-111.3199999999999
 20
-878.7717398224463
 30
0.0
 11
-118.21
 21
-878.5917398224464
 31
0.0
  0
LINE
  5
7E9
330
1E
100
AcDbEntity
  8
default
  6
Continuous
 62
     1
100
AcDbLine
 10
-97.5
 20
-879.1117398224463
 30
0.0
 11
-104.4199999999999
 21
-878.9517398224463
 31
0.0
  0
LINE
  5
7EA
330
1E
100
AcDbEntity
  8
default
  6
Continuous
 62
     1
100
AcDbLine
 10
-90.58000000000005
 20
-879.2717398224462
 30
0.0
 11
-97.5
 21
-879.1117398224463
 31
0.0
  0
LINE
  5
7EB
330
1E
100
AcDbEntity
  8
default
  6
Continuous
 62
     1
100
AcDbLine
 10
-41.89999999999997
 20
-880.0217398224463
 30
0.0
 11
-48.87
 21
-879.9517398224464
 31
0.0
  0
LINE
  5
7EC
330
1E
100
AcDbEntity
  8
default
  6
Continuous
 62
     1
100
AcDbLine
 10
-62.79999999999995
 20
-879.7717398224463
 30
0.0
 11
-69.75999999999999
 21
-879.6617398224462
 31
0.0
  0
LINE
  5
7ED
330
1E
100
AcDbEntity
  8
default
  6
Continuous
 62
     1
100
AcDbLine
 10
-76.71000000000003
 20
-879.5417398224463
 30
0.0
 11
-83.64999999999998
 21
-879.4117398224463
 31
0.0
  0
LINE
  5
7EE
330
1E
100
AcDbEntity
  8
default
  6
Continuous
 62
     1
100
AcDbLine
 10
-69.75999999999999
 20
-879.6617398224462
 30
0.0
 11
-76.71000000000003
 21
-879.5417398224463
 31
0.0
  0
LINE
  5
7EF
330
1E
100
AcDbEntity
  8
default
  6
Continuous
 62
     1
100
AcDbLine
 10
-48.87
 20
-879.9517398224464
 30
0.0
 11
-55.84000000000003
 21
-879.8717398224463
 31
0.0
  0
LINE
  5
7F0
330
1E
100
AcDbEntity
  8
default
  6
Continuous
 62
     1
100
AcDbLine
 10
-55.84000000000003
 20
-879.8717398224463
 30
0.0
 11
-62.79999999999995
 21
-879.7717398224463
 31
0.0
  0
LINE
  5
7F1
330
1E
100
AcDbEntity
  8
default
  6
Continuous
 62
     1
100
AcDbLine
 10
-20.96000000000003
 20
-880.1817398224464
 30
0.0
 11
-27.94000000000005
 21
-880.1417398224463
 31
0.0
  0
LINE
  5
7F2
330
1E
100
AcDbEntity
  8
default
  6
Continuous
 62
     1
100
AcDbLine
 10
-27.94000000000005
 20
-880.1417398224463
 30
0.0
 11
-34.91999999999995
 21
-880.0917398224463
 31
0.0
  0
LINE
  5
7F3
330
1E
100
AcDbEntity
  8
default
  6
Continuous
 62
     1
100
AcDbLine
 10
-34.91999999999995
 20
-880.0917398224463
 30
0.0
 11
-41.89999999999997
 21
-880.0217398224463
 31
0.0
  0
LINE
  5
7F4
330
1E
100
AcDbEntity
  8
default
  6
Continuous
 62
     1
100
AcDbLine
 10
-6.990000000000009
 20
-880.2217398224463
 30
0.0
 11
-13.97000000000002
 21
-880.2117398224464
 31
0.0
  0
LINE
  5
7F5
330
1E
100
AcDbEntity
  8
default
  6
Continuous
 62
     1
100
AcDbLine
 10
-13.97000000000002
 20
-880.2117398224464
 30
0.0
 11
-20.96000000000003
 21
-880.1817398224464
 31
0.0
  0
LINE
  5
7F6
330
1E
100
AcDbEntity
  8
default
  6
Continuous
 62
     1
100
AcDbLine
 10
0.0
 20
-880.2317398224463
 30
0.0
 11
-6.990000000000009
 21
-880.2217398224463
 31
0.0
  0
LINE
  5
7F7
330
1E
100
AcDbEntity
  8
default
  6
Continuous
 62
     1
100
AcDbLine
 10
-173.5
 20
-633.8017398224462
 30
0.0
 11
-179.2999999999999
 21
-634.3717398224463
 31
0.0
  0
LINE
  5
7F8
330
1E
100
AcDbEntity
  8
default
  6
Continuous
 62
     1
100
AcDbLine
 10
-263.91
 20
-644.9717398224463
 30
0.0
 11
-269.3599999999999
 21
-645.8217398224463
 31
0.0
  0
LINE
  5
7F9
330
1E
100
AcDbEntity
  8
default
  6
Continuous
 62
     1
100
AcDbLine
 10
-306.72
 20
-652.2417398224463
 30
0.0
 11
-311.94
 21
-653.2417398224463
 31
0.0
  0
LINE
  5
7FA
330
1E
100
AcDbEntity
  8
default
  6
Continuous
 62
     1
100
AcDbLine
 10
-337.5599999999999
 20
-658.8017398224462
 30
0.0
 11
-342.5899999999999
 21
-660.0117398224463
 31
0.0
  0
LINE
  5
7FB
330
1E
100
AcDbEntity
  8
default
  6
Continuous
 62
     1
100
AcDbLine
 10
-347.5799999999999
 20
-661.2617398224463
 30
0.0
 11
-352.5299999999999
 21
-662.5417398224462
 31
0.0
  0
LINE
  5
7FC
330
1E
100
AcDbEntity
  8
default
  6
Continuous
 62
     1
100
AcDbLine
 10
-342.5899999999999
 20
-660.0117398224463
 30
0.0
 11
-347.5799999999999
 21
-661.2617398224463
 31
0.0
  0
LINE
  5
7FD
330
1E
100
AcDbEntity
  8
default
  6
Continuous
 62
     1
100
AcDbLine
 10
-327.41
 20
-656.4717398224463
 30
0.0
 11
-332.5
 21
-657.6217398224463
 31
0.0
  0
LINE
  5
7FE
330
1E
100
AcDbEntity
  8
default
  6
Continuous
 62
     1
100
AcDbLine
 10
-332.5
 20
-657.6217398224463
 30
0.0
 11
-337.5599999999999
 21
-658.8017398224462
 31
0.0
  0
LINE
  5
7FF
330
1E
100
AcDbEntity
  8
default
  6
Continuous
 62
     1
100
AcDbLine
 10
-317.1300000000001
 20
-654.2817398224463
 30
0.0
 11
-322.2899999999999
 21
-655.3617398224463
 31
0.0
  0
LINE
  5
800
330
1E
100
AcDbEntity
  8
default
  6
Continuous
 62
     1
100
AcDbLine
 10
-322.2899999999999
 20
-655.3617398224463
 30
0.0
 11
-327.41
 21
-656.4717398224463
 31
0.0
  0
LINE
  5
801
330
1E
100
AcDbEntity
  8
default
  6
Continuous
 62
     1
100
AcDbLine
 10
-311.94
 20
-653.2417398224463
 30
0.0
 11
-317.1300000000001
 21
-654.2817398224463
 31
0.0
  0
LINE
  5
802
330
1E
100
AcDbEntity
  8
default
  6
Continuous
 62
     1
100
AcDbLine
 10
-285.5399999999999
 20
-648.4717398224463
 30
0.0
 11
-290.8799999999999
 21
-649.3817398224463
 31
0.0
  0
LINE
  5
803
330
1E
100
AcDbEntity
  8
default
  6
Continuous
 62
     1
100
AcDbLine
 10
-296.19
 20
-650.3217398224464
 30
0.0
 11
-301.47
 21
-651.2717398224463
 31
0.0
  0
LINE
  5
804
330
1E
100
AcDbEntity
  8
default
  6
Continuous
 62
     1
100
AcDbLine
 10
-301.47
 20
-651.2717398224463
 30
0.0
 11
-306.72
 21
-652.2417398224463
 31
0.0
  0
LINE
  5
805
330
1E
100
AcDbEntity
  8
default
  6
Continuous
 62
     1
100
AcDbLine
 10
-290.8799999999999
 20
-649.3817398224463
 30
0.0
 11
-296.19
 21
-650.3217398224464
 31
0.0
  0
LINE
  5
806
330
1E
100
AcDbEntity
  8
default
  6
Continuous
 62
     1
100
AcDbLine
 10
-274.7799999999999
 20
-646.6817398224463
 30
0.0
 11
-280.18
 21
-647.5717398224463
 31
0.0
  0
LINE
  5
807
330
1E
100
AcDbEntity
  8
default
  6
Continuous
 62
     1
100
AcDbLine
 10
-280.18
 20
-647.5717398224463
 30
0.0
 11
-285.5399999999999
 21
-648.4717398224463
 31
0.0
  0
LINE
  5
808
330
1E
100
AcDbEntity
  8
default
  6
Continuous
 62
     1
100
AcDbLine
 10
-269.3599999999999
 20
-645.8217398224463
 30
0.0
 11
-274.7799999999999
 21
-646.6817398224463
 31
0.0
  0
LINE
  5
809
330
1E
100
AcDbEntity
  8
default
  6
Continuous
 62
     1
100
AcDbLine
 10
-219.3999999999999
 20
-638.8117398224464
 30
0.0
 11
-225.0499999999999
 21
-639.5217398224462
 31
0.0
  0
LINE
  5
80A
330
1E
100
AcDbEntity
  8
default
  6
Continuous
 62
     1
100
AcDbLine
 10
-241.85
 20
-641.7517398224463
 30
0.0
 11
-247.3999999999999
 21
-642.5317398224462
 31
0.0
  0
LINE
  5
80B
330
1E
100
AcDbEntity
  8
default
  6
Continuous
 62
     1
100
AcDbLine
 10
-252.93
 20
-643.3217398224464
 30
0.0
 11
-258.43
 21
-644.1417398224463
 31
0.0
  0
LINE
  5
80C
330
1E
100
AcDbEntity
  8
default
  6
Continuous
 62
     1
100
AcDbLine
 10
-258.43
 20
-644.1417398224463
 30
0.0
 11
-263.91
 21
-644.9717398224463
 31
0.0
  0
LINE
  5
80D
330
1E
100
AcDbEntity
  8
default
  6
Continuous
 62
     1
100
AcDbLine
 10
-247.3999999999999
 20
-642.5317398224462
 30
0.0
 11
-252.93
 21
-643.3217398224464
 31
0.0
  0
LINE
  5
80E
330
1E
100
AcDbEntity
  8
default
  6
Continuous
 62
     1
100
AcDbLine
 10
-225.0499999999999
 20
-639.5217398224462
 30
0.0
 11
-230.6699999999999
 21
-640.2417398224463
 31
0.0
  0
LINE
  5
80F
330
1E
100
AcDbEntity
  8
default
  6
Continuous
 62
     1
100
AcDbLine
 10
-230.6699999999999
 20
-640.2417398224463
 30
0.0
 11
-236.2699999999999
 21
-640.9917398224463
 31
0.0
  0
LINE
  5
810
330
1E
100
AcDbEntity
  8
default
  6
Continuous
 62
     1
100
AcDbLine
 10
-236.2699999999999
 20
-640.9917398224463
 30
0.0
 11
-241.85
 21
-641.7517398224463
 31
0.0
  0
LINE
  5
811
330
1E
100
AcDbEntity
  8
default
  6
Continuous
 62
     1
100
AcDbLine
 10
-196.61
 20
-636.1617398224463
 30
0.0
 11
-202.34
 21
-636.8017398224463
 31
0.0
  0
LINE
  5
812
330
1E
100
AcDbEntity
  8
default
  6
Continuous
 62
     1
100
AcDbLine
 10
-208.0499999999999
 20
-637.4517398224464
 30
0.0
 11
-213.7399999999999
 21
-638.1217398224463
 31
0.0
  0
LINE
  5
813
330
1E
100
AcDbEntity
  8
default
  6
Continuous
 62
     1
100
AcDbLine
 10
-213.7399999999999
 20
-638.1217398224463
 30
0.0
 11
-219.3999999999999
 21
-638.8117398224464
 31
0.0
  0
LINE
  5
814
330
1E
100
AcDbEntity
  8
default
  6
Continuous
 62
     1
100
AcDbLine
 10
-202.34
 20
-636.8017398224463
 30
0.0
 11
-208.0499999999999
 21
-637.4517398224464
 31
0.0
  0
LINE
  5
815
330
1E
100
AcDbEntity
  8
default
  6
Continuous
 62
     1
100
AcDbLine
 10
-185.09
 20
-634.9517398224463
 30
0.0
 11
-190.86
 21
-635.5417398224463
 31
0.0
  0
LINE
  5
816
330
1E
100
AcDbEntity
  8
default
  6
Continuous
 62
     1
100
AcDbLine
 10
-190.86
 20
-635.5417398224463
 30
0.0
 11
-196.61
 21
-636.1617398224463
 31
0.0
  0
LINE
  5
817
330
1E
100
AcDbEntity
  8
default
  6
Continuous
 62
     1
100
AcDbLine
 10
-179.2999999999999
 20
-634.3717398224463
 30
0.0
 11
-185.09
 21
-634.9517398224463
 31
0.0
  0
LINE
  5
818
330
1E
100
AcDbEntity
  8
default
  6
Continuous
 62
     1
100
AcDbLine
 10
-84.65999999999997
 20
-627.6317398224463
 30
0.0
 11
-90.66999999999996
 21
-627.9117398224463
 31
0.0
  0
LINE
  5
819
330
1E
100
AcDbEntity
  8
default
  6
Continuous
 62
     1
100
AcDbLine
 10
-132.4099999999999
 20
-630.4017398224463
 30
0.0
 11
-138.3199999999999
 21
-630.8317398224463
 31
0.0
  0
LINE
  5
81A
330
1E
100
AcDbEntity
  8
default
  6
Continuous
 62
     1
100
AcDbLine
 10
-150.11
 20
-631.7417398224463
 30
0.0
 11
-155.98
 21
-632.2317398224463
 31
0.0
  0
LINE
  5
81B
330
1E
100
AcDbEntity
  8
default
  6
Continuous
 62
     1
100
AcDbLine
 10
-161.83
 20
-632.7417398224463
 30
0.0
 11
-167.6699999999999
 21
-633.2617398224463
 31
0.0
  0
LINE
  5
81C
330
1E
100
AcDbEntity
  8
default
  6
Continuous
 62
     1
100
AcDbLine
 10
-167.6699999999999
 20
-633.2617398224463
 30
0.0
 11
-173.5
 21
-633.8017398224462
 31
0.0
  0
LINE
  5
81D
330
1E
100
AcDbEntity
  8
default
  6
Continuous
 62
     1
100
AcDbLine
 10
-155.98
 20
-632.2317398224463
 30
0.0
 11
-161.83
 21
-632.7417398224463
 31
0.0
  0
LINE
  5
81E
330
1E
100
AcDbEntity
  8
default
  6
Continuous
 62
     1
100
AcDbLine
 10
-138.3199999999999
 20
-630.8317398224463
 30
0.0
 11
-144.22
 21
-631.2817398224463
 31
0.0
  0
LINE
  5
81F
330
1E
100
AcDbEntity
  8
default
  6
Continuous
 62
     1
100
AcDbLine
 10
-144.22
 20
-631.2817398224463
 30
0.0
 11
-150.11
 21
-631.7417398224463
 31
0.0
  0
LINE
  5
820
330
1E
100
AcDbEntity
  8
default
  6
Continuous
 62
     1
100
AcDbLine
 10
-108.62
 20
-628.8617398224463
 30
0.0
 11
-114.59
 21
-629.2217398224464
 31
0.0
  0
LINE
  5
821
330
1E
100
AcDbEntity
  8
default
  6
Continuous
 62
     1
100
AcDbLine
 10
-120.5399999999999
 20
-629.5917398224463
 30
0.0
 11
-126.48
 21
-629.9817398224463
 31
0.0
  0
LINE
  5
822
330
1E
100
AcDbEntity
  8
default
  6
Continuous
 62
     1
100
AcDbLine
 10
-126.48
 20
-629.9817398224463
 30
0.0
 11
-132.4099999999999
 21
-630.4017398224463
 31
0.0
  0
LINE
  5
823
330
1E
100
AcDbEntity
  8
default
  6
Continuous
 62
     1
100
AcDbLine
 10
-114.59
 20
-629.2217398224464
 30
0.0
 11
-120.5399999999999
 21
-629.5917398224463
 31
0.0
  0
LINE
  5
824
330
1E
100
AcDbEntity
  8
default
  6
Continuous
 62
     1
100
AcDbLine
 10
-96.65999999999996
 20
-628.2117398224463
 30
0.0
 11
-102.6499999999999
 21
-628.5217398224463
 31
0.0
  0
LINE
  5
825
330
1E
100
AcDbEntity
  8
default
  6
Continuous
 62
     1
100
AcDbLine
 10
-102.6499999999999
 20
-628.5217398224463
 30
0.0
 11
-108.62
 21
-628.8617398224463
 31
0.0
  0
LINE
  5
826
330
1E
100
AcDbEntity
  8
default
  6
Continuous
 62
     1
100
AcDbLine
 10
-90.66999999999996
 20
-627.9117398224463
 30
0.0
 11
-96.65999999999996
 21
-628.2117398224463
 31
0.0
  0
LINE
  5
827
330
1E
100
AcDbEntity
  8
default
  6
Continuous
 62
     1
100
AcDbLine
 10
-42.44000000000005
 20
-626.2117398224464
 30
0.0
 11
-48.49000000000001
 21
-626.3617398224463
 31
0.0
  0
LINE
  5
828
330
1E
100
AcDbEntity
  8
default
  6
Continuous
 62
     1
100
AcDbLine
 10
-60.57000000000005
 20
-626.7017398224464
 30
0.0
 11
-66.61000000000001
 21
-626.9117398224462
 31
0.0
  0
LINE
  5
829
330
1E
100
AcDbEntity
  8
default
  6
Continuous
 62
     1
100
AcDbLine
 10
-72.62999999999999
 20
-627.1317398224462
 30
0.0
 11
-78.64999999999998
 21
-627.3717398224463
 31
0.0
  0
LINE
  5
82A
330
1E
100
AcDbEntity
  8
default
  6
Continuous
 62
     1
100
AcDbLine
 10
-78.64999999999998
 20
-627.3717398224463
 30
0.0
 11
-84.65999999999997
 21
-627.6317398224463
 31
0.0
  0
LINE
  5
82B
330
1E
100
AcDbEntity
  8
default
  6
Continuous
 62
     1
100
AcDbLine
 10
-66.61000000000001
 20
-626.9117398224462
 30
0.0
 11
-72.62999999999999
 21
-627.1317398224462
 31
0.0
  0
LINE
  5
82C
330
1E
100
AcDbEntity
  8
default
  6
Continuous
 62
     1
100
AcDbLine
 10
-54.52999999999997
 20
-626.5217398224462
 30
0.0
 11
-60.57000000000005
 21
-626.7017398224464
 31
0.0
  0
LINE
  5
82D
330
1E
100
AcDbEntity
  8
default
  6
Continuous
 62
     1
100
AcDbLine
 10
-48.49000000000001
 20
-626.3617398224463
 30
0.0
 11
-54.52999999999997
 21
-626.5217398224462
 31
0.0
  0
LINE
  5
82E
330
1E
100
AcDbEntity
  8
default
  6
Continuous
 62
     1
100
AcDbLine
 10
-18.20000000000004
 20
-625.8317398224463
 30
0.0
 11
-24.25999999999999
 21
-625.8917398224463
 31
0.0
  0
LINE
  5
82F
330
1E
100
AcDbEntity
  8
default
  6
Continuous
 62
     1
100
AcDbLine
 10
-30.32000000000005
 20
-625.9817398224463
 30
0.0
 11
-36.37999999999999
 21
-626.0917398224464
 31
0.0
  0
LINE
  5
830
330
1E
100
AcDbEntity
  8
default
  6
Continuous
 62
     1
100
AcDbLine
 10
-36.37999999999999
 20
-626.0917398224464
 30
0.0
 11
-42.44000000000005
 21
-626.2117398224464
 31
0.0
  0
LINE
  5
831
330
1E
100
AcDbEntity
  8
default
  6
Continuous
 62
     1
100
AcDbLine
 10
-24.25999999999999
 20
-625.8917398224463
 30
0.0
 11
-30.32000000000005
 21
-625.9817398224463
 31
0.0
  0
LINE
  5
832
330
1E
100
AcDbEntity
  8
default
  6
Continuous
 62
     1
100
AcDbLine
 10
-6.07000000000005
 20
-625.7517398224463
 30
0.0
 11
-12.12999999999999
 21
-625.7817398224463
 31
0.0
  0
LINE
  5
833
330
1E
100
AcDbEntity
  8
default
  6
Continuous
 62
     1
100
AcDbLine
 10
-12.12999999999999
 20
-625.7817398224463
 30
0.0
 11
-18.20000000000004
 21
-625.8317398224463
 31
0.0
  0
LINE
  5
834
330
1E
100
AcDbEntity
  8
default
  6
Continuous
 62
     1
100
AcDbLine
 10
0.0
 20
-625.7417398224463
 30
0.0
 11
-6.07000000000005
 21
-625.7517398224463
 31
0.0
  0
LINE
  5
835
330
1E
100
AcDbEntity
  8
default
  6
Continuous
 62
     1
100
AcDbLine
 10
347.1799999999999
 20
-865.1717398224464
 30
0.0
 11
353.23
 21
-864.6017398224463
 31
0.0
  0
LINE
  5
836
330
1E
100
AcDbEntity
  8
default
  6
Continuous
 62
     1
100
AcDbLine
 10
352.5299999999999
 20
-662.5417398224462
 30
0.0
 11
357.45
 21
-663.8617398224463
 31
0.0
  0
LINE
  5
837
330
1E
100
AcDbEntity
  8
default
  6
Continuous
 62
     3
100
AcDbLine
 10
24.78999999999996
 20
-625.9017398224463
 30
0.0
 11
24.78999999999996
 21
-904.0611009255933
 31
0.0
  0
LINE
  5
838
330
1E
100
AcDbEntity
  8
default
  6
Continuous
 62
     3
100
AcDbLine
 10
335.61
 20
-658.3417398224463
 30
0.0
 11
335.61
 21
-866.2317398224463
 31
0.0
  0
LINE
  5
839
330
1E
100
AcDbEntity
  8
default
  6
Continuous
 62
     3
100
AcDbLine
 10
313.07
 20
-653.4717398224463
 30
0.0
 11
313.07
 21
-868.1517398224462
 31
0.0
  0
LINE
  5
83A
330
1E
100
AcDbEntity
  8
default
  6
Continuous
 62
     3
100
AcDbLine
 10
290.2099999999999
 20
-649.2717398224463
 30
0.0
 11
290.2099999999999
 21
-869.9417398224463
 31
0.0
  0
LINE
  5
83B
330
1E
100
AcDbEntity
  8
default
  6
Continuous
 62
     3
100
AcDbLine
 10
267.0599999999999
 20
-645.4617398224463
 30
0.0
 11
267.0599999999999
 21
-871.5817398224464
 31
0.0
  0
LINE
  5
83C
330
1E
100
AcDbEntity
  8
default
  6
Continuous
 62
     3
100
AcDbLine
 10
243.6399999999999
 20
-642.0017398224463
 30
0.0
 11
243.6399999999999
 21
-873.0817398224463
 31
0.0
  0
LINE
  5
83D
330
1E
100
AcDbEntity
  8
default
  6
Continuous
 62
     3
100
AcDbLine
 10
219.98
 20
-638.8817398224463
 30
0.0
 11
219.98
 21
-874.4417398224463
 31
0.0
  0
LINE
  5
83E
330
1E
100
AcDbEntity
  8
default
  6
Continuous
 62
     3
100
AcDbLine
 10
196.1
 20
-636.1117398224463
 30
0.0
 11
196.1
 21
-875.6517398224463
 31
0.0
  0
LINE
  5
83F
330
1E
100
AcDbEntity
  8
default
  6
Continuous
 62
     3
100
AcDbLine
 10
172.0199999999999
 20
-633.6717398224463
 30
0.0
 11
172.0199999999999
 21
-876.7217398224463
 31
0.0
  0
LINE
  5
840
330
1E
100
AcDbEntity
  8
default
  6
Continuous
 62
     3
100
AcDbLine
 10
147.7799999999999
 20
-631.5617398224463
 30
0.0
 11
147.7799999999999
 21
-877.6517398224463
 31
0.0
  0
LINE
  5
841
330
1E
100
AcDbEntity
  8
default
  6
Continuous
 62
     3
100
AcDbLine
 10
123.3899999999999
 20
-629.7817398224463
 30
0.0
 11
123.3899999999999
 21
-878.4417398224464
 31
0.0
  0
LINE
  5
842
330
1E
100
AcDbEntity
  8
default
  6
Continuous
 62
     3
100
AcDbLine
 10
98.87
 20
-628.3217398224463
 30
0.0
 11
98.87
 21
-879.0817398224463
 31
0.0
  0
LINE
  5
843
330
1E
100
AcDbEntity
  8
default
  6
Continuous
 62
     3
100
AcDbLine
 10
74.25
 20
-627.1917398224464
 30
0.0
 11
74.25
 21
-885.8012800711076
 31
0.0
  0
LINE
  5
844
330
1E
100
AcDbEntity
  8
default
  6
Continuous
 62
     3
100
AcDbLine
 10
49.54999999999995
 20
-626.3917398224463
 30
0.0
 11
49.54999999999995
 21
-892.9080174535563
 31
0.0
  0
LINE
  5
845
330
1E
100
AcDbEntity
  8
default
  6
Continuous
 62
     1
100
AcDbLine
 10
172.87
 20
-876.6917398224464
 30
0.0
 11
179.63
 21
-876.4017398224464
 31
0.0
  0
LINE
  5
846
330
1E
100
AcDbEntity
  8
default
  6
Continuous
 62
     1
100
AcDbLine
 10
83.64999999999998
 20
-879.4117398224463
 30
0.0
 11
90.58000000000005
 21
-879.2717398224462
 31
0.0
  0
LINE
  5
847
330
1E
100
AcDbEntity
  8
default
  6
Continuous
 62
     1
100
AcDbLine
 10
41.89999999999997
 20
-880.0217398224463
 30
0.0
 11
48.87
 21
-879.9517398224464
 31
0.0
  0
LINE
  5
848
330
1E
100
AcDbEntity
  8
default
  6
Continuous
 62
     1
100
AcDbLine
 10
20.96000000000003
 20
-880.1817398224464
 30
0.0
 11
27.94000000000005
 21
-880.1417398224463
 31
0.0
  0
LINE
  5
849
330
1E
100
AcDbEntity
  8
default
  6
Continuous
 62
     1
100
AcDbLine
 10
6.990000000000009
 20
-880.2217398224463
 30
0.0
 11
13.97000000000002
 21
-880.2117398224464
 31
0.0
  0
LINE
  5
84A
330
1E
100
AcDbEntity
  8
default
  6
Continuous
 62
     1
100
AcDbLine
 10
13.97000000000002
 20
-880.2117398224464
 30
0.0
 11
20.96000000000003
 21
-880.1817398224464
 31
0.0
  0
LINE
  5
84B
330
1E
100
AcDbEntity
  8
default
  6
Continuous
 62
     1
100
AcDbLine
 10
27.94000000000005
 20
-880.1417398224463
 30
0.0
 11
34.91999999999995
 21
-880.0917398224463
 31
0.0
  0
LINE
  5
84C
330
1E
100
AcDbEntity
  8
default
  6
Continuous
 62
     1
100
AcDbLine
 10
34.91999999999995
 20
-880.0917398224463
 30
0.0
 11
41.89999999999997
 21
-880.0217398224463
 31
0.0
  0
LINE
  5
84D
330
1E
100
AcDbEntity
  8
default
  6
Continuous
 62
     1
100
AcDbLine
 10
62.79999999999995
 20
-879.7717398224463
 30
0.0
 11
69.75999999999999
 21
-879.6617398224462
 31
0.0
  0
LINE
  5
84E
330
1E
100
AcDbEntity
  8
default
  6
Continuous
 62
     1
100
AcDbLine
 10
48.87
 20
-879.9517398224464
 30
0.0
 11
55.84000000000003
 21
-879.8717398224463
 31
0.0
  0
LINE
  5
84F
330
1E
100
AcDbEntity
  8
default
  6
Continuous
 62
     1
100
AcDbLine
 10
55.84000000000003
 20
-879.8717398224463
 30
0.0
 11
62.79999999999995
 21
-879.7717398224463
 31
0.0
  0
LINE
  5
850
330
1E
100
AcDbEntity
  8
default
  6
Continuous
 62
     1
100
AcDbLine
 10
76.71000000000003
 20
-879.5417398224463
 30
0.0
 11
83.64999999999998
 21
-879.4117398224463
 31
0.0
  0
LINE
  5
851
330
1E
100
AcDbEntity
  8
default
  6
Continuous
 62
     1
100
AcDbLine
 10
69.75999999999999
 20
-879.6617398224462
 30
0.0
 11
76.71000000000003
 21
-879.5417398224463
 31
0.0
  0
LINE
  5
852
330
1E
100
AcDbEntity
  8
default
  6
Continuous
 62
     1
100
AcDbLine
 10
131.96
 20
-878.1817398224463
 30
0.0
 11
138.8199999999999
 21
-877.9617398224463
 31
0.0
  0
LINE
  5
853
330
1E
100
AcDbEntity
  8
default
  6
Continuous
 62
     1
100
AcDbLine
 10
104.4199999999999
 20
-878.9517398224463
 30
0.0
 11
111.3199999999999
 21
-878.7717398224463
 31
0.0
  0
LINE
  5
854
330
1E
100
AcDbEntity
  8
default
  6
Continuous
 62
     1
100
AcDbLine
 10
97.5
 20
-879.1117398224463
 30
0.0
 11
104.4199999999999
 21
-878.9517398224463
 31
0.0
  0
LINE
  5
855
330
1E
100
AcDbEntity
  8
default
  6
Continuous
 62
     1
100
AcDbLine
 10
90.58000000000005
 20
-879.2717398224462
 30
0.0
 11
97.5
 21
-879.1117398224463
 31
0.0
  0
LINE
  5
856
330
1E
100
AcDbEntity
  8
default
  6
Continuous
 62
     1
100
AcDbLine
 10
118.21
 20
-878.5917398224464
 30
0.0
 11
125.09
 21
-878.3917398224463
 31
0.0
  0
LINE
  5
857
330
1E
100
AcDbEntity
  8
default
  6
Continuous
 62
     1
100
AcDbLine
 10
111.3199999999999
 20
-878.7717398224463
 30
0.0
 11
118.21
 21
-878.5917398224464
 31
0.0
  0
LINE
  5
858
330
1E
100
AcDbEntity
  8
default
  6
Continuous
 62
     1
100
AcDbLine
 10
125.09
 20
-878.3917398224463
 30
0.0
 11
131.96
 21
-878.1817398224463
 31
0.0
  0
LINE
  5
859
330
1E
100
AcDbEntity
  8
default
  6
Continuous
 62
     1
100
AcDbLine
 10
152.48
 20
-877.4817398224463
 30
0.0
 11
159.2899999999999
 21
-877.2317398224464
 31
0.0
  0
LINE
  5
85A
330
1E
100
AcDbEntity
  8
default
  6
Continuous
 62
     1
100
AcDbLine
 10
138.8199999999999
 20
-877.9617398224463
 30
0.0
 11
145.6599999999999
 21
-877.7317398224463
 31
0.0
  0
LINE
  5
85B
330
1E
100
AcDbEntity
  8
default
  6
Continuous
 62
     1
100
AcDbLine
 10
145.6599999999999
 20
-877.7317398224463
 30
0.0
 11
152.48
 21
-877.4817398224463
 31
0.0
  0
LINE
  5
85C
330
1E
100
AcDbEntity
  8
default
  6
Continuous
 62
     1
100
AcDbLine
 10
159.2899999999999
 20
-877.2317398224464
 30
0.0
 11
166.09
 21
-876.9617398224463
 31
0.0
  0
LINE
  5
85D
330
1E
100
AcDbEntity
  8
default
  6
Continuous
 62
     1
100
AcDbLine
 10
166.09
 20
-876.9617398224463
 30
0.0
 11
172.87
 21
-876.6917398224464
 31
0.0
  0
LINE
  5
85E
330
1E
100
AcDbEntity
  8
default
  6
Continuous
 62
     1
100
AcDbLine
 10
259.17
 20
-872.1017398224462
 30
0.0
 11
265.6499999999999
 21
-871.6817398224463
 31
0.0
  0
LINE
  5
85F
330
1E
100
AcDbEntity
  8
default
  6
Continuous
 62
     1
100
AcDbLine
 10
219.7999999999999
 20
-874.4517398224463
 30
0.0
 11
226.4199999999999
 21
-874.0817398224463
 31
0.0
  0
LINE
  5
860
330
1E
100
AcDbEntity
  8
default
  6
Continuous
 62
     1
100
AcDbLine
 10
193.1
 20
-875.7917398224462
 30
0.0
 11
199.7999999999999
 21
-875.4717398224464
 31
0.0
  0
LINE
  5
861
330
1E
100
AcDbEntity
  8
default
  6
Continuous
 62
     1
100
AcDbLine
 10
186.37
 20
-876.1017398224463
 30
0.0
 11
193.1
 21
-875.7917398224462
 31
0.0
  0
LINE
  5
862
330
1E
100
AcDbEntity
  8
default
  6
Continuous
 62
     1
100
AcDbLine
 10
179.63
 20
-876.4017398224464
 30
0.0
 11
186.37
 21
-876.1017398224463
 31
0.0
  0
LINE
  5
863
330
1E
100
AcDbEntity
  8
default
  6
Continuous
 62
     1
100
AcDbLine
 10
206.49
 20
-875.1417398224463
 30
0.0
 11
213.1499999999999
 21
-874.8017398224462
 31
0.0
  0
LINE
  5
864
330
1E
100
AcDbEntity
  8
default
  6
Continuous
 62
     1
100
AcDbLine
 10
199.7999999999999
 20
-875.4717398224464
 30
0.0
 11
206.49
 21
-875.1417398224463
 31
0.0
  0
LINE
  5
865
330
1E
100
AcDbEntity
  8
default
  6
Continuous
 62
     1
100
AcDbLine
 10
213.1499999999999
 20
-874.8017398224462
 30
0.0
 11
219.7999999999999
 21
-874.4517398224463
 31
0.0
  0
LINE
  5
866
330
1E
100
AcDbEntity
  8
default
  6
Continuous
 62
     1
100
AcDbLine
 10
239.59
 20
-873.3217398224464
 30
0.0
 11
246.1399999999999
 21
-872.9317398224464
 31
0.0
  0
LINE
  5
867
330
1E
100
AcDbEntity
  8
default
  6
Continuous
 62
     1
100
AcDbLine
 10
226.4199999999999
 20
-874.0817398224463
 30
0.0
 11
233.02
 21
-873.7117398224464
 31
0.0
  0
LINE
  5
868
330
1E
100
AcDbEntity
  8
default
  6
Continuous
 62
     1
100
AcDbLine
 10
233.02
 20
-873.7117398224464
 30
0.0
 11
239.59
 21
-873.3217398224464
 31
0.0
  0
LINE
  5
869
330
1E
100
AcDbEntity
  8
default
  6
Continuous
 62
     1
100
AcDbLine
 10
252.6699999999999
 20
-872.5217398224463
 30
0.0
 11
259.17
 21
-872.1017398224462
 31
0.0
  0
LINE
  5
86A
330
1E
100
AcDbEntity
  8
default
  6
Continuous
 62
     1
100
AcDbLine
 10
246.1399999999999
 20
-872.9317398224464
 30
0.0
 11
252.6699999999999
 21
-872.5217398224463
 31
0.0
  0
LINE
  5
86B
330
1E
100
AcDbEntity
  8
default
  6
Continuous
 62
     1
100
AcDbLine
 10
303.92
 20
-868.8917398224463
 30
0.0
 11
310.1999999999999
 21
-868.3917398224464
 31
0.0
  0
LINE
  5
86C
330
1E
100
AcDbEntity
  8
default
  6
Continuous
 62
     1
100
AcDbLine
 10
284.91
 20
-870.3317398224463
 30
0.0
 11
291.2799999999999
 21
-869.8617398224463
 31
0.0
  0
LINE
  5
86D
330
1E
100
AcDbEntity
  8
default
  6
Continuous
 62
     1
100
AcDbLine
 10
272.1
 20
-871.2417398224463
 30
0.0
 11
278.5199999999999
 21
-870.7917398224463
 31
0.0
  0
LINE
  5
86E
330
1E
100
AcDbEntity
  8
default
  6
Continuous
 62
     1
100
AcDbLine
 10
265.6499999999999
 20
-871.6817398224463
 30
0.0
 11
272.1
 21
-871.2417398224463
 31
0.0
  0
LINE
  5
86F
330
1E
100
AcDbEntity
  8
default
  6
Continuous
 62
     1
100
AcDbLine
 10
278.5199999999999
 20
-870.7917398224463
 30
0.0
 11
284.91
 21
-870.3317398224463
 31
0.0
  0
LINE
  5
870
330
1E
100
AcDbEntity
  8
default
  6
Continuous
 62
     1
100
AcDbLine
 10
297.62
 20
-869.3817398224464
 30
0.0
 11
303.92
 21
-868.8917398224463
 31
0.0
  0
LINE
  5
871
330
1E
100
AcDbEntity
  8
default
  6
Continuous
 62
     1
100
AcDbLine
 10
291.2799999999999
 20
-869.8617398224463
 30
0.0
 11
297.62
 21
-869.3817398224464
 31
0.0
  0
LINE
  5
872
330
1E
100
AcDbEntity
  8
default
  6
Continuous
 62
     1
100
AcDbLine
 10
328.8399999999999
 20
-866.8317398224463
 30
0.0
 11
334.99
 21
-866.2817398224463
 31
0.0
  0
LINE
  5
873
330
1E
100
AcDbEntity
  8
default
  6
Continuous
 62
     1
100
AcDbLine
 10
316.4499999999999
 20
-867.8817398224463
 30
0.0
 11
322.66
 21
-867.3617398224463
 31
0.0
  0
LINE
  5
874
330
1E
100
AcDbEntity
  8
default
  6
Continuous
 62
     1
100
AcDbLine
 10
310.1999999999999
 20
-868.3917398224464
 30
0.0
 11
316.4499999999999
 21
-867.8817398224463
 31
0.0
  0
LINE
  5
875
330
1E
100
AcDbEntity
  8
default
  6
Continuous
 62
     1
100
AcDbLine
 10
322.66
 20
-867.3617398224463
 30
0.0
 11
328.8399999999999
 21
-866.8317398224463
 31
0.0
  0
LINE
  5
876
330
1E
100
AcDbEntity
  8
default
  6
Continuous
 62
     1
100
AcDbLine
 10
341.1
 20
-865.7317398224464
 30
0.0
 11
347.1799999999999
 21
-865.1717398224464
 31
0.0
  0
LINE
  5
877
330
1E
100
AcDbEntity
  8
default
  6
Continuous
 62
     1
100
AcDbLine
 10
334.99
 20
-866.2817398224463
 30
0.0
 11
341.1
 21
-865.7317398224464
 31
0.0
  0
LINE
  5
878
330
1E
100
AcDbEntity
  8
default
  6
Continuous
 62
     1
100
AcDbLine
 10
173.5
 20
-633.8017398224462
 30
0.0
 11
179.2999999999999
 21
-634.3717398224463
 31
0.0
  0
LINE
  5
879
330
1E
100
AcDbEntity
  8
default
  6
Continuous
 62
     1
100
AcDbLine
 10
84.65999999999997
 20
-627.6317398224463
 30
0.0
 11
90.66999999999996
 21
-627.9117398224463
 31
0.0
  0
LINE
  5
87A
330
1E
100
AcDbEntity
  8
default
  6
Continuous
 62
     1
100
AcDbLine
 10
42.44000000000005
 20
-626.2117398224464
 30
0.0
 11
48.49000000000001
 21
-626.3617398224463
 31
0.0
  0
LINE
  5
87B
330
1E
100
AcDbEntity
  8
default
  6
Continuous
 62
     1
100
AcDbLine
 10
18.20000000000004
 20
-625.8317398224463
 30
0.0
 11
24.25999999999999
 21
-625.8917398224463
 31
0.0
  0
LINE
  5
87C
330
1E
100
AcDbEntity
  8
default
  6
Continuous
 62
     1
100
AcDbLine
 10
6.07000000000005
 20
-625.7517398224463
 30
0.0
 11
12.12999999999999
 21
-625.7817398224463
 31
0.0
  0
LINE
  5
87D
330
1E
100
AcDbEntity
  8
default
  6
Continuous
 62
     1
100
AcDbLine
 10
12.12999999999999
 20
-625.7817398224463
 30
0.0
 11
18.20000000000004
 21
-625.8317398224463
 31
0.0
  0
LINE
  5
87E
330
1E
100
AcDbEntity
  8
default
  6
Continuous
 62
     1
100
AcDbLine
 10
30.32000000000005
 20
-625.9817398224463
 30
0.0
 11
36.37999999999999
 21
-626.0917398224464
 31
0.0
  0
LINE
  5
87F
330
1E
100
AcDbEntity
  8
default
  6
Continuous
 62
     1
100
AcDbLine
 10
24.25999999999999
 20
-625.8917398224463
 30
0.0
 11
30.32000000000005
 21
-625.9817398224463
 31
0.0
  0
LINE
  5
880
330
1E
100
AcDbEntity
  8
default
  6
Continuous
 62
     1
100
AcDbLine
 10
36.37999999999999
 20
-626.0917398224464
 30
0.0
 11
42.44000000000005
 21
-626.2117398224464
 31
0.0
  0
LINE
  5
881
330
1E
100
AcDbEntity
  8
default
  6
Continuous
 62
     1
100
AcDbLine
 10
60.57000000000005
 20
-626.7017398224464
 30
0.0
 11
66.61000000000001
 21
-626.9117398224462
 31
0.0
  0
LINE
  5
882
330
1E
100
AcDbEntity
  8
default
  6
Continuous
 62
     1
100
AcDbLine
 10
54.52999999999997
 20
-626.5217398224462
 30
0.0
 11
60.57000000000005
 21
-626.7017398224464
 31
0.0
  0
LINE
  5
883
330
1E
100
AcDbEntity
  8
default
  6
Continuous
 62
     1
100
AcDbLine
 10
48.49000000000001
 20
-626.3617398224463
 30
0.0
 11
54.52999999999997
 21
-626.5217398224462
 31
0.0
  0
LINE
  5
884
330
1E
100
AcDbEntity
  8
default
  6
Continuous
 62
     1
100
AcDbLine
 10
72.62999999999999
 20
-627.1317398224462
 30
0.0
 11
78.64999999999998
 21
-627.3717398224463
 31
0.0
  0
LINE
  5
885
330
1E
100
AcDbEntity
  8
default
  6
Continuous
 62
     1
100
AcDbLine
 10
66.61000000000001
 20
-626.9117398224462
 30
0.0
 11
72.62999999999999
 21
-627.1317398224462
 31
0.0
  0
LINE
  5
886
330
1E
100
AcDbEntity
  8
default
  6
Continuous
 62
     1
100
AcDbLine
 10
78.64999999999998
 20
-627.3717398224463
 30
0.0
 11
84.65999999999997
 21
-627.6317398224463
 31
0.0
  0
LINE
  5
887
330
1E
100
AcDbEntity
  8
default
  6
Continuous
 62
     1
100
AcDbLine
 10
132.4099999999999
 20
-630.4017398224463
 30
0.0
 11
138.3199999999999
 21
-630.8317398224463
 31
0.0
  0
LINE
  5
888
330
1E
100
AcDbEntity
  8
default
  6
Continuous
 62
     1
100
AcDbLine
 10
108.62
 20
-628.8617398224463
 30
0.0
 11
114.59
 21
-629.2217398224464
 31
0.0
  0
LINE
  5
889
330
1E
100
AcDbEntity
  8
default
  6
Continuous
 62
     1
100
AcDbLine
 10
96.65999999999996
 20
-628.2117398224463
 30
0.0
 11
102.6499999999999
 21
-628.5217398224463
 31
0.0
  0
LINE
  5
88A
330
1E
100
AcDbEntity
  8
default
  6
Continuous
 62
     1
100
AcDbLine
 10
90.66999999999996
 20
-627.9117398224463
 30
0.0
 11
96.65999999999996
 21
-628.2117398224463
 31
0.0
  0
LINE
  5
88B
330
1E
100
AcDbEntity
  8
default
  6
Continuous
 62
     1
100
AcDbLine
 10
102.6499999999999
 20
-628.5217398224463
 30
0.0
 11
108.62
 21
-628.8617398224463
 31
0.0
  0
LINE
  5
88C
330
1E
100
AcDbEntity
  8
default
  6
Continuous
 62
     1
100
AcDbLine
 10
120.5399999999999
 20
-629.5917398224463
 30
0.0
 11
126.48
 21
-629.9817398224463
 31
0.0
  0
LINE
  5
88D
330
1E
100
AcDbEntity
  8
default
  6
Continuous
 62
     1
100
AcDbLine
 10
114.59
 20
-629.2217398224464
 30
0.0
 11
120.5399999999999
 21
-629.5917398224463
 31
0.0
  0
LINE
  5
88E
330
1E
100
AcDbEntity
  8
default
  6
Continuous
 62
     1
100
AcDbLine
 10
126.48
 20
-629.9817398224463
 30
0.0
 11
132.4099999999999
 21
-630.4017398224463
 31
0.0
  0
LINE
  5
88F
330
1E
100
AcDbEntity
  8
default
  6
Continuous
 62
     1
100
AcDbLine
 10
150.11
 20
-631.7417398224463
 30
0.0
 11
155.98
 21
-632.2317398224463
 31
0.0
  0
LINE
  5
890
330
1E
100
AcDbEntity
  8
default
  6
Continuous
 62
     1
100
AcDbLine
 10
138.3199999999999
 20
-630.8317398224463
 30
0.0
 11
144.22
 21
-631.2817398224463
 31
0.0
  0
LINE
  5
891
330
1E
100
AcDbEntity
  8
default
  6
Continuous
 62
     1
100
AcDbLine
 10
144.22
 20
-631.2817398224463
 30
0.0
 11
150.11
 21
-631.7417398224463
 31
0.0
  0
LINE
  5
892
330
1E
100
AcDbEntity
  8
default
  6
Continuous
 62
     1
100
AcDbLine
 10
161.83
 20
-632.7417398224463
 30
0.0
 11
167.6699999999999
 21
-633.2617398224463
 31
0.0
  0
LINE
  5
893
330
1E
100
AcDbEntity
  8
default
  6
Continuous
 62
     1
100
AcDbLine
 10
155.98
 20
-632.2317398224463
 30
0.0
 11
161.83
 21
-632.7417398224463
 31
0.0
  0
LINE
  5
894
330
1E
100
AcDbEntity
  8
default
  6
Continuous
 62
     1
100
AcDbLine
 10
167.6699999999999
 20
-633.2617398224463
 30
0.0
 11
173.5
 21
-633.8017398224462
 31
0.0
  0
LINE
  5
895
330
1E
100
AcDbEntity
  8
default
  6
Continuous
 62
     1
100
AcDbLine
 10
263.91
 20
-644.9717398224463
 30
0.0
 11
269.3599999999999
 21
-645.8217398224463
 31
0.0
  0
LINE
  5
896
330
1E
100
AcDbEntity
  8
default
  6
Continuous
 62
     1
100
AcDbLine
 10
219.3999999999999
 20
-638.8117398224464
 30
0.0
 11
225.05
 21
-639.5217398224462
 31
0.0
  0
LINE
  5
897
330
1E
100
AcDbEntity
  8
default
  6
Continuous
 62
     1
100
AcDbLine
 10
196.61
 20
-636.1617398224463
 30
0.0
 11
202.34
 21
-636.8017398224463
 31
0.0
  0
LINE
  5
898
330
1E
100
AcDbEntity
  8
default
  6
Continuous
 62
     1
100
AcDbLine
 10
185.09
 20
-634.9517398224463
 30
0.0
 11
190.86
 21
-635.5417398224463
 31
0.0
  0
LINE
  5
899
330
1E
100
AcDbEntity
  8
default
  6
Continuous
 62
     1
100
AcDbLine
 10
179.2999999999999
 20
-634.3717398224463
 30
0.0
 11
185.09
 21
-634.9517398224463
 31
0.0
  0
LINE
  5
89A
330
1E
100
AcDbEntity
  8
default
  6
Continuous
 62
     1
100
AcDbLine
 10
190.86
 20
-635.5417398224463
 30
0.0
 11
196.61
 21
-636.1617398224463
 31
0.0
  0
LINE
  5
89B
330
1E
100
AcDbEntity
  8
default
  6
Continuous
 62
     1
100
AcDbLine
 10
208.05
 20
-637.4517398224464
 30
0.0
 11
213.7399999999999
 21
-638.1217398224463
 31
0.0
  0
LINE
  5
89C
330
1E
100
AcDbEntity
  8
default
  6
Continuous
 62
     1
100
AcDbLine
 10
202.34
 20
-636.8017398224463
 30
0.0
 11
208.05
 21
-637.4517398224464
 31
0.0
  0
LINE
  5
89D
330
1E
100
AcDbEntity
  8
default
  6
Continuous
 62
     1
100
AcDbLine
 10
213.7399999999999
 20
-638.1217398224463
 30
0.0
 11
219.3999999999999
 21
-638.8117398224464
 31
0.0
  0
LINE
  5
89E
330
1E
100
AcDbEntity
  8
default
  6
Continuous
 62
     1
100
AcDbLine
 10
241.85
 20
-641.7517398224463
 30
0.0
 11
247.3999999999999
 21
-642.5317398224462
 31
0.0
  0
LINE
  5
89F
330
1E
100
AcDbEntity
  8
default
  6
Continuous
 62
     1
100
AcDbLine
 10
225.05
 20
-639.5217398224462
 30
0.0
 11
230.6699999999999
 21
-640.2417398224463
 31
0.0
  0
LINE
  5
8A0
330
1E
100
AcDbEntity
  8
default
  6
Continuous
 62
     1
100
AcDbLine
 10
230.6699999999999
 20
-640.2417398224463
 30
0.0
 11
236.2699999999999
 21
-640.9917398224463
 31
0.0
  0
LINE
  5
8A1
330
1E
100
AcDbEntity
  8
default
  6
Continuous
 62
     1
100
AcDbLine
 10
236.2699999999999
 20
-640.9917398224463
 30
0.0
 11
241.85
 21
-641.7517398224463
 31
0.0
  0
LINE
  5
8A2
330
1E
100
AcDbEntity
  8
default
  6
Continuous
 62
     1
100
AcDbLine
 10
252.93
 20
-643.3217398224464
 30
0.0
 11
258.43
 21
-644.1417398224463
 31
0.0
  0
LINE
  5
8A3
330
1E
100
AcDbEntity
  8
default
  6
Continuous
 62
     1
100
AcDbLine
 10
247.3999999999999
 20
-642.5317398224462
 30
0.0
 11
252.93
 21
-643.3217398224464
 31
0.0
  0
LINE
  5
8A4
330
1E
100
AcDbEntity
  8
default
  6
Continuous
 62
     1
100
AcDbLine
 10
258.43
 20
-644.1417398224463
 30
0.0
 11
263.91
 21
-644.9717398224463
 31
0.0
  0
LINE
  5
8A5
330
1E
100
AcDbEntity
  8
default
  6
Continuous
 62
     1
100
AcDbLine
 10
306.72
 20
-652.2417398224463
 30
0.0
 11
311.94
 21
-653.2417398224463
 31
0.0
  0
LINE
  5
8A6
330
1E
100
AcDbEntity
  8
default
  6
Continuous
 62
     1
100
AcDbLine
 10
285.54
 20
-648.4717398224463
 30
0.0
 11
290.8799999999999
 21
-649.3817398224463
 31
0.0
  0
LINE
  5
8A7
330
1E
100
AcDbEntity
  8
default
  6
Continuous
 62
     1
100
AcDbLine
 10
274.7799999999999
 20
-646.6817398224463
 30
0.0
 11
280.18
 21
-647.5717398224463
 31
0.0
  0
LINE
  5
8A8
330
1E
100
AcDbEntity
  8
default
  6
Continuous
 62
     1
100
AcDbLine
 10
269.3599999999999
 20
-645.8217398224463
 30
0.0
 11
274.7799999999999
 21
-646.6817398224463
 31
0.0
  0
LINE
  5
8A9
330
1E
100
AcDbEntity
  8
default
  6
Continuous
 62
     1
100
AcDbLine
 10
280.18
 20
-647.5717398224463
 30
0.0
 11
285.54
 21
-648.4717398224463
 31
0.0
  0
LINE
  5
8AA
330
1E
100
AcDbEntity
  8
default
  6
Continuous
 62
     1
100
AcDbLine
 10
296.1899999999999
 20
-650.3217398224464
 30
0.0
 11
301.47
 21
-651.2717398224463
 31
0.0
  0
LINE
  5
8AB
330
1E
100
AcDbEntity
  8
default
  6
Continuous
 62
     1
100
AcDbLine
 10
290.8799999999999
 20
-649.3817398224463
 30
0.0
 11
296.1899999999999
 21
-650.3217398224464
 31
0.0
  0
LINE
  5
8AC
330
1E
100
AcDbEntity
  8
default
  6
Continuous
 62
     1
100
AcDbLine
 10
301.47
 20
-651.2717398224463
 30
0.0
 11
306.72
 21
-652.2417398224463
 31
0.0
  0
LINE
  5
8AD
330
1E
100
AcDbEntity
  8
default
  6
Continuous
 62
     1
100
AcDbLine
 10
337.5599999999999
 20
-658.8017398224462
 30
0.0
 11
342.5899999999999
 21
-660.0117398224463
 31
0.0
  0
LINE
  5
8AE
330
1E
100
AcDbEntity
  8
default
  6
Continuous
 62
     1
100
AcDbLine
 10
347.58
 20
-661.2617398224463
 30
0.0
 11
352.5299999999999
 21
-662.5417398224462
 31
0.0
  0
LINE
  5
8AF
330
1E
100
AcDbEntity
  8
default
  6
Continuous
 62
     1
100
AcDbLine
 10
342.5899999999999
 20
-660.0117398224463
 30
0.0
 11
347.58
 21
-661.2617398224463
 31
0.0
  0
LINE
  5
8B0
330
1E
100
AcDbEntity
  8
default
  6
Continuous
 62
     1
100
AcDbLine
 10
327.41
 20
-656.4717398224463
 30
0.0
 11
332.5
 21
-657.6217398224463
 31
0.0
  0
LINE
  5
8B1
330
1E
100
AcDbEntity
  8
default
  6
Continuous
 62
     1
100
AcDbLine
 10
317.13
 20
-654.2817398224463
 30
0.0
 11
322.29
 21
-655.3617398224463
 31
0.0
  0
LINE
  5
8B2
330
1E
100
AcDbEntity
  8
default
  6
Continuous
 62
     1
100
AcDbLine
 10
311.94
 20
-653.2417398224463
 30
0.0
 11
317.13
 21
-654.2817398224463
 31
0.0
  0
LINE
  5
8B3
330
1E
100
AcDbEntity
  8
default
  6
Continuous
 62
     1
100
AcDbLine
 10
322.29
 20
-655.3617398224463
 30
0.0
 11
327.41
 21
-656.4717398224463
 31
0.0
  0
LINE
  5
8B4
330
1E
100
AcDbEntity
  8
default
  6
Continuous
 62
     1
100
AcDbLine
 10
332.5
 20
-657.6217398224463
 30
0.0
 11
337.5599999999999
 21
-658.8017398224462
 31
0.0
  0
LINE
  5
8B5
330
1E
100
AcDbEntity
  8
default
  6
Continuous
 62
     3
100
AcDbLine
 10
441.83
 20
-693.4717398224464
 30
0.0
 11
441.83
 21
-854.5617398224463
 31
0.0
  0
LINE
  5
8B6
330
1E
100
AcDbEntity
  8
default
  6
Continuous
 62
     3
100
AcDbLine
 10
421.5799999999999
 20
-685.0417398224463
 30
0.0
 11
421.5799999999999
 21
-857.1617398224463
 31
0.0
  0
LINE
  5
8B7
330
1E
100
AcDbEntity
  8
default
  6
Continuous
 62
     3
100
AcDbLine
 10
400.79
 20
-677.3017398224462
 30
0.0
 11
400.79
 21
-859.6317398224464
 31
0.0
  0
LINE
  5
8B8
330
1E
100
AcDbEntity
  8
default
  6
Continuous
 62
     3
100
AcDbLine
 10
379.51
 20
-670.2717398224462
 30
0.0
 11
379.51
 21
-861.9617398224463
 31
0.0
  0
LINE
  5
8B9
330
1E
100
AcDbEntity
  8
default
  6
Continuous
 62
     3
100
AcDbLine
 10
357.7599999999999
 20
-663.9417398224463
 30
0.0
 11
357.7599999999999
 21
-864.1617398224463
 31
0.0
  0
LINE
  5
8BA
330
1E
100
AcDbEntity
  8
default
  6
Continuous
 62
     1
100
AcDbLine
 10
447.72
 20
-696.1017398224463
 30
0.0
 11
451.7999999999999
 21
-697.9717398224464
 31
0.0
  0
LINE
  5
8BB
330
1E
100
AcDbEntity
  8
default
  6
Continuous
 62
     1
100
AcDbLine
 10
529.53
 20
-840.3017398224463
 30
0.0
 11
534.0599999999999
 21
-839.3717398224463
 31
0.0
  0
LINE
  5
8BC
330
1E
100
AcDbEntity
  8
default
  6
Continuous
 62
     1
100
AcDbLine
 10
529.2799999999999
 20
-743.0817398224463
 30
0.0
 11
532.22
 21
-745.2617398224463
 31
0.0
  0
LINE
  5
8BD
330
1E
100
AcDbEntity
  8
default
  6
Continuous
 62
     3
100
AcDbLine
 10
461.5
 20
-702.5917398224463
 30
0.0
 11
461.5
 21
-851.8517398224464
 31
0.0
  0
LINE
  5
8BE
330
1E
100
AcDbEntity
  8
default
  6
Continuous
 62
     1
100
AcDbLine
 10
471.14
 20
-850.4417398224463
 30
0.0
 11
476.2799999999999
 21
-849.6717398224463
 31
0.0
  0
LINE
  5
8BF
330
1E
100
AcDbEntity
  8
default
  6
Continuous
 62
     1
100
AcDbLine
 10
439.36
 20
-854.8917398224462
 30
0.0
 11
444.77
 21
-854.1717398224463
 31
0.0
  0
LINE
  5
8C0
330
1E
100
AcDbEntity
  8
default
  6
Continuous
 62
     1
100
AcDbLine
 10
394.5299999999999
 20
-860.3317398224463
 30
0.0
 11
400.2799999999999
 21
-859.6917398224464
 31
0.0
  0
LINE
  5
8C1
330
1E
100
AcDbEntity
  8
default
  6
Continuous
 62
     1
100
AcDbLine
 10
371.16
 20
-862.8317398224464
 30
0.0
 11
377.0599999999999
 21
-862.2217398224464
 31
0.0
  0
LINE
  5
8C2
330
1E
100
AcDbEntity
  8
default
  6
Continuous
 62
     1
100
AcDbLine
 10
359.24
 20
-864.0217398224462
 30
0.0
 11
365.22
 21
-863.4317398224464
 31
0.0
  0
LINE
  5
8C3
330
1E
100
AcDbEntity
  8
default
  6
Continuous
 62
     1
100
AcDbLine
 10
353.23
 20
-864.6017398224463
 30
0.0
 11
359.24
 21
-864.0217398224462
 31
0.0
  0
LINE
  5
8C4
330
1E
100
AcDbEntity
  8
default
  6
Continuous
 62
     1
100
AcDbLine
 10
365.22
 20
-863.4317398224464
 30
0.0
 11
371.16
 21
-862.8317398224464
 31
0.0
  0
LINE
  5
8C5
330
1E
100
AcDbEntity
  8
default
  6
Continuous
 62
     1
100
AcDbLine
 10
382.92
 20
-861.6017398224464
 30
0.0
 11
388.75
 21
-860.9717398224463
 31
0.0
  0
LINE
  5
8C6
330
1E
100
AcDbEntity
  8
default
  6
Continuous
 62
     1
100
AcDbLine
 10
377.0599999999999
 20
-862.2217398224464
 30
0.0
 11
382.92
 21
-861.6017398224464
 31
0.0
  0
LINE
  5
8C7
330
1E
100
AcDbEntity
  8
default
  6
Continuous
 62
     1
100
AcDbLine
 10
388.75
 20
-860.9717398224463
 30
0.0
 11
394.5299999999999
 21
-860.3317398224463
 31
0.0
  0
LINE
  5
8C8
330
1E
100
AcDbEntity
  8
default
  6
Continuous
 62
     1
100
AcDbLine
 10
417.2799999999999
 20
-857.6917398224464
 30
0.0
 11
422.86
 21
-857.0017398224463
 31
0.0
  0
LINE
  5
8C9
330
1E
100
AcDbEntity
  8
default
  6
Continuous
 62
     1
100
AcDbLine
 10
405.9899999999999
 20
-859.0317398224463
 30
0.0
 11
411.65
 21
-858.3617398224463
 31
0.0
  0
LINE
  5
8CA
330
1E
100
AcDbEntity
  8
default
  6
Continuous
 62
     1
100
AcDbLine
 10
400.2799999999999
 20
-859.6917398224464
 30
0.0
 11
405.9899999999999
 21
-859.0317398224463
 31
0.0
  0
LINE
  5
8CB
330
1E
100
AcDbEntity
  8
default
  6
Continuous
 62
     1
100
AcDbLine
 10
411.65
 20
-858.3617398224463
 30
0.0
 11
417.2799999999999
 21
-857.6917398224464
 31
0.0
  0
LINE
  5
8CC
330
1E
100
AcDbEntity
  8
default
  6
Continuous
 62
     1
100
AcDbLine
 10
428.3999999999999
 20
-856.3117398224463
 30
0.0
 11
433.8999999999999
 21
-855.6017398224463
 31
0.0
  0
LINE
  5
8CD
330
1E
100
AcDbEntity
  8
default
  6
Continuous
 62
     1
100
AcDbLine
 10
422.86
 20
-857.0017398224463
 30
0.0
 11
428.3999999999999
 21
-856.3117398224463
 31
0.0
  0
LINE
  5
8CE
330
1E
100
AcDbEntity
  8
default
  6
Continuous
 62
     1
100
AcDbLine
 10
433.8999999999999
 20
-855.6017398224463
 30
0.0
 11
439.36
 21
-854.8917398224462
 31
0.0
  0
LINE
  5
8CF
330
1E
100
AcDbEntity
  8
default
  6
Continuous
 62
     1
100
AcDbLine
 10
460.73
 20
-851.9617398224463
 30
0.0
 11
465.96
 21
-851.2017398224463
 31
0.0
  0
LINE
  5
8D0
330
1E
100
AcDbEntity
  8
default
  6
Continuous
 62
     1
100
AcDbLine
 10
450.1299999999999
 20
-853.4417398224464
 30
0.0
 11
455.4599999999999
 21
-852.7017398224463
 31
0.0
  0
LINE
  5
8D1
330
1E
100
AcDbEntity
  8
default
  6
Continuous
 62
     1
100
AcDbLine
 10
444.77
 20
-854.1717398224463
 30
0.0
 11
450.1299999999999
 21
-853.4417398224464
 31
0.0
  0
LINE
  5
8D2
330
1E
100
AcDbEntity
  8
default
  6
Continuous
 62
     1
100
AcDbLine
 10
455.4599999999999
 20
-852.7017398224463
 30
0.0
 11
460.73
 21
-851.9617398224463
 31
0.0
  0
LINE
  5
8D3
330
1E
100
AcDbEntity
  8
default
  6
Continuous
 62
     1
100
AcDbLine
 10
465.96
 20
-851.2017398224463
 30
0.0
 11
471.14
 21
-850.4417398224463
 31
0.0
  0
LINE
  5
8D4
330
1E
100
AcDbEntity
  8
default
  6
Continuous
 62
     3
100
AcDbLine
 10
516.65
 20
-734.2117398224464
 30
0.0
 11
516.65
 21
-842.8217398224463
 31
0.0
  0
LINE
  5
8D5
330
1E
100
AcDbEntity
  8
default
  6
Continuous
 62
     3
100
AcDbLine
 10
498.96
 20
-722.9417398224463
 30
0.0
 11
498.96
 21
-846.0117398224463
 31
0.0
  0
LINE
  5
8D6
330
1E
100
AcDbEntity
  8
default
  6
Continuous
 62
     3
100
AcDbLine
 10
480.56
 20
-712.4117398224463
 30
0.0
 11
480.56
 21
-849.0117398224462
 31
0.0
  0
LINE
  5
8D7
330
1E
100
AcDbEntity
  8
default
  6
Continuous
 62
     1
100
AcDbLine
 10
481.3699999999999
 20
-848.8917398224463
 30
0.0
 11
486.41
 21
-848.0917398224462
 31
0.0
  0
LINE
  5
8D8
330
1E
100
AcDbEntity
  8
default
  6
Continuous
 62
     1
100
AcDbLine
 10
476.2799999999999
 20
-849.6717398224463
 30
0.0
 11
481.3699999999999
 21
-848.8917398224463
 31
0.0
  0
LINE
  5
8D9
330
1E
100
AcDbEntity
  8
default
  6
Continuous
 62
     1
100
AcDbLine
 10
506.0799999999999
 20
-844.7717398224463
 30
0.0
 11
510.8699999999999
 21
-843.9017398224462
 31
0.0
  0
LINE
  5
8DA
330
1E
100
AcDbEntity
  8
default
  6
Continuous
 62
     1
100
AcDbLine
 10
496.34
 20
-846.4617398224463
 30
0.0
 11
501.24
 21
-845.6217398224463
 31
0.0
  0
LINE
  5
8DB
330
1E
100
AcDbEntity
  8
default
  6
Continuous
 62
     1
100
AcDbLine
 10
491.3999999999999
 20
-847.2817398224462
 30
0.0
 11
496.34
 21
-846.4617398224463
 31
0.0
  0
LINE
  5
8DC
330
1E
100
AcDbEntity
  8
default
  6
Continuous
 62
     1
100
AcDbLine
 10
486.41
 20
-848.0917398224462
 30
0.0
 11
491.3999999999999
 21
-847.2817398224462
 31
0.0
  0
LINE
  5
8DD
330
1E
100
AcDbEntity
  8
default
  6
Continuous
 62
     1
100
AcDbLine
 10
501.24
 20
-845.6217398224463
 30
0.0
 11
506.0799999999999
 21
-844.7717398224463
 31
0.0
  0
LINE
  5
8DE
330
1E
100
AcDbEntity
  8
default
  6
Continuous
 62
     1
100
AcDbLine
 10
515.61
 20
-843.0217398224463
 30
0.0
 11
520.2999999999999
 21
-842.1317398224463
 31
0.0
  0
LINE
  5
8DF
330
1E
100
AcDbEntity
  8
default
  6
Continuous
 62
     1
100
AcDbLine
 10
510.8699999999999
 20
-843.9017398224462
 30
0.0
 11
515.61
 21
-843.0217398224463
 31
0.0
  0
LINE
  5
8E0
330
1E
100
AcDbEntity
  8
default
  6
Continuous
 62
     1
100
AcDbLine
 10
524.94
 20
-841.2217398224463
 30
0.0
 11
529.53
 21
-840.3017398224463
 31
0.0
  0
LINE
  5
8E1
330
1E
100
AcDbEntity
  8
default
  6
Continuous
 62
     1
100
AcDbLine
 10
520.2999999999999
 20
-842.1317398224463
 30
0.0
 11
524.94
 21
-841.2217398224463
 31
0.0
  0
LINE
  5
8E2
330
1E
100
AcDbEntity
  8
default
  6
Continuous
 62
     1
100
AcDbLine
 10
482.72
 20
-713.5817398224463
 30
0.0
 11
486.37
 21
-715.6117398224463
 31
0.0
  0
LINE
  5
8E3
330
1E
100
AcDbEntity
  8
default
  6
Continuous
 62
     1
100
AcDbLine
 10
459.81
 20
-701.7617398224463
 30
0.0
 11
463.74
 21
-703.6917398224463
 31
0.0
  0
LINE
  5
8E4
330
1E
100
AcDbEntity
  8
default
  6
Continuous
 62
     1
100
AcDbLine
 10
451.7999999999999
 20
-697.9717398224464
 30
0.0
 11
455.82
 21
-699.8517398224463
 31
0.0
  0
LINE
  5
8E5
330
1E
100
AcDbEntity
  8
default
  6
Continuous
 62
     1
100
AcDbLine
 10
455.82
 20
-699.8517398224463
 30
0.0
 11
459.81
 21
-701.7617398224463
 31
0.0
  0
LINE
  5
8E6
330
1E
100
AcDbEntity
  8
default
  6
Continuous
 62
     1
100
AcDbLine
 10
471.47
 20
-707.5917398224463
 30
0.0
 11
475.2699999999999
 21
-709.5717398224463
 31
0.0
  0
LINE
  5
8E7
330
1E
100
AcDbEntity
  8
default
  6
Continuous
 62
     1
100
AcDbLine
 10
467.63
 20
-705.6317398224463
 30
0.0
 11
471.47
 21
-707.5917398224463
 31
0.0
  0
LINE
  5
8E8
330
1E
100
AcDbEntity
  8
default
  6
Continuous
 62
     1
100
AcDbLine
 10
463.74
 20
-703.6917398224463
 30
0.0
 11
467.63
 21
-705.6317398224463
 31
0.0
  0
LINE
  5
8E9
330
1E
100
AcDbEntity
  8
default
  6
Continuous
 62
     1
100
AcDbLine
 10
479.0199999999999
 20
-711.5717398224464
 30
0.0
 11
482.72
 21
-713.5817398224463
 31
0.0
  0
LINE
  5
8EA
330
1E
100
AcDbEntity
  8
default
  6
Continuous
 62
     1
100
AcDbLine
 10
475.2699999999999
 20
-709.5717398224463
 30
0.0
 11
479.0199999999999
 21
-711.5717398224464
 31
0.0
  0
LINE
  5
8EB
330
1E
100
AcDbEntity
  8
default
  6
Continuous
 62
     1
100
AcDbLine
 10
517.0
 20
-734.4417398224464
 30
0.0
 11
520.15
 21
-736.5817398224463
 31
0.0
  0
LINE
  5
8EC
330
1E
100
AcDbEntity
  8
default
  6
Continuous
 62
     1
100
AcDbLine
 10
526.29
 20
-740.9017398224463
 30
0.0
 11
529.2799999999999
 21
-743.0817398224463
 31
0.0
  0
LINE
  5
8ED
330
1E
100
AcDbEntity
  8
default
  6
Continuous
 62
     1
100
AcDbLine
 10
523.2499999999999
 20
-738.7417398224463
 30
0.0
 11
526.29
 21
-740.9017398224463
 31
0.0
  0
LINE
  5
8EE
330
1E
100
AcDbEntity
  8
default
  6
Continuous
 62
     1
100
AcDbLine
 10
520.15
 20
-736.5817398224463
 30
0.0
 11
523.2499999999999
 21
-738.7417398224463
 31
0.0
  0
LINE
  5
8EF
330
1E
100
AcDbEntity
  8
default
  6
Continuous
 62
     1
100
AcDbLine
 10
507.24
 20
-728.0517398224462
 30
0.0
 11
510.55
 21
-730.1717398224464
 31
0.0
  0
LINE
  5
8F0
330
1E
100
AcDbEntity
  8
default
  6
Continuous
 62
     1
100
AcDbLine
 10
486.37
 20
-715.6117398224463
 30
0.0
 11
489.97
 21
-717.6517398224462
 31
0.0
  0
LINE
  5
8F1
330
1E
100
AcDbEntity
  8
default
  6
Continuous
 62
     1
100
AcDbLine
 10
493.52
 20
-719.7017398224463
 30
0.0
 11
497.0299999999999
 21
-721.7717398224463
 31
0.0
  0
LINE
  5
8F2
330
1E
100
AcDbEntity
  8
default
  6
Continuous
 62
     1
100
AcDbLine
 10
489.97
 20
-717.6517398224462
 30
0.0
 11
493.52
 21
-719.7017398224463
 31
0.0
  0
LINE
  5
8F3
330
1E
100
AcDbEntity
  8
default
  6
Continuous
 62
     1
100
AcDbLine
 10
503.8899999999999
 20
-725.9517398224463
 30
0.0
 11
507.24
 21
-728.0517398224462
 31
0.0
  0
LINE
  5
8F4
330
1E
100
AcDbEntity
  8
default
  6
Continuous
 62
     1
100
AcDbLine
 10
500.48
 20
-723.8517398224463
 30
0.0
 11
503.8899999999999
 21
-725.9517398224463
 31
0.0
  0
LINE
  5
8F5
330
1E
100
AcDbEntity
  8
default
  6
Continuous
 62
     1
100
AcDbLine
 10
497.0299999999999
 20
-721.7717398224463
 30
0.0
 11
500.48
 21
-723.8517398224463
 31
0.0
  0
LINE
  5
8F6
330
1E
100
AcDbEntity
  8
default
  6
Continuous
 62
     1
100
AcDbLine
 10
513.7999999999999
 20
-732.3017398224463
 30
0.0
 11
517.0
 21
-734.4417398224464
 31
0.0
  0
LINE
  5
8F7
330
1E
100
AcDbEntity
  8
default
  6
Continuous
 62
     1
100
AcDbLine
 10
510.55
 20
-730.1717398224464
 30
0.0
 11
513.7999999999999
 21
-732.3017398224463
 31
0.0
  0
LINE
  5
8F8
330
1E
100
AcDbEntity
  8
default
  6
Continuous
 62
     3
100
AcDbLine
 10
549.73
 20
-759.3117398224462
 30
0.0
 11
549.73
 21
-835.9617398224463
 31
0.0
  0
LINE
  5
8F9
330
1E
100
AcDbEntity
  8
default
  6
Continuous
 62
     3
100
AcDbLine
 10
533.6
 20
-746.3017398224462
 30
0.0
 11
533.6
 21
-839.4617398224463
 31
0.0
  0
LINE
  5
8FA
330
1E
100
AcDbEntity
  8
default
  6
Continuous
 62
     1
100
AcDbLine
 10
563.2699999999999
 20
-771.7717398224463
 30
0.0
 11
565.0
 21
-773.4917398224463
 31
0.0
  0
LINE
  5
8FB
330
1E
100
AcDbEntity
  8
default
  6
Continuous
 62
     3
100
AcDbLine
 10
565.0
 20
-773.4917398224463
 30
0.0
 11
565.0
 21
-832.3417398224464
 31
0.0
  0
LINE
  5
8FC
330
1E
100
AcDbEntity
  8
default
  6
Continuous
 62
     1
100
AcDbLine
 10
565.0
 20
-773.4917398224463
 30
0.0
 11
565.0
 21
-832.3417398224464
 31
0.0
  0
LINE
  5
8FD
330
1E
100
AcDbEntity
  8
default
  6
Continuous
 62
     1
100
AcDbLine
 10
551.6499999999999
 20
-835.5217398224462
 30
0.0
 11
555.9099999999999
 21
-834.5317398224462
 31
0.0
  0
LINE
  5
8FE
330
1E
100
AcDbEntity
  8
default
  6
Continuous
 62
     1
100
AcDbLine
 10
538.5399999999999
 20
-838.4217398224464
 30
0.0
 11
542.96
 21
-837.4717398224463
 31
0.0
  0
LINE
  5
8FF
330
1E
100
AcDbEntity
  8
default
  6
Continuous
 62
     1
100
AcDbLine
 10
534.0599999999999
 20
-839.3717398224463
 30
0.0
 11
538.5399999999999
 21
-838.4217398224464
 31
0.0
  0
LINE
  5
900
330
1E
100
AcDbEntity
  8
default
  6
Continuous
 62
     1
100
AcDbLine
 10
547.33
 20
-836.5017398224463
 30
0.0
 11
551.6499999999999
 21
-835.5217398224462
 31
0.0
  0
LINE
  5
901
330
1E
100
AcDbEntity
  8
default
  6
Continuous
 62
     1
100
AcDbLine
 10
542.96
 20
-837.4717398224463
 30
0.0
 11
547.33
 21
-836.5017398224463
 31
0.0
  0
LINE
  5
902
330
1E
100
AcDbEntity
  8
default
  6
Continuous
 62
     1
100
AcDbLine
 10
560.12
 20
-833.5317398224463
 30
0.0
 11
564.2599999999999
 21
-832.5217398224463
 31
0.0
  0
LINE
  5
903
330
1E
100
AcDbEntity
  8
default
  6
Continuous
 62
     1
100
AcDbLine
 10
555.9099999999999
 20
-834.5317398224462
 30
0.0
 11
560.12
 21
-833.5317398224463
 31
0.0
  0
LINE
  5
904
330
1E
100
AcDbEntity
  8
default
  6
Continuous
 62
     1
100
AcDbLine
 10
564.2599999999999
 20
-832.5217398224463
 30
0.0
 11
565.0
 21
-832.3417398224464
 31
0.0
  0
LINE
  5
905
330
1E
100
AcDbEntity
  8
default
  6
Continuous
 62
     1
100
AcDbLine
 10
551.29
 20
-760.6717398224463
 30
0.0
 11
553.7999999999999
 21
-762.8817398224462
 31
0.0
  0
LINE
  5
906
330
1E
100
AcDbEntity
  8
default
  6
Continuous
 62
     1
100
AcDbLine
 10
543.45
 20
-754.0317398224463
 30
0.0
 11
546.1199999999999
 21
-756.2417398224463
 31
0.0
  0
LINE
  5
907
330
1E
100
AcDbEntity
  8
default
  6
Continuous
 62
     1
100
AcDbLine
 10
548.73
 20
-758.4517398224464
 30
0.0
 11
551.29
 21
-760.6717398224463
 31
0.0
  0
LINE
  5
908
330
1E
100
AcDbEntity
  8
default
  6
Continuous
 62
     1
100
AcDbLine
 10
546.1199999999999
 20
-756.2417398224463
 30
0.0
 11
548.73
 21
-758.4517398224464
 31
0.0
  0
LINE
  5
909
330
1E
100
AcDbEntity
  8
default
  6
Continuous
 62
     1
100
AcDbLine
 10
540.72
 20
-751.8317398224463
 30
0.0
 11
543.45
 21
-754.0317398224463
 31
0.0
  0
LINE
  5
90A
330
1E
100
AcDbEntity
  8
default
  6
Continuous
 62
     1
100
AcDbLine
 10
537.94
 20
-749.6317398224463
 30
0.0
 11
540.72
 21
-751.8317398224463
 31
0.0
  0
LINE
  5
90B
330
1E
100
AcDbEntity
  8
default
  6
Continuous
 62
     1
100
AcDbLine
 10
535.11
 20
-747.4417398224463
 30
0.0
 11
537.94
 21
-749.6317398224463
 31
0.0
  0
LINE
  5
90C
330
1E
100
AcDbEntity
  8
default
  6
Continuous
 62
     1
100
AcDbLine
 10
532.22
 20
-745.2617398224463
 30
0.0
 11
535.11
 21
-747.4417398224463
 31
0.0
  0
LINE
  5
90D
330
1E
100
AcDbEntity
  8
default
  6
Continuous
 62
     1
100
AcDbLine
 10
560.99
 20
-769.5417398224463
 30
0.0
 11
563.2699999999999
 21
-771.7717398224463
 31
0.0
  0
LINE
  5
90E
330
1E
100
AcDbEntity
  8
default
  6
Continuous
 62
     1
100
AcDbLine
 10
558.65
 20
-767.3217398224464
 30
0.0
 11
560.99
 21
-769.5417398224463
 31
0.0
  0
LINE
  5
90F
330
1E
100
AcDbEntity
  8
default
  6
Continuous
 62
     1
100
AcDbLine
 10
556.25
 20
-765.1017398224463
 30
0.0
 11
558.65
 21
-767.3217398224464
 31
0.0
  0
LINE
  5
910
330
1E
100
AcDbEntity
  8
default
  6
Continuous
 62
     1
100
AcDbLine
 10
553.7999999999999
 20
-762.8817398224462
 30
0.0
 11
556.25
 21
-765.1017398224463
 31
0.0
  0
LINE
  5
911
330
1E
100
AcDbEntity
  8
default
  6
Continuous
 62
     1
100
AcDbLine
 10
439.4499999999999
 20
-692.4317398224464
 30
0.0
 11
443.61
 21
-694.2517398224463
 31
0.0
  0
LINE
  5
912
330
1E
100
AcDbEntity
  8
default
  6
Continuous
 62
     1
100
AcDbLine
 10
395.49
 20
-675.4717398224463
 30
0.0
 11
400.07
 21
-677.0517398224463
 31
0.0
  0
LINE
  5
913
330
1E
100
AcDbEntity
  8
default
  6
Continuous
 62
     1
100
AcDbLine
 10
372.0
 20
-667.9817398224463
 30
0.0
 11
376.77
 21
-669.4217398224463
 31
0.0
  0
LINE
  5
914
330
1E
100
AcDbEntity
  8
default
  6
Continuous
 62
     1
100
AcDbLine
 10
362.3399999999999
 20
-665.2017398224463
 30
0.0
 11
367.18
 21
-666.5817398224463
 31
0.0
  0
LINE
  5
915
330
1E
100
AcDbEntity
  8
default
  6
Continuous
 62
     1
100
AcDbLine
 10
357.45
 20
-663.8617398224463
 30
0.0
 11
362.3399999999999
 21
-665.2017398224463
 31
0.0
  0
LINE
  5
916
330
1E
100
AcDbEntity
  8
default
  6
Continuous
 62
     1
100
AcDbLine
 10
367.18
 20
-666.5817398224463
 30
0.0
 11
372.0
 21
-667.9817398224463
 31
0.0
  0
LINE
  5
917
330
1E
100
AcDbEntity
  8
default
  6
Continuous
 62
     1
100
AcDbLine
 10
386.2099999999999
 20
-672.3917398224463
 30
0.0
 11
390.8699999999999
 21
-673.9117398224463
 31
0.0
  0
LINE
  5
918
330
1E
100
AcDbEntity
  8
default
  6
Continuous
 62
     1
100
AcDbLine
 10
381.51
 20
-670.8917398224463
 30
0.0
 11
386.2099999999999
 21
-672.3917398224463
 31
0.0
  0
LINE
  5
919
330
1E
100
AcDbEntity
  8
default
  6
Continuous
 62
     1
100
AcDbLine
 10
376.77
 20
-669.4217398224463
 30
0.0
 11
381.51
 21
-670.8917398224463
 31
0.0
  0
LINE
  5
91A
330
1E
100
AcDbEntity
  8
default
  6
Continuous
 62
     1
100
AcDbLine
 10
390.8699999999999
 20
-673.9117398224463
 30
0.0
 11
395.49
 21
-675.4717398224463
 31
0.0
  0
LINE
  5
91B
330
1E
100
AcDbEntity
  8
default
  6
Continuous
 62
     1
100
AcDbLine
 10
417.9899999999999
 20
-683.6417398224463
 30
0.0
 11
422.37
 21
-685.3517398224463
 31
0.0
  0
LINE
  5
91C
330
1E
100
AcDbEntity
  8
default
  6
Continuous
 62
     1
100
AcDbLine
 10
400.07
 20
-677.0517398224463
 30
0.0
 11
404.61
 21
-678.6617398224462
 31
0.0
  0
LINE
  5
91D
330
1E
100
AcDbEntity
  8
default
  6
Continuous
 62
     1
100
AcDbLine
 10
404.61
 20
-678.6617398224462
 30
0.0
 11
409.1099999999999
 21
-680.2917398224463
 31
0.0
  0
LINE
  5
91E
330
1E
100
AcDbEntity
  8
default
  6
Continuous
 62
     1
100
AcDbLine
 10
413.5699999999999
 20
-681.9517398224463
 30
0.0
 11
417.9899999999999
 21
-683.6417398224463
 31
0.0
  0
LINE
  5
91F
330
1E
100
AcDbEntity
  8
default
  6
Continuous
 62
     1
100
AcDbLine
 10
409.1099999999999
 20
-680.2917398224463
 30
0.0
 11
413.5699999999999
 21
-681.9517398224463
 31
0.0
  0
LINE
  5
920
330
1E
100
AcDbEntity
  8
default
  6
Continuous
 62
     1
100
AcDbLine
 10
426.7
 20
-687.0817398224463
 30
0.0
 11
430.9899999999999
 21
-688.8417398224463
 31
0.0
  0
LINE
  5
921
330
1E
100
AcDbEntity
  8
default
  6
Continuous
 62
     1
100
AcDbLine
 10
422.37
 20
-685.3517398224463
 30
0.0
 11
426.7
 21
-687.0817398224463
 31
0.0
  0
LINE
  5
922
330
1E
100
AcDbEntity
  8
default
  6
Continuous
 62
     1
100
AcDbLine
 10
435.24
 20
-690.6217398224463
 30
0.0
 11
439.4499999999999
 21
-692.4317398224464
 31
0.0
  0
LINE
  5
923
330
1E
100
AcDbEntity
  8
default
  6
Continuous
 62
     1
100
AcDbLine
 10
430.9899999999999
 20
-688.8417398224463
 30
0.0
 11
435.24
 21
-690.6217398224463
 31
0.0
  0
LINE
  5
924
330
1E
100
AcDbEntity
  8
default
  6
Continuous
 62
     1
100
AcDbLine
 10
443.61
 20
-694.2517398224463
 30
0.0
 11
447.72
 21
-696.1017398224463
 31
0.0
  0
LWPOLYLINE
  5
928
330
1E
100
AcDbEntity
  8
0
  6
Continuous
 62
     6
100
AcDbPolyline
 90
        5
 70
     0
 43
0.0
 10
0.0
 20
-916.3304774267457
 10
24.78999999999996
 20
-904.0611009255933
 10
49.54999999999995
 20
-892.9080174535563
 10
74.25
 20
-885.8012800711076
 10
98.87
 20
-879.0800635218683
  0
LWPOLYLINE
  5
929
330
1E
100
AcDbEntity
  8
0
  6
Continuous
 62
     6
100
AcDbPolyline
 90
        5
 70
     0
 43
0.0
 10
0.0
 20
-916.3304774267457
 10
-24.78999999999996
 20
-904.0611009255933
 10
-49.54999999999995
 20
-892.9080174535563
 10
-74.25
 20
-885.8012800711076
 10
-98.87
 20
-879.0800635218683
  0
LWPOLYLINE
  5
92B
330
1E
100
AcDbEntity
  8
0
  6
Continuous
 62
     5
100
AcDbPolyline
 90
        3
 70
     0
 43
0.0
 10
-467.3037877823953
 20
400.0
 10
-456.6768331556186
 20
409.2198685194321
 10
-445.6596153846143
 20
422.9092307692339
  0
ENDSEC
  0
SECTION
  2
OBJECTS
  0
DICTIONARY
  5
C
330
0
100
AcDbDictionary
281
     1
  3
ACAD_GROUP
350
D
  3
ACAD_LAYOUT
350
19
  3
ACAD_MLINESTYLE
350
16
  3
ACAD_PLOTSETTINGS
350
18
  3
ACAD_PLOTSTYLENAME
350
E
  3
AcDbVariableDictionary
350
933
  3
ADE_QUERY_LIBRARY
350
931
  3
ASE_INDEX_DICTIONARY
350
92D
1001
ADE
1000
ADE02C004
1000
[Query]
1000
CaseSensitiveMatch=0
1000
SaveCurrQueryInSession=1
1000
MkSelSetWithQryObj=0
1000
ShowBlockAsInsPt=0
1000
CreateAssociativeHatchObjects=0
1000
ReferenceBoundaryForAreaLocation=1
1000
ShowImageAsBoundary=1
1000
DefaultJoinOperator=2
1000
ColorForAdd=red
1000
ColorForRemove=red
1000
BlockLocnForQuery=1
1000
TextLocnForQuery=1
1000
[Save Back]
1000
RedefineBlockDefinitions=1
1000
RedefineLayerDefinitions=1
1000
RedefineTextStyleDefinitions=1
1000
RemoveUnusedGroups=1
1000
EraseSavedBackObjects=1
1000
RemoveLockAfterSave=1
1000
CreateHistoryFileOfChanges=0
1000
CreateBackupFileOfSourceDwg=1
1000
DontAddObjectsToSaveSet=0
1000
MarkObjectsForEditingWithoutPrompting=0
1000
[Coordinate Transformation]
1000
RestoreLastActiveDwgsOnStartup=1
1000
ActivateDwgsOnAttach=1
1000
AdjustSizesAndScalesForChangesInUnits=1
1000
AdjustRotationsForMapDistortions=1
1000
AdjustSizesAndScalesForMapDistortions=1
1000
AdjustElevations=1
1000
AdjustZeroRotationObjects=1
1000
ReconnectDbOnWSOpen=1
1000
NoOfSQLConditionsInHistory=10
  0
DICTIONARY
  5
D
102
{ACAD_REACTORS
330
C
102
}
330
C
100
AcDbDictionary
281
     1
  0
DICTIONARY
  5
19
102
{ACAD_REACTORS
330
C
102
}
330
C
100
AcDbDictionary
281
     1
  3
Layout1
350
1D
  3
Model
350
21
  0
DICTIONARY
  5
16
102
{ACAD_REACTORS
330
C
102
}
330
C
100
AcDbDictionary
281
     1
  3
Standard
350
17
  0
DICTIONARY
  5
18
102
{ACAD_REACTORS
330
C
102
}
330
C
100
AcDbDictionary
281
     1
  0
ACDBDICTIONARYWDFLT
  5
E
102
{ACAD_REACTORS
330
C
102
}
330
C
100
AcDbDictionary
281
     1
  3
Normal
350
F
100
AcDbDictionaryWithDefault
340
F
  0
DICTIONARY
  5
933
102
{ACAD_REACTORS
330
C
102
}
330
C
100
AcDbDictionary
281
     1
  3
DIMASSOC
350
934
  0
DICTIONARY
  5
931
102
{ACAD_REACTORS
330
C
102
}
330
C
100
AcDbDictionary
281
     1
  3
_CurrQry
350
936
  0
DICTIONARY
  5
92D
102
{ACAD_REACTORS
330
C
102
}
330
C
100
AcDbDictionary
281
     1
  3
ASEBlockHierarchyIndexRecord
350
92F
1001
DCO15
1040
2073466159.392999
  0
LAYOUT
  5
1D
102
{ACAD_REACTORS
330
19
102
}
330
19
100
AcDbPlotSettings
  1

  2
C:\Program Files\Autodesk Map 5\plotters\DWF ePlot (optimized for plotting).pc3
  4

  6

 40
0.0
 41
0.0
 42
0.0
 43
0.0
 44
0.0
 45
0.0
 46
0.0
 47
0.0
 48
0.0
 49
0.0
140
0.0
141
0.0
142
1.0
143
1.0
 70
   688
 72
     0
 73
     0
 74
     5
  7

 75
    16
147
1.0
148
0.0
149
0.0
100
AcDbLayout
  1
Layout1
 70
     1
 71
     1
 10
0.0
 20
0.0
 11
12.0
 21
9.0
 12
0.0
 22
0.0
 32
0.0
 14
1.000000000000000E+20
 24
1.000000000000000E+20
 34
1.000000000000000E+20
 15
-1.000000000000000E+20
 25
-1.000000000000000E+20
 35
-1.000000000000000E+20
146
0.0
 13
0.0
 23
0.0
 33
0.0
 16
1.0
 26
0.0
 36
0.0
 17
0.0
 27
1.0
 37
0.0
 76
     0
330
1A
  0
LAYOUT
  5
21
102
{ACAD_REACTORS
330
19
102
}
330
19
100
AcDbPlotSettings
  1

  2
C:\Program Files\Autodesk Map 5\plotters\DWF ePlot (optimized for plotting).pc3
  4
ANSI_A_(8.50_x_11.00_Inches)
  6

 40
5.793749809265136
 41
17.79375076293945
 42
5.793746948242187
 43
17.79376220703125
 44
215.8999938964843
 45
279.3999938964843
 46
0.0
 47
0.0
 48
0.0
 49
0.0
140
0.0
141
0.0
142
1.0
143
1.0
 70
 11952
 72
     0
 73
     1
 74
     0
  7

 75
     0
147
1.0
148
18732.34855865316
149
32499.75494614044
100
AcDbLayout
  1
Model
 70
     1
 71
     0
 10
0.0
 20
0.0
 11
12.0
 21
9.0
 12
0.0
 22
0.0
 32
0.0
 14
0.0
 24
0.0
 34
0.0
 15
0.0
 25
0.0
 35
0.0
146
0.0
 13
0.0
 23
0.0
 33
0.0
 16
1.0
 26
0.0
 36
0.0
 17
0.0
 27
1.0
 37
0.0
 76
     0
330
1E
  0
MLINESTYLE
  5
17
102
{ACAD_REACTORS
330
16
102
}
330
16
100
AcDbMlineStyle
  2
STANDARD
 70
     0
  3

 62
   256
 51
90.0
 52
90.0
 71
     2
 49
0.5
 62
   256
  6
BYLAYER
 49
-0.5
 62
   256
  6
BYLAYER
  0
ACDBPLACEHOLDER
  5
F
102
{ACAD_REACTORS
330
E
102
}
330
E
  0
DICTIONARYVAR
  5
934
102
{ACAD_REACTORS
330
933
102
}
330
933
100
DictionaryVariables
280
     0
  1
1
  0
XRECORD
  5
936
102
{ACAD_REACTORS
330
931
102
}
330
931
100
AcDbXrecord
280
     1
1000
ADE02C001
1070
     1
1070
     0
1002
{
1002
}
1002
{
1002
}
1002
{
1002
}
1000

  0
XRECORD
  5
92F
102
{ACAD_REACTORS
330
92D
102
}
330
92D
100
AcDbXrecord
280
     1
  0
ENDSEC
  0
EOF
