  0
SECTION
  2
HEADER
  9
$ACADVER
  1
AC1015
  9
$ACADMAINTVER
 70
    13
  9
$DWGCODEPAGE
  3
ANSI_1252
  9
$INSBASE
 10
0.0
 20
0.0
 30
0.0
  9
$EXTMIN
 10
0.0
 20
-1188.0
 30
0.0
  9
$EXTMAX
 10
840.0
 20
0.0
 30
0.0
  9
$LIMMIN
 10
0.0
 20
0.0
  9
$LIMMAX
 10
420.0
 20
297.0
  9
$ORTHOMODE
 70
     0
  9
$REGENMODE
 70
     1
  9
$FILLMODE
 70
     1
  9
$QTEXTMODE
 70
     0
  9
$MIRRTEXT
 70
     1
  9
$LTSCALE
 40
1.0
  9
$ATTMODE
 70
     1
  9
$TEXTSIZE
 40
2.5
  9
$TRACEWID
 40
1.0
  9
$TEXTSTYLE
  7
Standard
  9
$CLAYER
  8
0
  9
$CELTYPE
  6
ByLayer
  9
$CECOLOR
 62
   256
  9
$CELTSCALE
 40
1.0
  9
$DISPSILH
 70
     0
  9
$DIMSCALE
 40
1.0
  9
$DIMASZ
 40
2.5
  9
$DIMEXO
 40
0.625
  9
$DIMDLI
 40
3.75
  9
$DIMRND
 40
0.0
  9
$DIMDLE
 40
0.0
  9
$DIMEXE
 40
1.25
  9
$DIMTP
 40
0.0
  9
$DIMTM
 40
0.0
  9
$DIMTXT
 40
2.5
  9
$DIMCEN
 40
2.5
  9
$DIMTSZ
 40
0.0
  9
$DIMTOL
 70
     0
  9
$DIMLIM
 70
     0
  9
$DIMTIH
 70
     0
  9
$DIMTOH
 70
     0
  9
$DIMSE1
 70
     0
  9
$DIMSE2
 70
     0
  9
$DIMTAD
 70
     1
  9
$DIMZIN
 70
     8
  9
$DIMBLK
  1

  9
$DIMASO
 70
     1
  9
$DIMSHO
 70
     1
  9
$DIMPOST
  1

  9
$DIMAPOST
  1

  9
$DIMALT
 70
     0
  9
$DIMALTD
 70
     3
  9
$DIMALTF
 40
0.03937007874
  9
$DIMLFAC
 40
1.0
  9
$DIMTOFL
 70
     1
  9
$DIMTVP
 40
0.0
  9
$DIMTIX
 70
     0
  9
$DIMSOXD
 70
     0
  9
$DIMSAH
 70
     0
  9
$DIMBLK1
  1

  9
$DIMBLK2
  1

  9
$DIMSTYLE
  2
Standard
  9
$DIMCLRD
 70
     0
  9
$DIMCLRE
 70
     0
  9
$DIMCLRT
 70
     0
  9
$DIMTFAC
 40
1.0
  9
$DIMGAP
 40
0.625
  9
$DIMJUST
 70
     0
  9
$DIMSD1
 70
     0
  9
$DIMSD2
 70
     0
  9
$DIMTOLJ
 70
     0
  9
$DIMTZIN
 70
     8
  9
$DIMALTZ
 70
     0
  9
$DIMALTTZ
 70
     0
  9
$DIMUPT
 70
     0
  9
$DIMDEC
 70
     2
  9
$DIMTDEC
 70
     2
  9
$DIMALTU
 70
     2
  9
$DIMALTTD
 70
     3
  9
$DIMTXSTY
  7
Standard
  9
$DIMAUNIT
 70
     0
  9
$DIMADEC
 70
     0
  9
$DIMALTRND
 40
0.0
  9
$DIMAZIN
 70
     0
  9
$DIMDSEP
 70
    44
  9
$DIMATFIT
 70
     3
  9
$DIMFRAC
 70
     0
  9
$DIMLDRBLK
  1

  9
$DIMLUNIT
 70
     2
  9
$DIMLWD
 70
    -2
  9
$DIMLWE
 70
    -2
  9
$DIMTMOVE
 70
     0
  9
$LUNITS
 70
     2
  9
$LUPREC
 70
     4
  9
$SKETCHINC
 40
1.0
  9
$FILLETRAD
 40
10.0
  9
$AUNITS
 70
     0
  9
$AUPREC
 70
     2
  9
$MENU
  1
.
  9
$ELEVATION
 40
0.0
  9
$PELEVATION
 40
0.0
  9
$THICKNESS
 40
0.0
  9
$LIMCHECK
 70
     0
  9
$CHAMFERA
 40
0.0
  9
$CHAMFERB
 40
0.0
  9
$CHAMFERC
 40
0.0
  9
$CHAMFERD
 40
0.0
  9
$SKPOLY
 70
     0
  9
$TDCREATE
 40
2458532.237330231
  9
$TDUCREATE
 40
2458532.153996898
  9
$TDUPDATE
 40
2459847.772641817
  9
$TDUUPDATE
 40
2459847.689308483
  9
$TDINDWG
 40
0.0096766551
  9
$TDUSRTIMER
 40
0.0096757755
  9
$USRTIMER
 70
     1
  9
$ANGBASE
 50
0.0
  9
$ANGDIR
 70
     0
  9
$PDMODE
 70
     0
  9
$PDSIZE
 40
0.0
  9
$PLINEWID
 40
0.0
  9
$SPLFRAME
 70
     0
  9
$SPLINETYPE
 70
     6
  9
$SPLINESEGS
 70
     8
  9
$HANDSEED
  5
8FB
  9
$SURFTAB1
 70
     6
  9
$SURFTAB2
 70
     6
  9
$SURFTYPE
 70
     6
  9
$SURFU
 70
     6
  9
$SURFV
 70
     6
  9
$UCSBASE
  2

  9
$UCSNAME
  2

  9
$UCSORG
 10
0.0
 20
0.0
 30
0.0
  9
$UCSXDIR
 10
1.0
 20
0.0
 30
0.0
  9
$UCSYDIR
 10
0.0
 20
1.0
 30
0.0
  9
$UCSORTHOREF
  2

  9
$UCSORTHOVIEW
 70
     0
  9
$UCSORGTOP
 10
0.0
 20
0.0
 30
0.0
  9
$UCSORGBOTTOM
 10
0.0
 20
0.0
 30
0.0
  9
$UCSORGLEFT
 10
0.0
 20
0.0
 30
0.0
  9
$UCSORGRIGHT
 10
0.0
 20
0.0
 30
0.0
  9
$UCSORGFRONT
 10
0.0
 20
0.0
 30
0.0
  9
$UCSORGBACK
 10
0.0
 20
0.0
 30
0.0
  9
$PUCSBASE
  2

  9
$PUCSNAME
  2

  9
$PUCSORG
 10
0.0
 20
0.0
 30
0.0
  9
$PUCSXDIR
 10
1.0
 20
0.0
 30
0.0
  9
$PUCSYDIR
 10
0.0
 20
1.0
 30
0.0
  9
$PUCSORTHOREF
  2

  9
$PUCSORTHOVIEW
 70
     0
  9
$PUCSORGTOP
 10
0.0
 20
0.0
 30
0.0
  9
$PUCSORGBOTTOM
 10
0.0
 20
0.0
 30
0.0
  9
$PUCSORGLEFT
 10
0.0
 20
0.0
 30
0.0
  9
$PUCSORGRIGHT
 10
0.0
 20
0.0
 30
0.0
  9
$PUCSORGFRONT
 10
0.0
 20
0.0
 30
0.0
  9
$PUCSORGBACK
 10
0.0
 20
0.0
 30
0.0
  9
$USERI1
 70
     0
  9
$USERI2
 70
     0
  9
$USERI3
 70
     0
  9
$USERI4
 70
     0
  9
$USERI5
 70
     0
  9
$USERR1
 40
0.0
  9
$USERR2
 40
0.0
  9
$USERR3
 40
0.0
  9
$USERR4
 40
0.0
  9
$USERR5
 40
0.0
  9
$WORLDVIEW
 70
     1
  9
$SHADEDGE
 70
     3
  9
$SHADEDIF
 70
    70
  9
$TILEMODE
 70
     1
  9
$MAXACTVP
 70
    64
  9
$PINSBASE
 10
0.0
 20
0.0
 30
0.0
  9
$PLIMCHECK
 70
     0
  9
$PEXTMIN
 10
0.0
 20
0.0
 30
0.0
  9
$PEXTMAX
 10
210.0
 20
297.0
 30
0.0
  9
$PLIMMIN
 10
0.0
 20
0.0
  9
$PLIMMAX
 10
420.0
 20
297.0
  9
$UNITMODE
 70
     0
  9
$VISRETAIN
 70
     1
  9
$PLINEGEN
 70
     0
  9
$PSLTSCALE
 70
     1
  9
$TREEDEPTH
 70
  3020
  9
$CMLSTYLE
  2
Standard
  9
$CMLJUST
 70
     0
  9
$CMLSCALE
 40
20.0
  9
$PROXYGRAPHICS
 70
     1
  9
$MEASUREMENT
 70
     1
  9
$CELWEIGHT
370
    -1
  9
$ENDCAPS
280
     0
  9
$JOINSTYLE
280
     0
  9
$LWDISPLAY
290
     0
  9
$INSUNITS
 70
     6
  9
$HYPERLINKBASE
  1

  9
$STYLESHEET
  1

  9
$XEDIT
290
     1
  9
$CEPSNTYPE
380
     0
  9
$PSTYLEMODE
290
     1
  9
$FINGERPRINTGUID
  2
701AA5E4-3C24-11ED-B955-C2B9DDCE3D85
  9
$VERSIONGUID
  2
{ED18B4FB-556D-422B-A886-07D5E874C521}
  9
$EXTNAMES
290
     1
  9
$PSVPSCALE
 40
0.0
  9
$OLESTARTUP
290
     0
  0
ENDSEC
  0
SECTION
  2
CLASSES
  0
CLASS
  1
ACDBDICTIONARYWDFLT
  2
AcDbDictionaryWithDefault
  3
AutoCAD 2000
 90
        0
280
     0
281
     0
  0
CLASS
  1
SUN
  2
AcDbSun
  3
SCENEOE
 90
    33921
280
     0
281
     0
  0
CLASS
  1
VISUALSTYLE
  2
AcDbVisualStyle
  3
ObjectDBX Classes
 90
    36863
280
     0
281
     0
  0
CLASS
  1
MATERIAL
  2
AcDbMaterial
  3
ObjectDBX Classes
 90
     1153
280
     0
281
     0
  0
CLASS
  1
SCALE
  2
AcDbScale
  3
ObjectDBX Classes
 90
    33921
280
     0
281
     0
  0
CLASS
  1
TABLESTYLE
  2
AcDbTableStyle
  3
ObjectDBX Classes
 90
    36863
280
     0
281
     0
  0
CLASS
  1
MLEADERSTYLE
  2
AcDbMLeaderStyle
  3
ACDB_MLEADERSTYLE_CLASS
 90
     4095
280
     0
281
     0
  0
CLASS
  1
DICTIONARYVAR
  2
AcDbDictionaryVar
  3
AutoCAD 2000
 90
        0
280
     0
281
     0
  0
CLASS
  1
CELLSTYLEMAP
  2
AcDbCellStyleMap
  3
ObjectDBX Classes
 90
    33920
280
     0
281
     0
  0
CLASS
  1
MENTALRAYRENDERSETTINGS
  2
AcDbMentalRayRenderSettings
  3
SCENEOE
 90
    33792
280
     0
281
     0
  0
CLASS
  1
ACDBDETAILVIEWSTYLE
  2
AcDbDetailViewStyle
  3
ObjectDBX Classes
 90
    33793
280
     0
281
     0
  0
CLASS
  1
ACDBSECTIONVIEWSTYLE
  2
AcDbSectionViewStyle
  3
ObjectDBX Classes
 90
    33793
280
     0
281
     0
  0
CLASS
  1
RASTERVARIABLES
  2
AcDbRasterVariables
  3
ISM
 90
    32768
280
     0
281
     0
  0
CLASS
  1
ACDBPLACEHOLDER
  2
AcDbPlaceHolder
  3
AutoCAD 2000
 90
        0
280
     0
281
     0
  0
CLASS
  1
LAYOUT
  2
AcDbLayout
  3
AutoCAD 2000
 90
        0
280
     0
281
     0
  0
ENDSEC
  0
SECTION
  2
TABLES
  0
TABLE
  2
VPORT
  5
8
330
0
100
AcDbSymbolTable
 70
     6
  0
VPORT
  5
8FA
330
8
100
AcDbSymbolTableRecord
100
AcDbViewportTableRecord
  2
*Active
 70
     0
 10
0.0
 20
0.0
 11
1.0
 21
1.0
 12
439.3576163771764
 22
-591.1639606963462
 13
0.0
 23
0.0
 14
0.5
 24
0.5
 15
0.5
 25
0.5
 16
0.0
 26
0.0
 36
1.0
 17
0.0
 27
0.0
 37
0.0
 40
1323.849024551734
 41
0.9563046192259674
 42
50.0
 43
0.0
 44
0.0
 50
0.0
 51
0.0
 71
     0
 72
  1000
 73
     1
 74
     3
 75
     0
 76
     0
 77
     0
 78
     0
281
     0
 65
     0
110
0.0
120
0.0
130
0.0
111
1.0
121
0.0
131
0.0
112
0.0
122
1.0
132
0.0
 79
     0
146
0.0
  0
ENDTAB
  0
TABLE
  2
LTYPE
  5
2
330
0
100
AcDbSymbolTable
 70
     1
  0
LTYPE
  5
24
330
2
100
AcDbSymbolTableRecord
100
AcDbLinetypeTableRecord
  2
ByBlock
 70
     0
  3

 72
    65
 73
     0
 40
0.0
  0
LTYPE
  5
25
330
2
100
AcDbSymbolTableRecord
100
AcDbLinetypeTableRecord
  2
ByLayer
 70
     0
  3

 72
    65
 73
     0
 40
0.0
  0
LTYPE
  5
26
330
2
100
AcDbSymbolTableRecord
100
AcDbLinetypeTableRecord
  2
Continuous
 70
     0
  3

 72
    65
 73
     0
 40
0.0
  0
ENDTAB
  0
TABLE
  2
LAYER
  5
1
330
0
100
AcDbSymbolTable
 70
     4
  0
LAYER
  5
27
330
1
100
AcDbSymbolTableRecord
100
AcDbLayerTableRecord
  2
0
 70
     0
 62
     7
  6
Continuous
370
    -3
390
13
  0
LAYER
  5
28
330
1
100
AcDbSymbolTableRecord
100
AcDbLayerTableRecord
  2
Defpoints
 70
     0
 62
     7
  6
Continuous
290
     0
370
    -3
390
13
  0
LAYER
  5
123
330
1
100
AcDbSymbolTableRecord
100
AcDbLayerTableRecord
  2
VIEWPORTS
 70
     0
 62
     7
  6
Continuous
370
    -3
390
13
  0
LAYER
  5
124
330
1
100
AcDbSymbolTableRecord
100
AcDbLayerTableRecord
  2
TEXTLAYER
 70
     0
 62
     7
  6
Continuous
370
    -3
390
13
  0
ENDTAB
  0
TABLE
  2
STYLE
  5
5
330
0
100
AcDbSymbolTable
 70
     1
  0
STYLE
  5
29
330
5
100
AcDbSymbolTableRecord
100
AcDbTextStyleTableRecord
  2
Standard
 70
     0
 40
0.0
 41
1.0
 50
0.0
 71
     0
 42
2.5
  3
txt
  4

  0
ENDTAB
  0
TABLE
  2
VIEW
  5
7
330
0
100
AcDbSymbolTable
 70
     0
  0
ENDTAB
  0
TABLE
  2
UCS
  5
6
330
0
100
AcDbSymbolTable
 70
     0
  0
ENDTAB
  0
TABLE
  2
APPID
  5
3
330
0
100
AcDbSymbolTable
 70
     5
  0
APPID
  5
2A
330
3
100
AcDbSymbolTableRecord
100
AcDbRegAppTableRecord
  2
ACAD
 70
     0
  0
APPID
  5
120
330
3
100
AcDbSymbolTableRecord
100
AcDbRegAppTableRecord
  2
HATCHBACKGROUNDCOLOR
 70
     0
  0
APPID
  5
12A
330
3
100
AcDbSymbolTableRecord
100
AcDbRegAppTableRecord
  2
ACAD_PSEXT
 70
     0
  0
APPID
  5
12B
330
3
100
AcDbSymbolTableRecord
100
AcDbRegAppTableRecord
  2
ADE
 70
     0
  0
APPID
  5
8AE
330
3
100
AcDbSymbolTableRecord
100
AcDbRegAppTableRecord
  2
DCO15
 70
     0
  0
ENDTAB
  0
TABLE
  2
DIMSTYLE
  5
4
330
0
100
AcDbSymbolTable
 70
     1
100
AcDbDimStyleTable
 71
     0
  0
DIMSTYLE
105
2B
330
4
100
AcDbSymbolTableRecord
100
AcDbDimStyleTableRecord
  2
Standard
 70
     0
 41
2.5
 42
0.625
 43
3.75
 44
1.25
 73
     0
 74
     0
 77
     1
 78
     8
140
2.5
141
2.5
143
0.03937007874
147
0.625
171
     3
172
     1
271
     0
272
     2
274
     3
278
    44
283
     0
284
     8
  0
ENDTAB
  0
TABLE
  2
BLOCK_RECORD
  5
9
330
0
100
AcDbSymbolTable
 70
    17
  0
BLOCK_RECORD
  5
17
330
9
100
AcDbSymbolTableRecord
100
AcDbBlockTableRecord
  2
*Model_Space
340
1A
  0
BLOCK_RECORD
  5
1B
330
9
100
AcDbSymbolTableRecord
100
AcDbBlockTableRecord
  2
*Paper_Space
340
1E
  0
BLOCK_RECORD
  5
C6
330
9
100
AcDbSymbolTableRecord
100
AcDbBlockTableRecord
  2
*Paper_Space0
340
C9
  0
BLOCK_RECORD
  5
11A
330
9
100
AcDbSymbolTableRecord
100
AcDbBlockTableRecord
  2
*Paper_Space1
340
11D
  0
BLOCK_RECORD
  5
C0
330
9
100
AcDbSymbolTableRecord
100
AcDbBlockTableRecord
  2
*Paper_Space2
340
C3
  0
BLOCK_RECORD
  5
CC
330
9
100
AcDbSymbolTableRecord
100
AcDbBlockTableRecord
  2
*Paper_Space3
340
CF
  0
BLOCK_RECORD
  5
D2
330
9
100
AcDbSymbolTableRecord
100
AcDbBlockTableRecord
  2
*Paper_Space4
340
D5
  0
BLOCK_RECORD
  5
D8
330
9
100
AcDbSymbolTableRecord
100
AcDbBlockTableRecord
  2
*Paper_Space5
340
DB
  0
BLOCK_RECORD
  5
DE
330
9
100
AcDbSymbolTableRecord
100
AcDbBlockTableRecord
  2
*Paper_Space6
340
E1
  0
BLOCK_RECORD
  5
E4
330
9
100
AcDbSymbolTableRecord
100
AcDbBlockTableRecord
  2
*Paper_Space7
340
E7
  0
BLOCK_RECORD
  5
EA
330
9
100
AcDbSymbolTableRecord
100
AcDbBlockTableRecord
  2
*Paper_Space8
340
ED
  0
BLOCK_RECORD
  5
F0
330
9
100
AcDbSymbolTableRecord
100
AcDbBlockTableRecord
  2
*Paper_Space9
340
F3
  0
BLOCK_RECORD
  5
F6
330
9
100
AcDbSymbolTableRecord
100
AcDbBlockTableRecord
  2
*Paper_Space10
340
F9
  0
BLOCK_RECORD
  5
FC
330
9
100
AcDbSymbolTableRecord
100
AcDbBlockTableRecord
  2
*Paper_Space11
340
FF
  0
BLOCK_RECORD
  5
102
330
9
100
AcDbSymbolTableRecord
100
AcDbBlockTableRecord
  2
*Paper_Space12
340
105
  0
BLOCK_RECORD
  5
108
330
9
100
AcDbSymbolTableRecord
100
AcDbBlockTableRecord
  2
*Paper_Space13
340
10B
  0
BLOCK_RECORD
  5
10E
330
9
100
AcDbSymbolTableRecord
100
AcDbBlockTableRecord
  2
*Paper_Space14
340
111
  0
BLOCK_RECORD
  5
114
330
9
100
AcDbSymbolTableRecord
100
AcDbBlockTableRecord
  2
*Paper_Space15
340
117
  0
ENDTAB
  0
ENDSEC
  0
SECTION
  2
BLOCKS
  0
BLOCK
  5
18
330
17
100
AcDbEntity
  8
0
100
AcDbBlockBegin
  2
*Model_Space
 70
     0
 10
0.0
 20
0.0
 30
0.0
  3
*Model_Space
  1

  0
ENDBLK
  5
19
330
17
100
AcDbEntity
  8
0
100
AcDbBlockEnd
  0
BLOCK
  5
1C
330
1B
100
AcDbEntity
 67
     1
  8
0
100
AcDbBlockBegin
  2
*Paper_Space
 70
     0
 10
0.0
 20
0.0
 30
0.0
  3
*Paper_Space
  1

  0
ENDBLK
  5
1D
330
1B
100
AcDbEntity
 67
     1
  8
0
100
AcDbBlockEnd
  0
BLOCK
  5
C7
330
C6
100
AcDbEntity
  8
0
100
AcDbBlockBegin
  2
*Paper_Space0
 70
     0
 10
0.0
 20
0.0
 30
0.0
  3
*Paper_Space0
  1

  0
VIEWPORT
  5
CA
330
C6
100
AcDbEntity
  8
VIEWPORTS
100
AcDbViewport
 10
342.9786885245902
 20
159.211475409836
 30
0.0
 40
706.9573770491805
 41
348.1229508196722
 69
     1
 12
342.9786885245902
 22
159.211475409836
 13
0.0
 23
0.0
 14
10.0
 24
10.0
 15
10.0
 25
10.0
 16
0.0
 26
0.0
 36
0.0
 17
0.0
 27
0.0
 37
0.0
 42
50.0
 43
0.0
 44
0.0
 45
348.1229508196722
 50
0.0
 51
0.0
 72
   100
 90
    32800
  1

281
     0
 71
     0
 74
     0
110
0.0
120
0.0
130
0.0
111
1.0
121
0.0
131
0.0
112
0.0
122
1.0
132
0.0
 79
     0
146
0.0
  0
VIEWPORT
  5
CB
330
C6
100
AcDbEntity
  8
VIEWPORTS
100
AcDbViewport
 10
105.0
 20
148.5
 30
0.0
 40
210.0
 41
297.0
 69
     2
 12
315.0
 22
-148.5
 13
0.0
 23
0.0
 14
10.0
 24
10.0
 15
10.0
 25
10.0
 16
0.0
 26
0.0
 36
0.0
 17
0.0
 27
0.0
 37
0.0
 42
50.0
 43
0.0
 44
0.0
 45
297.0
 50
0.0
 51
0.0
 72
   100
 90
        0
  1

281
     0
 71
     0
 74
     0
110
0.0
120
0.0
130
0.0
111
1.0
121
0.0
131
0.0
112
0.0
122
1.0
132
0.0
 79
     0
146
0.0
  0
ENDBLK
  5
C8
330
C6
100
AcDbEntity
  8
0
100
AcDbBlockEnd
  0
BLOCK
  5
11B
330
11A
100
AcDbEntity
  8
0
100
AcDbBlockBegin
  2
*Paper_Space1
 70
     0
 10
0.0
 20
0.0
 30
0.0
  3
*Paper_Space1
  1

  0
VIEWPORT
  5
11E
330
11A
100
AcDbEntity
  8
VIEWPORTS
100
AcDbViewport
 10
321.2261538461539
 20
148.5
 30
0.0
 40
663.4523076923078
 41
326.7000000000001
 69
     1
 12
321.2261538461539
 22
148.5
 13
0.0
 23
0.0
 14
10.0
 24
10.0
 15
10.0
 25
10.0
 16
0.0
 26
0.0
 36
0.0
 17
0.0
 27
0.0
 37
0.0
 42
50.0
 43
0.0
 44
0.0
 45
326.7000000000001
 50
0.0
 51
0.0
 72
   100
 90
    32800
  1

281
     0
 71
     0
 74
     0
110
0.0
120
0.0
130
0.0
111
1.0
121
0.0
131
0.0
112
0.0
122
1.0
132
0.0
 79
     0
146
0.0
  0
VIEWPORT
  5
11F
330
11A
100
AcDbEntity
  8
VIEWPORTS
100
AcDbViewport
 10
105.0
 20
148.5
 30
0.0
 40
210.0
 41
297.0
 69
     2
 12
735.0
 22
-1039.5
 13
0.0
 23
0.0
 14
10.0
 24
10.0
 15
10.0
 25
10.0
 16
0.0
 26
0.0
 36
0.0
 17
0.0
 27
0.0
 37
0.0
 42
50.0
 43
0.0
 44
0.0
 45
297.0
 50
0.0
 51
0.0
 72
   100
 90
        0
  1

281
     0
 71
     0
 74
     0
110
0.0
120
0.0
130
0.0
111
1.0
121
0.0
131
0.0
112
0.0
122
1.0
132
0.0
 79
     0
146
0.0
  0
ENDBLK
  5
11C
330
11A
100
AcDbEntity
  8
0
100
AcDbBlockEnd
  0
BLOCK
  5
C1
330
C0
100
AcDbEntity
  8
0
100
AcDbBlockBegin
  2
*Paper_Space2
 70
     0
 10
0.0
 20
0.0
 30
0.0
  3
*Paper_Space2
  1

  0
VIEWPORT
  5
C4
330
C0
100
AcDbEntity
  8
VIEWPORTS
100
AcDbViewport
 10
342.9786885245902
 20
159.211475409836
 30
0.0
 40
706.9573770491805
 41
348.1229508196722
 69
     1
 12
342.9786885245902
 22
159.211475409836
 13
0.0
 23
0.0
 14
10.0
 24
10.0
 15
10.0
 25
10.0
 16
0.0
 26
0.0
 36
0.0
 17
0.0
 27
0.0
 37
0.0
 42
50.0
 43
0.0
 44
0.0
 45
348.1229508196722
 50
0.0
 51
0.0
 72
   100
 90
    32800
  1

281
     0
 71
     0
 74
     0
110
0.0
120
0.0
130
0.0
111
1.0
121
0.0
131
0.0
112
0.0
122
1.0
132
0.0
 79
     0
146
0.0
  0
VIEWPORT
  5
C5
330
C0
100
AcDbEntity
  8
VIEWPORTS
100
AcDbViewport
 10
105.0
 20
148.5
 30
0.0
 40
210.0
 41
297.0
 69
     2
 12
105.0
 22
-148.5
 13
0.0
 23
0.0
 14
10.0
 24
10.0
 15
10.0
 25
10.0
 16
0.0
 26
0.0
 36
0.0
 17
0.0
 27
0.0
 37
0.0
 42
50.0
 43
0.0
 44
0.0
 45
297.0
 50
0.0
 51
0.0
 72
   100
 90
        0
  1

281
     0
 71
     0
 74
     0
110
0.0
120
0.0
130
0.0
111
1.0
121
0.0
131
0.0
112
0.0
122
1.0
132
0.0
 79
     0
146
0.0
  0
ENDBLK
  5
C2
330
C0
100
AcDbEntity
  8
0
100
AcDbBlockEnd
  0
BLOCK
  5
CD
330
CC
100
AcDbEntity
  8
0
100
AcDbBlockBegin
  2
*Paper_Space3
 70
     0
 10
0.0
 20
0.0
 30
0.0
  3
*Paper_Space3
  1

  0
VIEWPORT
  5
D0
330
CC
100
AcDbEntity
  8
VIEWPORTS
100
AcDbViewport
 10
342.9786885245902
 20
159.211475409836
 30
0.0
 40
706.9573770491805
 41
348.1229508196722
 69
     1
 12
342.9786885245902
 22
159.211475409836
 13
0.0
 23
0.0
 14
10.0
 24
10.0
 15
10.0
 25
10.0
 16
0.0
 26
0.0
 36
0.0
 17
0.0
 27
0.0
 37
0.0
 42
50.0
 43
0.0
 44
0.0
 45
348.1229508196722
 50
0.0
 51
0.0
 72
   100
 90
    32800
  1

281
     0
 71
     0
 74
     0
110
0.0
120
0.0
130
0.0
111
1.0
121
0.0
131
0.0
112
0.0
122
1.0
132
0.0
 79
     0
146
0.0
  0
VIEWPORT
  5
D1
330
CC
100
AcDbEntity
  8
VIEWPORTS
100
AcDbViewport
 10
105.0
 20
148.5
 30
0.0
 40
210.0
 41
297.0
 69
     2
 12
525.0
 22
-148.5
 13
0.0
 23
0.0
 14
10.0
 24
10.0
 15
10.0
 25
10.0
 16
0.0
 26
0.0
 36
0.0
 17
0.0
 27
0.0
 37
0.0
 42
50.0
 43
0.0
 44
0.0
 45
297.0
 50
0.0
 51
0.0
 72
   100
 90
        0
  1

281
     0
 71
     0
 74
     0
110
0.0
120
0.0
130
0.0
111
1.0
121
0.0
131
0.0
112
0.0
122
1.0
132
0.0
 79
     0
146
0.0
  0
ENDBLK
  5
CE
330
CC
100
AcDbEntity
  8
0
100
AcDbBlockEnd
  0
BLOCK
  5
D3
330
D2
100
AcDbEntity
  8
0
100
AcDbBlockBegin
  2
*Paper_Space4
 70
     0
 10
0.0
 20
0.0
 30
0.0
  3
*Paper_Space4
  1

  0
VIEWPORT
  5
D6
330
D2
100
AcDbEntity
  8
VIEWPORTS
100
AcDbViewport
 10
321.2261538461539
 20
148.5
 30
0.0
 40
663.4523076923078
 41
326.7000000000001
 69
     1
 12
321.2261538461539
 22
148.5
 13
0.0
 23
0.0
 14
10.0
 24
10.0
 15
10.0
 25
10.0
 16
0.0
 26
0.0
 36
0.0
 17
0.0
 27
0.0
 37
0.0
 42
50.0
 43
0.0
 44
0.0
 45
326.7000000000001
 50
0.0
 51
0.0
 72
   100
 90
    32800
  1

281
     0
 71
     0
 74
     0
110
0.0
120
0.0
130
0.0
111
1.0
121
0.0
131
0.0
112
0.0
122
1.0
132
0.0
 79
     0
146
0.0
  0
VIEWPORT
  5
D7
330
D2
100
AcDbEntity
  8
VIEWPORTS
100
AcDbViewport
 10
105.0
 20
148.5
 30
0.0
 40
210.0
 41
297.0
 69
     2
 12
735.0
 22
-148.5
 13
0.0
 23
0.0
 14
10.0
 24
10.0
 15
10.0
 25
10.0
 16
0.0
 26
0.0
 36
0.0
 17
0.0
 27
0.0
 37
0.0
 42
50.0
 43
0.0
 44
0.0
 45
297.0
 50
0.0
 51
0.0
 72
   100
 90
        0
  1

281
     0
 71
     0
 74
     0
110
0.0
120
0.0
130
0.0
111
1.0
121
0.0
131
0.0
112
0.0
122
1.0
132
0.0
 79
     0
146
0.0
  0
ENDBLK
  5
D4
330
D2
100
AcDbEntity
  8
0
100
AcDbBlockEnd
  0
BLOCK
  5
D9
330
D8
100
AcDbEntity
  8
0
100
AcDbBlockBegin
  2
*Paper_Space5
 70
     0
 10
0.0
 20
0.0
 30
0.0
  3
*Paper_Space5
  1

  0
VIEWPORT
  5
DC
330
D8
100
AcDbEntity
  8
VIEWPORTS
100
AcDbViewport
 10
321.2261538461539
 20
148.5
 30
0.0
 40
663.4523076923078
 41
326.7000000000001
 69
     1
 12
321.2261538461539
 22
148.5
 13
0.0
 23
0.0
 14
10.0
 24
10.0
 15
10.0
 25
10.0
 16
0.0
 26
0.0
 36
0.0
 17
0.0
 27
0.0
 37
0.0
 42
50.0
 43
0.0
 44
0.0
 45
326.7000000000001
 50
0.0
 51
0.0
 72
   100
 90
    32800
  1

281
     0
 71
     0
 74
     0
110
0.0
120
0.0
130
0.0
111
1.0
121
0.0
131
0.0
112
0.0
122
1.0
132
0.0
 79
     0
146
0.0
  0
VIEWPORT
  5
DD
330
D8
100
AcDbEntity
  8
VIEWPORTS
100
AcDbViewport
 10
105.0
 20
148.5
 30
0.0
 40
210.0
 41
297.0
 69
     2
 12
105.0
 22
-445.5
 13
0.0
 23
0.0
 14
10.0
 24
10.0
 15
10.0
 25
10.0
 16
0.0
 26
0.0
 36
0.0
 17
0.0
 27
0.0
 37
0.0
 42
50.0
 43
0.0
 44
0.0
 45
297.0
 50
0.0
 51
0.0
 72
   100
 90
        0
  1

281
     0
 71
     0
 74
     0
110
0.0
120
0.0
130
0.0
111
1.0
121
0.0
131
0.0
112
0.0
122
1.0
132
0.0
 79
     0
146
0.0
  0
ENDBLK
  5
DA
330
D8
100
AcDbEntity
  8
0
100
AcDbBlockEnd
  0
BLOCK
  5
DF
330
DE
100
AcDbEntity
  8
0
100
AcDbBlockBegin
  2
*Paper_Space6
 70
     0
 10
0.0
 20
0.0
 30
0.0
  3
*Paper_Space6
  1

  0
VIEWPORT
  5
E2
330
DE
100
AcDbEntity
  8
VIEWPORTS
100
AcDbViewport
 10
321.2261538461539
 20
148.5
 30
0.0
 40
663.4523076923078
 41
326.7000000000001
 69
     1
 12
321.2261538461539
 22
148.5
 13
0.0
 23
0.0
 14
10.0
 24
10.0
 15
10.0
 25
10.0
 16
0.0
 26
0.0
 36
0.0
 17
0.0
 27
0.0
 37
0.0
 42
50.0
 43
0.0
 44
0.0
 45
326.7000000000001
 50
0.0
 51
0.0
 72
   100
 90
    32800
  1

281
     0
 71
     0
 74
     0
110
0.0
120
0.0
130
0.0
111
1.0
121
0.0
131
0.0
112
0.0
122
1.0
132
0.0
 79
     0
146
0.0
  0
VIEWPORT
  5
E3
330
DE
100
AcDbEntity
  8
VIEWPORTS
100
AcDbViewport
 10
105.0
 20
148.5
 30
0.0
 40
210.0
 41
297.0
 69
     2
 12
315.0
 22
-445.5
 13
0.0
 23
0.0
 14
10.0
 24
10.0
 15
10.0
 25
10.0
 16
0.0
 26
0.0
 36
0.0
 17
0.0
 27
0.0
 37
0.0
 42
50.0
 43
0.0
 44
0.0
 45
297.0
 50
0.0
 51
0.0
 72
   100
 90
        0
  1

281
     0
 71
     0
 74
     0
110
0.0
120
0.0
130
0.0
111
1.0
121
0.0
131
0.0
112
0.0
122
1.0
132
0.0
 79
     0
146
0.0
  0
ENDBLK
  5
E0
330
DE
100
AcDbEntity
  8
0
100
AcDbBlockEnd
  0
BLOCK
  5
E5
330
E4
100
AcDbEntity
  8
0
100
AcDbBlockBegin
  2
*Paper_Space7
 70
     0
 10
0.0
 20
0.0
 30
0.0
  3
*Paper_Space7
  1

  0
VIEWPORT
  5
E8
330
E4
100
AcDbEntity
  8
VIEWPORTS
100
AcDbViewport
 10
321.2261538461539
 20
148.5
 30
0.0
 40
663.4523076923078
 41
326.7000000000001
 69
     1
 12
321.2261538461539
 22
148.5
 13
0.0
 23
0.0
 14
10.0
 24
10.0
 15
10.0
 25
10.0
 16
0.0
 26
0.0
 36
0.0
 17
0.0
 27
0.0
 37
0.0
 42
50.0
 43
0.0
 44
0.0
 45
326.7000000000001
 50
0.0
 51
0.0
 72
   100
 90
    32800
  1

281
     0
 71
     0
 74
     0
110
0.0
120
0.0
130
0.0
111
1.0
121
0.0
131
0.0
112
0.0
122
1.0
132
0.0
 79
     0
146
0.0
  0
VIEWPORT
  5
E9
330
E4
100
AcDbEntity
  8
VIEWPORTS
100
AcDbViewport
 10
105.0
 20
148.5
 30
0.0
 40
210.0
 41
297.0
 69
     2
 12
525.0
 22
-445.5
 13
0.0
 23
0.0
 14
10.0
 24
10.0
 15
10.0
 25
10.0
 16
0.0
 26
0.0
 36
0.0
 17
0.0
 27
0.0
 37
0.0
 42
50.0
 43
0.0
 44
0.0
 45
297.0
 50
0.0
 51
0.0
 72
   100
 90
        0
  1

281
     0
 71
     0
 74
     0
110
0.0
120
0.0
130
0.0
111
1.0
121
0.0
131
0.0
112
0.0
122
1.0
132
0.0
 79
     0
146
0.0
  0
ENDBLK
  5
E6
330
E4
100
AcDbEntity
  8
0
100
AcDbBlockEnd
  0
BLOCK
  5
EB
330
EA
100
AcDbEntity
  8
0
100
AcDbBlockBegin
  2
*Paper_Space8
 70
     0
 10
0.0
 20
0.0
 30
0.0
  3
*Paper_Space8
  1

  0
VIEWPORT
  5
EE
330
EA
100
AcDbEntity
  8
VIEWPORTS
100
AcDbViewport
 10
321.2261538461539
 20
148.5
 30
0.0
 40
663.4523076923078
 41
326.7000000000001
 69
     1
 12
321.2261538461539
 22
148.5
 13
0.0
 23
0.0
 14
10.0
 24
10.0
 15
10.0
 25
10.0
 16
0.0
 26
0.0
 36
0.0
 17
0.0
 27
0.0
 37
0.0
 42
50.0
 43
0.0
 44
0.0
 45
326.7000000000001
 50
0.0
 51
0.0
 72
   100
 90
    32800
  1

281
     0
 71
     0
 74
     0
110
0.0
120
0.0
130
0.0
111
1.0
121
0.0
131
0.0
112
0.0
122
1.0
132
0.0
 79
     0
146
0.0
  0
VIEWPORT
  5
EF
330
EA
100
AcDbEntity
  8
VIEWPORTS
100
AcDbViewport
 10
105.0
 20
148.5
 30
0.0
 40
210.0
 41
297.0
 69
     2
 12
735.0
 22
-445.5
 13
0.0
 23
0.0
 14
10.0
 24
10.0
 15
10.0
 25
10.0
 16
0.0
 26
0.0
 36
0.0
 17
0.0
 27
0.0
 37
0.0
 42
50.0
 43
0.0
 44
0.0
 45
297.0
 50
0.0
 51
0.0
 72
   100
 90
        0
  1

281
     0
 71
     0
 74
     0
110
0.0
120
0.0
130
0.0
111
1.0
121
0.0
131
0.0
112
0.0
122
1.0
132
0.0
 79
     0
146
0.0
  0
ENDBLK
  5
EC
330
EA
100
AcDbEntity
  8
0
100
AcDbBlockEnd
  0
BLOCK
  5
F1
330
F0
100
AcDbEntity
  8
0
100
AcDbBlockBegin
  2
*Paper_Space9
 70
     0
 10
0.0
 20
0.0
 30
0.0
  3
*Paper_Space9
  1

  0
VIEWPORT
  5
F4
330
F0
100
AcDbEntity
  8
VIEWPORTS
100
AcDbViewport
 10
321.2261538461539
 20
148.5
 30
0.0
 40
663.4523076923078
 41
326.7000000000001
 69
     1
 12
321.2261538461539
 22
148.5
 13
0.0
 23
0.0
 14
10.0
 24
10.0
 15
10.0
 25
10.0
 16
0.0
 26
0.0
 36
0.0
 17
0.0
 27
0.0
 37
0.0
 42
50.0
 43
0.0
 44
0.0
 45
326.7000000000001
 50
0.0
 51
0.0
 72
   100
 90
    32800
  1

281
     0
 71
     0
 74
     0
110
0.0
120
0.0
130
0.0
111
1.0
121
0.0
131
0.0
112
0.0
122
1.0
132
0.0
 79
     0
146
0.0
  0
VIEWPORT
  5
F5
330
F0
100
AcDbEntity
  8
VIEWPORTS
100
AcDbViewport
 10
105.0
 20
148.5
 30
0.0
 40
210.0
 41
297.0
 69
     2
 12
105.0
 22
-742.4999999999999
 13
0.0
 23
0.0
 14
10.0
 24
10.0
 15
10.0
 25
10.0
 16
0.0
 26
0.0
 36
0.0
 17
0.0
 27
0.0
 37
0.0
 42
50.0
 43
0.0
 44
0.0
 45
297.0
 50
0.0
 51
0.0
 72
   100
 90
        0
  1

281
     0
 71
     0
 74
     0
110
0.0
120
0.0
130
0.0
111
1.0
121
0.0
131
0.0
112
0.0
122
1.0
132
0.0
 79
     0
146
0.0
  0
ENDBLK
  5
F2
330
F0
100
AcDbEntity
  8
0
100
AcDbBlockEnd
  0
BLOCK
  5
F7
330
F6
100
AcDbEntity
  8
0
100
AcDbBlockBegin
  2
*Paper_Space10
 70
     0
 10
0.0
 20
0.0
 30
0.0
  3
*Paper_Space10
  1

  0
VIEWPORT
  5
FA
330
F6
100
AcDbEntity
  8
VIEWPORTS
100
AcDbViewport
 10
321.2261538461539
 20
148.5
 30
0.0
 40
663.4523076923078
 41
326.7000000000001
 69
     1
 12
321.2261538461539
 22
148.5
 13
0.0
 23
0.0
 14
10.0
 24
10.0
 15
10.0
 25
10.0
 16
0.0
 26
0.0
 36
0.0
 17
0.0
 27
0.0
 37
0.0
 42
50.0
 43
0.0
 44
0.0
 45
326.7000000000001
 50
0.0
 51
0.0
 72
   100
 90
    32800
  1

281
     0
 71
     0
 74
     0
110
0.0
120
0.0
130
0.0
111
1.0
121
0.0
131
0.0
112
0.0
122
1.0
132
0.0
 79
     0
146
0.0
  0
VIEWPORT
  5
FB
330
F6
100
AcDbEntity
  8
VIEWPORTS
100
AcDbViewport
 10
105.0
 20
148.5
 30
0.0
 40
210.0
 41
297.0
 69
     2
 12
315.0
 22
-742.4999999999999
 13
0.0
 23
0.0
 14
10.0
 24
10.0
 15
10.0
 25
10.0
 16
0.0
 26
0.0
 36
0.0
 17
0.0
 27
0.0
 37
0.0
 42
50.0
 43
0.0
 44
0.0
 45
297.0
 50
0.0
 51
0.0
 72
   100
 90
        0
  1

281
     0
 71
     0
 74
     0
110
0.0
120
0.0
130
0.0
111
1.0
121
0.0
131
0.0
112
0.0
122
1.0
132
0.0
 79
     0
146
0.0
  0
ENDBLK
  5
F8
330
F6
100
AcDbEntity
  8
0
100
AcDbBlockEnd
  0
BLOCK
  5
FD
330
FC
100
AcDbEntity
  8
0
100
AcDbBlockBegin
  2
*Paper_Space11
 70
     0
 10
0.0
 20
0.0
 30
0.0
  3
*Paper_Space11
  1

  0
VIEWPORT
  5
100
330
FC
100
AcDbEntity
  8
VIEWPORTS
100
AcDbViewport
 10
321.2261538461539
 20
148.5
 30
0.0
 40
663.4523076923078
 41
326.7000000000001
 69
     1
 12
321.2261538461539
 22
148.5
 13
0.0
 23
0.0
 14
10.0
 24
10.0
 15
10.0
 25
10.0
 16
0.0
 26
0.0
 36
0.0
 17
0.0
 27
0.0
 37
0.0
 42
50.0
 43
0.0
 44
0.0
 45
326.7000000000001
 50
0.0
 51
0.0
 72
   100
 90
    32800
  1

281
     0
 71
     0
 74
     0
110
0.0
120
0.0
130
0.0
111
1.0
121
0.0
131
0.0
112
0.0
122
1.0
132
0.0
 79
     0
146
0.0
  0
VIEWPORT
  5
101
330
FC
100
AcDbEntity
  8
VIEWPORTS
100
AcDbViewport
 10
105.0
 20
148.5
 30
0.0
 40
210.0
 41
297.0
 69
     2
 12
525.0
 22
-742.4999999999999
 13
0.0
 23
0.0
 14
10.0
 24
10.0
 15
10.0
 25
10.0
 16
0.0
 26
0.0
 36
0.0
 17
0.0
 27
0.0
 37
0.0
 42
50.0
 43
0.0
 44
0.0
 45
297.0
 50
0.0
 51
0.0
 72
   100
 90
        0
  1

281
     0
 71
     0
 74
     0
110
0.0
120
0.0
130
0.0
111
1.0
121
0.0
131
0.0
112
0.0
122
1.0
132
0.0
 79
     0
146
0.0
  0
ENDBLK
  5
FE
330
FC
100
AcDbEntity
  8
0
100
AcDbBlockEnd
  0
BLOCK
  5
103
330
102
100
AcDbEntity
  8
0
100
AcDbBlockBegin
  2
*Paper_Space12
 70
     0
 10
0.0
 20
0.0
 30
0.0
  3
*Paper_Space12
  1

  0
VIEWPORT
  5
106
330
102
100
AcDbEntity
  8
VIEWPORTS
100
AcDbViewport
 10
321.2261538461539
 20
148.5
 30
0.0
 40
663.4523076923078
 41
326.7000000000001
 69
     1
 12
321.2261538461539
 22
148.5
 13
0.0
 23
0.0
 14
10.0
 24
10.0
 15
10.0
 25
10.0
 16
0.0
 26
0.0
 36
0.0
 17
0.0
 27
0.0
 37
0.0
 42
50.0
 43
0.0
 44
0.0
 45
326.7000000000001
 50
0.0
 51
0.0
 72
   100
 90
    32800
  1

281
     0
 71
     0
 74
     0
110
0.0
120
0.0
130
0.0
111
1.0
121
0.0
131
0.0
112
0.0
122
1.0
132
0.0
 79
     0
146
0.0
  0
VIEWPORT
  5
107
330
102
100
AcDbEntity
  8
VIEWPORTS
100
AcDbViewport
 10
105.0
 20
148.5
 30
0.0
 40
210.0
 41
297.0
 69
     2
 12
735.0
 22
-742.4999999999999
 13
0.0
 23
0.0
 14
10.0
 24
10.0
 15
10.0
 25
10.0
 16
0.0
 26
0.0
 36
0.0
 17
0.0
 27
0.0
 37
0.0
 42
50.0
 43
0.0
 44
0.0
 45
297.0
 50
0.0
 51
0.0
 72
   100
 90
        0
  1

281
     0
 71
     0
 74
     0
110
0.0
120
0.0
130
0.0
111
1.0
121
0.0
131
0.0
112
0.0
122
1.0
132
0.0
 79
     0
146
0.0
  0
ENDBLK
  5
104
330
102
100
AcDbEntity
  8
0
100
AcDbBlockEnd
  0
BLOCK
  5
109
330
108
100
AcDbEntity
  8
0
100
AcDbBlockBegin
  2
*Paper_Space13
 70
     0
 10
0.0
 20
0.0
 30
0.0
  3
*Paper_Space13
  1

  0
VIEWPORT
  5
10C
330
108
100
AcDbEntity
  8
VIEWPORTS
100
AcDbViewport
 10
321.2261538461539
 20
148.5
 30
0.0
 40
663.4523076923078
 41
326.7000000000001
 69
     1
 12
321.2261538461539
 22
148.5
 13
0.0
 23
0.0
 14
10.0
 24
10.0
 15
10.0
 25
10.0
 16
0.0
 26
0.0
 36
0.0
 17
0.0
 27
0.0
 37
0.0
 42
50.0
 43
0.0
 44
0.0
 45
326.7000000000001
 50
0.0
 51
0.0
 72
   100
 90
    32800
  1

281
     0
 71
     0
 74
     0
110
0.0
120
0.0
130
0.0
111
1.0
121
0.0
131
0.0
112
0.0
122
1.0
132
0.0
 79
     0
146
0.0
  0
VIEWPORT
  5
10D
330
108
100
AcDbEntity
  8
VIEWPORTS
100
AcDbViewport
 10
105.0
 20
148.5
 30
0.0
 40
210.0
 41
297.0
 69
     2
 12
105.0
 22
-1039.5
 13
0.0
 23
0.0
 14
10.0
 24
10.0
 15
10.0
 25
10.0
 16
0.0
 26
0.0
 36
0.0
 17
0.0
 27
0.0
 37
0.0
 42
50.0
 43
0.0
 44
0.0
 45
297.0
 50
0.0
 51
0.0
 72
   100
 90
        0
  1

281
     0
 71
     0
 74
     0
110
0.0
120
0.0
130
0.0
111
1.0
121
0.0
131
0.0
112
0.0
122
1.0
132
0.0
 79
     0
146
0.0
  0
ENDBLK
  5
10A
330
108
100
AcDbEntity
  8
0
100
AcDbBlockEnd
  0
BLOCK
  5
10F
330
10E
100
AcDbEntity
  8
0
100
AcDbBlockBegin
  2
*Paper_Space14
 70
     0
 10
0.0
 20
0.0
 30
0.0
  3
*Paper_Space14
  1

  0
VIEWPORT
  5
112
330
10E
100
AcDbEntity
  8
VIEWPORTS
100
AcDbViewport
 10
321.2261538461539
 20
148.5
 30
0.0
 40
663.4523076923078
 41
326.7000000000001
 69
     1
 12
321.2261538461539
 22
148.5
 13
0.0
 23
0.0
 14
10.0
 24
10.0
 15
10.0
 25
10.0
 16
0.0
 26
0.0
 36
0.0
 17
0.0
 27
0.0
 37
0.0
 42
50.0
 43
0.0
 44
0.0
 45
326.7000000000001
 50
0.0
 51
0.0
 72
   100
 90
    32800
  1

281
     0
 71
     0
 74
     0
110
0.0
120
0.0
130
0.0
111
1.0
121
0.0
131
0.0
112
0.0
122
1.0
132
0.0
 79
     0
146
0.0
  0
VIEWPORT
  5
113
330
10E
100
AcDbEntity
  8
VIEWPORTS
100
AcDbViewport
 10
105.0
 20
148.5
 30
0.0
 40
210.0
 41
297.0
 69
     2
 12
315.0
 22
-1039.5
 13
0.0
 23
0.0
 14
10.0
 24
10.0
 15
10.0
 25
10.0
 16
0.0
 26
0.0
 36
0.0
 17
0.0
 27
0.0
 37
0.0
 42
50.0
 43
0.0
 44
0.0
 45
297.0
 50
0.0
 51
0.0
 72
   100
 90
        0
  1

281
     0
 71
     0
 74
     0
110
0.0
120
0.0
130
0.0
111
1.0
121
0.0
131
0.0
112
0.0
122
1.0
132
0.0
 79
     0
146
0.0
  0
ENDBLK
  5
110
330
10E
100
AcDbEntity
  8
0
100
AcDbBlockEnd
  0
BLOCK
  5
115
330
114
100
AcDbEntity
  8
0
100
AcDbBlockBegin
  2
*Paper_Space15
 70
     0
 10
0.0
 20
0.0
 30
0.0
  3
*Paper_Space15
  1

  0
VIEWPORT
  5
118
330
114
100
AcDbEntity
  8
VIEWPORTS
100
AcDbViewport
 10
321.2261538461539
 20
148.5
 30
0.0
 40
663.4523076923078
 41
326.7000000000001
 69
     1
 12
321.2261538461539
 22
148.5
 13
0.0
 23
0.0
 14
10.0
 24
10.0
 15
10.0
 25
10.0
 16
0.0
 26
0.0
 36
0.0
 17
0.0
 27
0.0
 37
0.0
 42
50.0
 43
0.0
 44
0.0
 45
326.7000000000001
 50
0.0
 51
0.0
 72
   100
 90
    32800
  1

281
     0
 71
     0
 74
     0
110
0.0
120
0.0
130
0.0
111
1.0
121
0.0
131
0.0
112
0.0
122
1.0
132
0.0
 79
     0
146
0.0
  0
VIEWPORT
  5
119
330
114
100
AcDbEntity
  8
VIEWPORTS
100
AcDbViewport
 10
105.0
 20
148.5
 30
0.0
 40
210.0
 41
297.0
 69
     2
 12
525.0
 22
-1039.5
 13
0.0
 23
0.0
 14
10.0
 24
10.0
 15
10.0
 25
10.0
 16
0.0
 26
0.0
 36
0.0
 17
0.0
 27
0.0
 37
0.0
 42
50.0
 43
0.0
 44
0.0
 45
297.0
 50
0.0
 51
0.0
 72
   100
 90
        0
  1

281
     0
 71
     0
 74
     0
110
0.0
120
0.0
130
0.0
111
1.0
121
0.0
131
0.0
112
0.0
122
1.0
132
0.0
 79
     0
146
0.0
  0
ENDBLK
  5
116
330
114
100
AcDbEntity
  8
0
100
AcDbBlockEnd
  0
ENDSEC
  0
SECTION
  2
ENTITIES
  0
LINE
  5
2D
330
17
100
AcDbEntity
  8
0
 62
     9
100
AcDbLine
 10
0.0
 20
0.0
 30
0.0
 11
210.0
 21
0.0
 31
0.0
  0
LINE
  5
2E
330
17
100
AcDbEntity
  8
0
 62
     9
100
AcDbLine
 10
0.0
 20
-297.0
 30
0.0
 11
210.0
 21
-297.0
 31
0.0
  0
LINE
  5
2F
330
17
100
AcDbEntity
  8
0
 62
     9
100
AcDbLine
 10
0.0
 20
0.0
 30
0.0
 11
0.0
 21
-297.0
 31
0.0
  0
LINE
  5
30
330
17
100
AcDbEntity
  8
0
 62
     9
100
AcDbLine
 10
210.0
 20
0.0
 30
0.0
 11
210.0
 21
-297.0
 31
0.0
  0
LINE
  5
31
330
17
100
AcDbEntity
  8
0
 62
     9
100
AcDbLine
 10
80.0
 20
-123.5
 30
0.0
 11
130.0
 21
-123.5
 31
0.0
  0
LINE
  5
32
330
17
100
AcDbEntity
  8
0
 62
     9
100
AcDbLine
 10
130.0
 20
-173.5
 30
0.0
 11
130.0
 21
-123.5
 31
0.0
  0
LINE
  5
33
330
17
100
AcDbEntity
  8
0
 62
     9
100
AcDbLine
 10
80.0
 20
-123.5
 30
0.0
 11
80.0
 21
-173.5
 31
0.0
  0
LINE
  5
34
330
17
100
AcDbEntity
  8
0
 62
     9
100
AcDbLine
 10
80.0
 20
-173.5
 30
0.0
 11
130.0
 21
-173.5
 31
0.0
  0
TEXT
  5
35
330
17
100
AcDbEntity
  8
TEXTLAYER
 62
     1
100
AcDbText
 10
95.0
 20
-148.5
 30
0.0
 40
10.0
  1
1-1
 72
     1
 11
105.0
 21
-148.5
 31
0.0
100
AcDbText
  0
LINE
  5
36
330
17
100
AcDbEntity
  8
0
 62
     9
100
AcDbLine
 10
210.0
 20
0.0
 30
0.0
 11
420.0
 21
0.0
 31
0.0
  0
LINE
  5
37
330
17
100
AcDbEntity
  8
0
 62
     9
100
AcDbLine
 10
210.0
 20
-297.0
 30
0.0
 11
420.0
 21
-297.0
 31
0.0
  0
LINE
  5
38
330
17
100
AcDbEntity
  8
0
 62
     9
100
AcDbLine
 10
210.0
 20
0.0
 30
0.0
 11
210.0
 21
-297.0
 31
0.0
  0
LINE
  5
39
330
17
100
AcDbEntity
  8
0
 62
     9
100
AcDbLine
 10
420.0
 20
0.0
 30
0.0
 11
420.0
 21
-297.0
 31
0.0
  0
LINE
  5
3A
330
17
100
AcDbEntity
  8
0
 62
     9
100
AcDbLine
 10
290.0
 20
-123.5
 30
0.0
 11
340.0
 21
-123.5
 31
0.0
  0
LINE
  5
3B
330
17
100
AcDbEntity
  8
0
 62
     9
100
AcDbLine
 10
340.0
 20
-173.5
 30
0.0
 11
340.0
 21
-123.5
 31
0.0
  0
LINE
  5
3C
330
17
100
AcDbEntity
  8
0
 62
     9
100
AcDbLine
 10
290.0
 20
-123.5
 30
0.0
 11
290.0
 21
-173.5
 31
0.0
  0
LINE
  5
3D
330
17
100
AcDbEntity
  8
0
 62
     9
100
AcDbLine
 10
290.0
 20
-173.5
 30
0.0
 11
340.0
 21
-173.5
 31
0.0
  0
TEXT
  5
3E
330
17
100
AcDbEntity
  8
TEXTLAYER
 62
     1
100
AcDbText
 10
303.3333333333333
 20
-148.5
 30
0.0
 40
10.0
  1
1-2
 72
     1
 11
315.0
 21
-148.5
 31
0.0
100
AcDbText
  0
LINE
  5
3F
330
17
100
AcDbEntity
  8
0
 62
     9
100
AcDbLine
 10
420.0
 20
0.0
 30
0.0
 11
630.0
 21
0.0
 31
0.0
  0
LINE
  5
40
330
17
100
AcDbEntity
  8
0
 62
     9
100
AcDbLine
 10
420.0
 20
-297.0
 30
0.0
 11
630.0
 21
-297.0
 31
0.0
  0
LINE
  5
41
330
17
100
AcDbEntity
  8
0
 62
     9
100
AcDbLine
 10
420.0
 20
0.0
 30
0.0
 11
420.0
 21
-297.0
 31
0.0
  0
LINE
  5
42
330
17
100
AcDbEntity
  8
0
 62
     9
100
AcDbLine
 10
630.0
 20
0.0
 30
0.0
 11
630.0
 21
-297.0
 31
0.0
  0
LINE
  5
43
330
17
100
AcDbEntity
  8
0
 62
     9
100
AcDbLine
 10
500.0
 20
-123.5
 30
0.0
 11
550.0
 21
-123.5
 31
0.0
  0
LINE
  5
44
330
17
100
AcDbEntity
  8
0
 62
     9
100
AcDbLine
 10
550.0
 20
-173.5
 30
0.0
 11
550.0
 21
-123.5
 31
0.0
  0
LINE
  5
45
330
17
100
AcDbEntity
  8
0
 62
     9
100
AcDbLine
 10
500.0
 20
-123.5
 30
0.0
 11
500.0
 21
-173.5
 31
0.0
  0
LINE
  5
46
330
17
100
AcDbEntity
  8
0
 62
     9
100
AcDbLine
 10
500.0
 20
-173.5
 30
0.0
 11
550.0
 21
-173.5
 31
0.0
  0
TEXT
  5
47
330
17
100
AcDbEntity
  8
TEXTLAYER
 62
     1
100
AcDbText
 10
513.3333333333333
 20
-148.5
 30
0.0
 40
10.0
  1
1-3
 72
     1
 11
525.0
 21
-148.5
 31
0.0
100
AcDbText
  0
LINE
  5
48
330
17
100
AcDbEntity
  8
0
 62
     9
100
AcDbLine
 10
630.0
 20
0.0
 30
0.0
 11
840.0
 21
0.0
 31
0.0
  0
LINE
  5
49
330
17
100
AcDbEntity
  8
0
 62
     9
100
AcDbLine
 10
630.0
 20
-297.0
 30
0.0
 11
840.0
 21
-297.0
 31
0.0
  0
LINE
  5
4A
330
17
100
AcDbEntity
  8
0
 62
     9
100
AcDbLine
 10
630.0
 20
0.0
 30
0.0
 11
630.0
 21
-297.0
 31
0.0
  0
LINE
  5
4B
330
17
100
AcDbEntity
  8
0
 62
     9
100
AcDbLine
 10
840.0
 20
0.0
 30
0.0
 11
840.0
 21
-297.0
 31
0.0
  0
LINE
  5
4C
330
17
100
AcDbEntity
  8
0
 62
     9
100
AcDbLine
 10
710.0
 20
-123.5
 30
0.0
 11
760.0
 21
-123.5
 31
0.0
  0
LINE
  5
4D
330
17
100
AcDbEntity
  8
0
 62
     9
100
AcDbLine
 10
760.0
 20
-173.5
 30
0.0
 11
760.0
 21
-123.5
 31
0.0
  0
LINE
  5
4E
330
17
100
AcDbEntity
  8
0
 62
     9
100
AcDbLine
 10
710.0
 20
-123.5
 30
0.0
 11
710.0
 21
-173.5
 31
0.0
  0
LINE
  5
4F
330
17
100
AcDbEntity
  8
0
 62
     9
100
AcDbLine
 10
710.0
 20
-173.5
 30
0.0
 11
760.0
 21
-173.5
 31
0.0
  0
TEXT
  5
50
330
17
100
AcDbEntity
  8
TEXTLAYER
 62
     1
100
AcDbText
 10
723.3333333333334
 20
-148.5
 30
0.0
 40
10.0
  1
1-4
 72
     1
 11
735.0
 21
-148.5
 31
0.0
100
AcDbText
  0
LINE
  5
51
330
17
100
AcDbEntity
  8
0
 62
     9
100
AcDbLine
 10
0.0
 20
-297.0
 30
0.0
 11
210.0
 21
-297.0
 31
0.0
  0
LINE
  5
52
330
17
100
AcDbEntity
  8
0
 62
     9
100
AcDbLine
 10
0.0
 20
-594.0
 30
0.0
 11
210.0
 21
-594.0
 31
0.0
  0
LINE
  5
53
330
17
100
AcDbEntity
  8
0
 62
     9
100
AcDbLine
 10
0.0
 20
-297.0
 30
0.0
 11
0.0
 21
-594.0
 31
0.0
  0
LINE
  5
54
330
17
100
AcDbEntity
  8
0
 62
     9
100
AcDbLine
 10
210.0
 20
-297.0
 30
0.0
 11
210.0
 21
-594.0
 31
0.0
  0
LINE
  5
55
330
17
100
AcDbEntity
  8
0
 62
     9
100
AcDbLine
 10
80.0
 20
-420.5
 30
0.0
 11
130.0
 21
-420.5
 31
0.0
  0
LINE
  5
56
330
17
100
AcDbEntity
  8
0
 62
     9
100
AcDbLine
 10
130.0
 20
-470.5
 30
0.0
 11
130.0
 21
-420.5
 31
0.0
  0
LINE
  5
57
330
17
100
AcDbEntity
  8
0
 62
     9
100
AcDbLine
 10
80.0
 20
-420.5
 30
0.0
 11
80.0
 21
-470.5
 31
0.0
  0
LINE
  5
58
330
17
100
AcDbEntity
  8
0
 62
     9
100
AcDbLine
 10
80.0
 20
-470.5
 30
0.0
 11
130.0
 21
-470.5
 31
0.0
  0
TEXT
  5
59
330
17
100
AcDbEntity
  8
TEXTLAYER
 62
     1
100
AcDbText
 10
93.33333333333333
 20
-445.5
 30
0.0
 40
10.0
  1
2-1
 72
     1
 11
105.0
 21
-445.5
 31
0.0
100
AcDbText
  0
LINE
  5
5A
330
17
100
AcDbEntity
  8
0
 62
     9
100
AcDbLine
 10
210.0
 20
-297.0
 30
0.0
 11
420.0
 21
-297.0
 31
0.0
  0
LINE
  5
5B
330
17
100
AcDbEntity
  8
0
 62
     9
100
AcDbLine
 10
210.0
 20
-594.0
 30
0.0
 11
420.0
 21
-594.0
 31
0.0
  0
LINE
  5
5C
330
17
100
AcDbEntity
  8
0
 62
     9
100
AcDbLine
 10
210.0
 20
-297.0
 30
0.0
 11
210.0
 21
-594.0
 31
0.0
  0
LINE
  5
5D
330
17
100
AcDbEntity
  8
0
 62
     9
100
AcDbLine
 10
420.0
 20
-297.0
 30
0.0
 11
420.0
 21
-594.0
 31
0.0
  0
LINE
  5
5E
330
17
100
AcDbEntity
  8
0
 62
     9
100
AcDbLine
 10
290.0
 20
-420.5
 30
0.0
 11
340.0
 21
-420.5
 31
0.0
  0
LINE
  5
5F
330
17
100
AcDbEntity
  8
0
 62
     9
100
AcDbLine
 10
340.0
 20
-470.5
 30
0.0
 11
340.0
 21
-420.5
 31
0.0
  0
LINE
  5
60
330
17
100
AcDbEntity
  8
0
 62
     9
100
AcDbLine
 10
290.0
 20
-420.5
 30
0.0
 11
290.0
 21
-470.5
 31
0.0
  0
LINE
  5
61
330
17
100
AcDbEntity
  8
0
 62
     9
100
AcDbLine
 10
290.0
 20
-470.5
 30
0.0
 11
340.0
 21
-470.5
 31
0.0
  0
TEXT
  5
62
330
17
100
AcDbEntity
  8
TEXTLAYER
 62
     1
100
AcDbText
 10
301.6666666666667
 20
-445.5
 30
0.0
 40
10.0
  1
2-2
 72
     1
 11
315.0
 21
-445.5
 31
0.0
100
AcDbText
  0
LINE
  5
63
330
17
100
AcDbEntity
  8
0
 62
     9
100
AcDbLine
 10
420.0
 20
-297.0
 30
0.0
 11
630.0
 21
-297.0
 31
0.0
  0
LINE
  5
64
330
17
100
AcDbEntity
  8
0
 62
     9
100
AcDbLine
 10
420.0
 20
-594.0
 30
0.0
 11
630.0
 21
-594.0
 31
0.0
  0
LINE
  5
65
330
17
100
AcDbEntity
  8
0
 62
     9
100
AcDbLine
 10
420.0
 20
-297.0
 30
0.0
 11
420.0
 21
-594.0
 31
0.0
  0
LINE
  5
66
330
17
100
AcDbEntity
  8
0
 62
     9
100
AcDbLine
 10
630.0
 20
-297.0
 30
0.0
 11
630.0
 21
-594.0
 31
0.0
  0
LINE
  5
67
330
17
100
AcDbEntity
  8
0
 62
     9
100
AcDbLine
 10
500.0
 20
-420.5
 30
0.0
 11
550.0
 21
-420.5
 31
0.0
  0
LINE
  5
68
330
17
100
AcDbEntity
  8
0
 62
     9
100
AcDbLine
 10
550.0
 20
-470.5
 30
0.0
 11
550.0
 21
-420.5
 31
0.0
  0
LINE
  5
69
330
17
100
AcDbEntity
  8
0
 62
     9
100
AcDbLine
 10
500.0
 20
-420.5
 30
0.0
 11
500.0
 21
-470.5
 31
0.0
  0
LINE
  5
6A
330
17
100
AcDbEntity
  8
0
 62
     9
100
AcDbLine
 10
500.0
 20
-470.5
 30
0.0
 11
550.0
 21
-470.5
 31
0.0
  0
TEXT
  5
6B
330
17
100
AcDbEntity
  8
TEXTLAYER
 62
     1
100
AcDbText
 10
511.6666666666667
 20
-445.5
 30
0.0
 40
10.0
  1
2-3
 72
     1
 11
525.0
 21
-445.5
 31
0.0
100
AcDbText
  0
LINE
  5
6C
330
17
100
AcDbEntity
  8
0
 62
     9
100
AcDbLine
 10
630.0
 20
-297.0
 30
0.0
 11
840.0
 21
-297.0
 31
0.0
  0
LINE
  5
6D
330
17
100
AcDbEntity
  8
0
 62
     9
100
AcDbLine
 10
630.0
 20
-594.0
 30
0.0
 11
840.0
 21
-594.0
 31
0.0
  0
LINE
  5
6E
330
17
100
AcDbEntity
  8
0
 62
     9
100
AcDbLine
 10
630.0
 20
-297.0
 30
0.0
 11
630.0
 21
-594.0
 31
0.0
  0
LINE
  5
6F
330
17
100
AcDbEntity
  8
0
 62
     9
100
AcDbLine
 10
840.0
 20
-297.0
 30
0.0
 11
840.0
 21
-594.0
 31
0.0
  0
LINE
  5
70
330
17
100
AcDbEntity
  8
0
 62
     9
100
AcDbLine
 10
710.0
 20
-420.5
 30
0.0
 11
760.0
 21
-420.5
 31
0.0
  0
LINE
  5
71
330
17
100
AcDbEntity
  8
0
 62
     9
100
AcDbLine
 10
760.0
 20
-470.5
 30
0.0
 11
760.0
 21
-420.5
 31
0.0
  0
LINE
  5
72
330
17
100
AcDbEntity
  8
0
 62
     9
100
AcDbLine
 10
710.0
 20
-420.5
 30
0.0
 11
710.0
 21
-470.5
 31
0.0
  0
LINE
  5
73
330
17
100
AcDbEntity
  8
0
 62
     9
100
AcDbLine
 10
710.0
 20
-470.5
 30
0.0
 11
760.0
 21
-470.5
 31
0.0
  0
TEXT
  5
74
330
17
100
AcDbEntity
  8
TEXTLAYER
 62
     1
100
AcDbText
 10
721.6666666666666
 20
-445.5
 30
0.0
 40
10.0
  1
2-4
 72
     1
 11
735.0
 21
-445.5
 31
0.0
100
AcDbText
  0
LINE
  5
75
330
17
100
AcDbEntity
  8
0
 62
     9
100
AcDbLine
 10
0.0
 20
-594.0
 30
0.0
 11
210.0
 21
-594.0
 31
0.0
  0
LINE
  5
76
330
17
100
AcDbEntity
  8
0
 62
     9
100
AcDbLine
 10
0.0
 20
-891.0
 30
0.0
 11
210.0
 21
-891.0
 31
0.0
  0
LINE
  5
77
330
17
100
AcDbEntity
  8
0
 62
     9
100
AcDbLine
 10
0.0
 20
-594.0
 30
0.0
 11
0.0
 21
-891.0
 31
0.0
  0
LINE
  5
78
330
17
100
AcDbEntity
  8
0
 62
     9
100
AcDbLine
 10
210.0
 20
-594.0
 30
0.0
 11
210.0
 21
-891.0
 31
0.0
  0
LINE
  5
79
330
17
100
AcDbEntity
  8
0
 62
     9
100
AcDbLine
 10
80.0
 20
-717.4999999999999
 30
0.0
 11
130.0
 21
-717.4999999999999
 31
0.0
  0
LINE
  5
7A
330
17
100
AcDbEntity
  8
0
 62
     9
100
AcDbLine
 10
130.0
 20
-767.4999999999999
 30
0.0
 11
130.0
 21
-717.4999999999999
 31
0.0
  0
LINE
  5
7B
330
17
100
AcDbEntity
  8
0
 62
     9
100
AcDbLine
 10
80.0
 20
-717.4999999999999
 30
0.0
 11
80.0
 21
-767.4999999999999
 31
0.0
  0
LINE
  5
7C
330
17
100
AcDbEntity
  8
0
 62
     9
100
AcDbLine
 10
80.0
 20
-767.4999999999999
 30
0.0
 11
130.0
 21
-767.4999999999999
 31
0.0
  0
TEXT
  5
7D
330
17
100
AcDbEntity
  8
TEXTLAYER
 62
     1
100
AcDbText
 10
93.33333333333333
 20
-742.4999999999999
 30
0.0
 40
10.0
  1
3-1
 72
     1
 11
105.0
 21
-742.4999999999999
 31
0.0
100
AcDbText
  0
LINE
  5
7E
330
17
100
AcDbEntity
  8
0
 62
     9
100
AcDbLine
 10
210.0
 20
-594.0
 30
0.0
 11
420.0
 21
-594.0
 31
0.0
  0
LINE
  5
7F
330
17
100
AcDbEntity
  8
0
 62
     9
100
AcDbLine
 10
210.0
 20
-891.0
 30
0.0
 11
420.0
 21
-891.0
 31
0.0
  0
LINE
  5
80
330
17
100
AcDbEntity
  8
0
 62
     9
100
AcDbLine
 10
210.0
 20
-594.0
 30
0.0
 11
210.0
 21
-891.0
 31
0.0
  0
LINE
  5
81
330
17
100
AcDbEntity
  8
0
 62
     9
100
AcDbLine
 10
420.0
 20
-594.0
 30
0.0
 11
420.0
 21
-891.0
 31
0.0
  0
LINE
  5
82
330
17
100
AcDbEntity
  8
0
 62
     9
100
AcDbLine
 10
290.0
 20
-717.4999999999999
 30
0.0
 11
340.0
 21
-717.4999999999999
 31
0.0
  0
LINE
  5
83
330
17
100
AcDbEntity
  8
0
 62
     9
100
AcDbLine
 10
340.0
 20
-767.4999999999999
 30
0.0
 11
340.0
 21
-717.4999999999999
 31
0.0
  0
LINE
  5
84
330
17
100
AcDbEntity
  8
0
 62
     9
100
AcDbLine
 10
290.0
 20
-717.4999999999999
 30
0.0
 11
290.0
 21
-767.4999999999999
 31
0.0
  0
LINE
  5
85
330
17
100
AcDbEntity
  8
0
 62
     9
100
AcDbLine
 10
290.0
 20
-767.4999999999999
 30
0.0
 11
340.0
 21
-767.4999999999999
 31
0.0
  0
TEXT
  5
86
330
17
100
AcDbEntity
  8
TEXTLAYER
 62
     1
100
AcDbText
 10
301.6666666666667
 20
-742.4999999999999
 30
0.0
 40
10.0
  1
3-2
 72
     1
 11
315.0
 21
-742.4999999999999
 31
0.0
100
AcDbText
  0
LINE
  5
87
330
17
100
AcDbEntity
  8
0
 62
     9
100
AcDbLine
 10
420.0
 20
-594.0
 30
0.0
 11
630.0
 21
-594.0
 31
0.0
  0
LINE
  5
88
330
17
100
AcDbEntity
  8
0
 62
     9
100
AcDbLine
 10
420.0
 20
-891.0
 30
0.0
 11
630.0
 21
-891.0
 31
0.0
  0
LINE
  5
89
330
17
100
AcDbEntity
  8
0
 62
     9
100
AcDbLine
 10
420.0
 20
-594.0
 30
0.0
 11
420.0
 21
-891.0
 31
0.0
  0
LINE
  5
8A
330
17
100
AcDbEntity
  8
0
 62
     9
100
AcDbLine
 10
630.0
 20
-594.0
 30
0.0
 11
630.0
 21
-891.0
 31
0.0
  0
LINE
  5
8B
330
17
100
AcDbEntity
  8
0
 62
     9
100
AcDbLine
 10
500.0
 20
-717.4999999999999
 30
0.0
 11
550.0
 21
-717.4999999999999
 31
0.0
  0
LINE
  5
8C
330
17
100
AcDbEntity
  8
0
 62
     9
100
AcDbLine
 10
550.0
 20
-767.4999999999999
 30
0.0
 11
550.0
 21
-717.4999999999999
 31
0.0
  0
LINE
  5
8D
330
17
100
AcDbEntity
  8
0
 62
     9
100
AcDbLine
 10
500.0
 20
-717.4999999999999
 30
0.0
 11
500.0
 21
-767.4999999999999
 31
0.0
  0
LINE
  5
8E
330
17
100
AcDbEntity
  8
0
 62
     9
100
AcDbLine
 10
500.0
 20
-767.4999999999999
 30
0.0
 11
550.0
 21
-767.4999999999999
 31
0.0
  0
TEXT
  5
8F
330
17
100
AcDbEntity
  8
TEXTLAYER
 62
     1
100
AcDbText
 10
511.6666666666667
 20
-742.4999999999999
 30
0.0
 40
10.0
  1
3-3
 72
     1
 11
525.0
 21
-742.4999999999999
 31
0.0
100
AcDbText
  0
LINE
  5
90
330
17
100
AcDbEntity
  8
0
 62
     9
100
AcDbLine
 10
630.0
 20
-594.0
 30
0.0
 11
840.0
 21
-594.0
 31
0.0
  0
LINE
  5
91
330
17
100
AcDbEntity
  8
0
 62
     9
100
AcDbLine
 10
630.0
 20
-891.0
 30
0.0
 11
840.0
 21
-891.0
 31
0.0
  0
LINE
  5
92
330
17
100
AcDbEntity
  8
0
 62
     9
100
AcDbLine
 10
630.0
 20
-594.0
 30
0.0
 11
630.0
 21
-891.0
 31
0.0
  0
LINE
  5
93
330
17
100
AcDbEntity
  8
0
 62
     9
100
AcDbLine
 10
840.0
 20
-594.0
 30
0.0
 11
840.0
 21
-891.0
 31
0.0
  0
LINE
  5
94
330
17
100
AcDbEntity
  8
0
 62
     9
100
AcDbLine
 10
710.0
 20
-717.4999999999999
 30
0.0
 11
760.0
 21
-717.4999999999999
 31
0.0
  0
LINE
  5
95
330
17
100
AcDbEntity
  8
0
 62
     9
100
AcDbLine
 10
760.0
 20
-767.4999999999999
 30
0.0
 11
760.0
 21
-717.4999999999999
 31
0.0
  0
LINE
  5
96
330
17
100
AcDbEntity
  8
0
 62
     9
100
AcDbLine
 10
710.0
 20
-717.4999999999999
 30
0.0
 11
710.0
 21
-767.4999999999999
 31
0.0
  0
LINE
  5
97
330
17
100
AcDbEntity
  8
0
 62
     9
100
AcDbLine
 10
710.0
 20
-767.4999999999999
 30
0.0
 11
760.0
 21
-767.4999999999999
 31
0.0
  0
TEXT
  5
98
330
17
100
AcDbEntity
  8
TEXTLAYER
 62
     1
100
AcDbText
 10
721.6666666666666
 20
-742.4999999999999
 30
0.0
 40
10.0
  1
3-4
 72
     1
 11
735.0
 21
-742.4999999999999
 31
0.0
100
AcDbText
  0
LINE
  5
99
330
17
100
AcDbEntity
  8
0
 62
     9
100
AcDbLine
 10
0.0
 20
-891.0
 30
0.0
 11
210.0
 21
-891.0
 31
0.0
  0
LINE
  5
9A
330
17
100
AcDbEntity
  8
0
 62
     9
100
AcDbLine
 10
0.0
 20
-1188.0
 30
0.0
 11
210.0
 21
-1188.0
 31
0.0
  0
LINE
  5
9B
330
17
100
AcDbEntity
  8
0
 62
     9
100
AcDbLine
 10
0.0
 20
-891.0
 30
0.0
 11
0.0
 21
-1188.0
 31
0.0
  0
LINE
  5
9C
330
17
100
AcDbEntity
  8
0
 62
     9
100
AcDbLine
 10
210.0
 20
-891.0
 30
0.0
 11
210.0
 21
-1188.0
 31
0.0
  0
LINE
  5
9D
330
17
100
AcDbEntity
  8
0
 62
     9
100
AcDbLine
 10
80.0
 20
-1014.499999999999
 30
0.0
 11
130.0
 21
-1014.499999999999
 31
0.0
  0
LINE
  5
9E
330
17
100
AcDbEntity
  8
0
 62
     9
100
AcDbLine
 10
130.0
 20
-1064.5
 30
0.0
 11
130.0
 21
-1014.499999999999
 31
0.0
  0
LINE
  5
9F
330
17
100
AcDbEntity
  8
0
 62
     9
100
AcDbLine
 10
80.0
 20
-1014.499999999999
 30
0.0
 11
80.0
 21
-1064.5
 31
0.0
  0
LINE
  5
A0
330
17
100
AcDbEntity
  8
0
 62
     9
100
AcDbLine
 10
80.0
 20
-1064.5
 30
0.0
 11
130.0
 21
-1064.5
 31
0.0
  0
TEXT
  5
A1
330
17
100
AcDbEntity
  8
TEXTLAYER
 62
     1
100
AcDbText
 10
93.33333333333333
 20
-1039.5
 30
0.0
 40
10.0
  1
4-1
 72
     1
 11
105.0
 21
-1039.5
 31
0.0
100
AcDbText
  0
LINE
  5
A2
330
17
100
AcDbEntity
  8
0
 62
     9
100
AcDbLine
 10
210.0
 20
-891.0
 30
0.0
 11
420.0
 21
-891.0
 31
0.0
  0
LINE
  5
A3
330
17
100
AcDbEntity
  8
0
 62
     9
100
AcDbLine
 10
210.0
 20
-1188.0
 30
0.0
 11
420.0
 21
-1188.0
 31
0.0
  0
LINE
  5
A4
330
17
100
AcDbEntity
  8
0
 62
     9
100
AcDbLine
 10
210.0
 20
-891.0
 30
0.0
 11
210.0
 21
-1188.0
 31
0.0
  0
LINE
  5
A5
330
17
100
AcDbEntity
  8
0
 62
     9
100
AcDbLine
 10
420.0
 20
-891.0
 30
0.0
 11
420.0
 21
-1188.0
 31
0.0
  0
LINE
  5
A6
330
17
100
AcDbEntity
  8
0
 62
     9
100
AcDbLine
 10
290.0
 20
-1014.499999999999
 30
0.0
 11
340.0
 21
-1014.499999999999
 31
0.0
  0
LINE
  5
A7
330
17
100
AcDbEntity
  8
0
 62
     9
100
AcDbLine
 10
340.0
 20
-1064.5
 30
0.0
 11
340.0
 21
-1014.499999999999
 31
0.0
  0
LINE
  5
A8
330
17
100
AcDbEntity
  8
0
 62
     9
100
AcDbLine
 10
290.0
 20
-1014.499999999999
 30
0.0
 11
290.0
 21
-1064.5
 31
0.0
  0
LINE
  5
A9
330
17
100
AcDbEntity
  8
0
 62
     9
100
AcDbLine
 10
290.0
 20
-1064.5
 30
0.0
 11
340.0
 21
-1064.5
 31
0.0
  0
TEXT
  5
AA
330
17
100
AcDbEntity
  8
TEXTLAYER
 62
     1
100
AcDbText
 10
301.6666666666667
 20
-1039.5
 30
0.0
 40
10.0
  1
4-2
 72
     1
 11
315.0
 21
-1039.5
 31
0.0
100
AcDbText
  0
LINE
  5
AB
330
17
100
AcDbEntity
  8
0
 62
     9
100
AcDbLine
 10
420.0
 20
-891.0
 30
0.0
 11
630.0
 21
-891.0
 31
0.0
  0
LINE
  5
AC
330
17
100
AcDbEntity
  8
0
 62
     9
100
AcDbLine
 10
420.0
 20
-1188.0
 30
0.0
 11
630.0
 21
-1188.0
 31
0.0
  0
LINE
  5
AD
330
17
100
AcDbEntity
  8
0
 62
     9
100
AcDbLine
 10
420.0
 20
-891.0
 30
0.0
 11
420.0
 21
-1188.0
 31
0.0
  0
LINE
  5
AE
330
17
100
AcDbEntity
  8
0
 62
     9
100
AcDbLine
 10
630.0
 20
-891.0
 30
0.0
 11
630.0
 21
-1188.0
 31
0.0
  0
LINE
  5
AF
330
17
100
AcDbEntity
  8
0
 62
     9
100
AcDbLine
 10
500.0
 20
-1014.499999999999
 30
0.0
 11
550.0
 21
-1014.499999999999
 31
0.0
  0
LINE
  5
B0
330
17
100
AcDbEntity
  8
0
 62
     9
100
AcDbLine
 10
550.0
 20
-1064.5
 30
0.0
 11
550.0
 21
-1014.499999999999
 31
0.0
  0
LINE
  5
B1
330
17
100
AcDbEntity
  8
0
 62
     9
100
AcDbLine
 10
500.0
 20
-1014.499999999999
 30
0.0
 11
500.0
 21
-1064.5
 31
0.0
  0
LINE
  5
B2
330
17
100
AcDbEntity
  8
0
 62
     9
100
AcDbLine
 10
500.0
 20
-1064.5
 30
0.0
 11
550.0
 21
-1064.5
 31
0.0
  0
TEXT
  5
B3
330
17
100
AcDbEntity
  8
TEXTLAYER
 62
     1
100
AcDbText
 10
511.6666666666667
 20
-1039.5
 30
0.0
 40
10.0
  1
4-3
 72
     1
 11
525.0
 21
-1039.5
 31
0.0
100
AcDbText
  0
LINE
  5
B4
330
17
100
AcDbEntity
  8
0
 62
     9
100
AcDbLine
 10
630.0
 20
-891.0
 30
0.0
 11
840.0
 21
-891.0
 31
0.0
  0
LINE
  5
B5
330
17
100
AcDbEntity
  8
0
 62
     9
100
AcDbLine
 10
630.0
 20
-1188.0
 30
0.0
 11
840.0
 21
-1188.0
 31
0.0
  0
LINE
  5
B6
330
17
100
AcDbEntity
  8
0
 62
     9
100
AcDbLine
 10
630.0
 20
-891.0
 30
0.0
 11
630.0
 21
-1188.0
 31
0.0
  0
LINE
  5
B7
330
17
100
AcDbEntity
  8
0
 62
     9
100
AcDbLine
 10
840.0
 20
-891.0
 30
0.0
 11
840.0
 21
-1188.0
 31
0.0
  0
LINE
  5
B8
330
17
100
AcDbEntity
  8
0
 62
     9
100
AcDbLine
 10
710.0
 20
-1014.499999999999
 30
0.0
 11
760.0
 21
-1014.499999999999
 31
0.0
  0
LINE
  5
B9
330
17
100
AcDbEntity
  8
0
 62
     9
100
AcDbLine
 10
760.0
 20
-1064.5
 30
0.0
 11
760.0
 21
-1014.499999999999
 31
0.0
  0
LINE
  5
BA
330
17
100
AcDbEntity
  8
0
 62
     9
100
AcDbLine
 10
710.0
 20
-1014.499999999999
 30
0.0
 11
710.0
 21
-1064.5
 31
0.0
  0
LINE
  5
BB
330
17
100
AcDbEntity
  8
0
 62
     9
100
AcDbLine
 10
710.0
 20
-1064.5
 30
0.0
 11
760.0
 21
-1064.5
 31
0.0
  0
TEXT
  5
BC
330
17
100
AcDbEntity
  8
TEXTLAYER
 62
     1
100
AcDbText
 10
721.6666666666666
 20
-1039.5
 30
0.0
 40
10.0
  1
4-4
 72
     1
 11
735.0
 21
-1039.5
 31
0.0
100
AcDbText
  0
LINE
  5
4EE
330
17
100
AcDbEntity
  8
0
  6
Continuous
100
AcDbLine
 10
444.2705095
 20
-433.9842449999999
 30
0.0
 11
445.5792045
 21
-430.0670439999998
 31
0.0
  0
LINE
  5
4EF
330
17
100
AcDbEntity
  8
0
  6
Continuous
100
AcDbLine
 10
445.5792045
 20
-430.0670439999998
 30
0.0
 11
446.7301955
 21
-425.9565599999998
 31
0.0
  0
LINE
  5
4F0
330
17
100
AcDbEntity
  8
0
  6
Continuous
100
AcDbLine
 10
395.7294905000001
 20
-433.9842449999999
 30
0.0
 11
397.1878214999999
 21
-437.6840129999997
 31
0.0
  0
LINE
  5
4F1
330
17
100
AcDbEntity
  8
0
  6
Continuous
100
AcDbLine
 10
402.3664424999999
 20
-447.2581489999998
 30
0.0
 11
404.3250435000002
 21
-449.8755399999998
 31
0.0
  0
LINE
  5
4F2
330
17
100
AcDbEntity
  8
0
  6
Continuous
100
AcDbLine
 10
400.5165585000002
 20
-444.3414879999998
 30
0.0
 11
402.3664424999999
 21
-447.2581489999998
 31
0.0
  0
LINE
  5
4F3
330
17
100
AcDbEntity
  8
0
  6
Continuous
100
AcDbLine
 10
441.2132035000001
 20
-441.1435369999998
 30
0.0
 11
442.8121785
 21
-437.6840129999997
 31
0.0
  0
LINE
  5
4F4
330
17
100
AcDbEntity
  8
0
  6
Continuous
100
AcDbLine
 10
446.7301955
 20
-425.9565599999998
 30
0.0
 11
447.7163855000001
 21
-421.6781359999998
 31
0.0
  0
LINE
  5
4F5
330
17
100
AcDbEntity
  8
0
  6
Continuous
100
AcDbLine
 10
448.5316955
 20
-417.2581489999998
 30
0.0
 11
449.1710975000001
 21
-412.7238509999998
 31
0.0
  0
LINE
  5
4F6
330
17
100
AcDbEntity
  8
0
  6
Continuous
100
AcDbLine
 10
447.7163855000001
 20
-421.6781359999998
 30
0.0
 11
448.5316955
 21
-417.2581489999998
 31
0.0
  0
LINE
  5
4F7
330
17
100
AcDbEntity
  8
0
  6
Continuous
100
AcDbLine
 10
442.8121785
 20
-437.6840129999997
 30
0.0
 11
444.2705095
 21
-433.9842449999999
 31
0.0
  0
LINE
  5
4F8
330
17
100
AcDbEntity
  8
0
  6
Continuous
100
AcDbLine
 10
449.1710975000001
 20
-412.7238509999998
 30
0.0
 11
449.6306504999999
 21
-408.1031979999998
 31
0.0
  0
LINE
  5
4F9
330
17
100
AcDbEntity
  8
0
  6
Continuous
100
AcDbLine
 10
449.6306504999999
 20
-408.1031979999998
 30
0.0
 11
449.9075205000001
 21
-403.4246749999998
 31
0.0
  0
LINE
  5
4FA
330
17
100
AcDbEntity
  8
0
  6
Continuous
100
AcDbLine
 10
449.9075205000001
 20
-403.4246749999998
 30
0.0
 11
450.0000004999999
 21
-398.7171299999999
 31
0.0
  0
LINE
  5
4FB
330
17
100
AcDbEntity
  8
0
  6
Continuous
100
AcDbLine
 10
444.2705095
 20
-363.4500149999999
 30
0.0
 11
442.8121785
 21
-359.7502469999998
 31
0.0
  0
LINE
  5
4FC
330
17
100
AcDbEntity
  8
0
  6
Continuous
100
AcDbLine
 10
420.0000004999999
 20
-458.7171299999998
 30
0.0
 11
422.3537725
 21
-458.5321699999998
 31
0.0
  0
LINE
  5
4FD
330
17
100
AcDbEntity
  8
0
  6
Continuous
100
AcDbLine
 10
439.4834415
 20
-353.0927719999998
 30
0.0
 11
437.6335575
 21
-350.1761099999998
 31
0.0
  0
LINE
  5
4FE
330
17
100
AcDbEntity
  8
0
  6
Continuous
100
AcDbLine
 10
449.1710975000001
 20
-384.7104079999998
 30
0.0
 11
448.5316955
 21
-380.1761099999998
 31
0.0
  0
LINE
  5
4FF
330
17
100
AcDbEntity
  8
0
  6
Continuous
100
AcDbLine
 10
429.2705095000001
 20
-341.6537389999998
 30
0.0
 11
427.0033605
 21
-340.3749339999998
 31
0.0
  0
LINE
  5
500
330
17
100
AcDbEntity
  8
0
  6
Continuous
100
AcDbLine
 10
449.6306504999999
 20
-389.3310619999998
 30
0.0
 11
449.1710975000001
 21
-384.7104079999998
 31
0.0
  0
LINE
  5
501
330
17
100
AcDbEntity
  8
0
  6
Continuous
100
AcDbLine
 10
442.8121785
 20
-359.7502469999998
 30
0.0
 11
441.2132035000001
 21
-356.2907229999998
 31
0.0
  0
LINE
  5
502
330
17
100
AcDbEntity
  8
0
  6
Continuous
100
AcDbLine
 10
433.6197145
 20
-345.2567379999998
 30
0.0
 11
431.4805025
 21
-343.2843579999998
 31
0.0
  0
LINE
  5
503
330
17
100
AcDbEntity
  8
0
  6
Continuous
100
AcDbLine
 10
415.3069665
 20
-339.4558289999998
 30
0.0
 11
412.9966395000001
 21
-340.3749339999998
 31
0.0
  0
LINE
  5
504
330
17
100
AcDbEntity
  8
0
  6
Continuous
100
AcDbLine
 10
424.6930335
 20
-457.9784299999998
 30
0.0
 11
427.0033605
 21
-457.0593249999998
 31
0.0
  0
LINE
  5
505
330
17
100
AcDbEntity
  8
0
  6
Continuous
100
AcDbLine
 10
394.4207955000001
 20
-430.0670439999998
 30
0.0
 11
395.7294905000001
 21
-433.9842449999999
 31
0.0
  0
LINE
  5
506
330
17
100
AcDbEntity
  8
0
  6
Continuous
100
AcDbLine
 10
450.0000004999999
 20
-398.7171299999999
 30
0.0
 11
449.9075205000001
 21
-394.0095839999998
 31
0.0
  0
LINE
  5
507
330
17
100
AcDbEntity
  8
0
  6
Continuous
100
AcDbLine
 10
435.6749565
 20
-347.5587199999998
 30
0.0
 11
433.6197145
 21
-345.2567379999998
 31
0.0
  0
LINE
  5
508
330
17
100
AcDbEntity
  8
0
  6
Continuous
100
AcDbLine
 10
449.9075205000001
 20
-394.0095839999998
 30
0.0
 11
449.6306504999999
 21
-389.3310619999998
 31
0.0
  0
LINE
  5
509
330
17
100
AcDbEntity
  8
0
  6
Continuous
100
AcDbLine
 10
417.6462275000001
 20
-338.9020899999998
 30
0.0
 11
415.3069665
 21
-339.4558289999998
 31
0.0
  0
LINE
  5
50A
330
17
100
AcDbEntity
  8
0
  6
Continuous
100
AcDbLine
 10
390.3693495
 20
-389.3310619999998
 30
0.0
 11
390.0924795
 21
-394.0095839999998
 31
0.0
  0
LINE
  5
50B
330
17
100
AcDbEntity
  8
0
  6
Continuous
100
AcDbLine
 10
412.9966395000001
 20
-340.3749339999998
 30
0.0
 11
410.7294905000001
 21
-341.6537389999998
 31
0.0
  0
LINE
  5
50C
330
17
100
AcDbEntity
  8
0
  6
Continuous
100
AcDbLine
 10
391.4683044999999
 20
-417.2581489999998
 30
0.0
 11
392.2836145000001
 21
-421.6781359999998
 31
0.0
  0
LINE
  5
50D
330
17
100
AcDbEntity
  8
0
  6
Continuous
100
AcDbLine
 10
390.0924795
 20
-403.4246749999998
 30
0.0
 11
390.3693495
 21
-408.1031979999998
 31
0.0
  0
LINE
  5
50E
330
17
100
AcDbEntity
  8
0
  6
Continuous
100
AcDbLine
 10
402.3664424999999
 20
-350.1761099999998
 30
0.0
 11
400.5165585000002
 21
-353.0927719999998
 31
0.0
  0
LINE
  5
50F
330
17
100
AcDbEntity
  8
0
  6
Continuous
100
AcDbLine
 10
447.7163855000001
 20
-375.7561239999998
 30
0.0
 11
446.7301955
 21
-371.4776999999997
 31
0.0
  0
LINE
  5
510
330
17
100
AcDbEntity
  8
0
  6
Continuous
100
AcDbLine
 10
446.7301955
 20
-371.4776999999997
 30
0.0
 11
445.5792045
 21
-367.3672159999998
 31
0.0
  0
LINE
  5
511
330
17
100
AcDbEntity
  8
0
  6
Continuous
100
AcDbLine
 10
433.6197145
 20
-452.1775209999998
 30
0.0
 11
435.6749565
 21
-449.8755399999998
 31
0.0
  0
LINE
  5
512
330
17
100
AcDbEntity
  8
0
  6
Continuous
100
AcDbLine
 10
397.1878214999999
 20
-359.7502469999998
 30
0.0
 11
395.7294905000001
 21
-363.4500149999999
 31
0.0
  0
LINE
  5
513
330
17
100
AcDbEntity
  8
0
  6
Continuous
100
AcDbLine
 10
427.0033605
 20
-340.3749339999998
 30
0.0
 11
424.6930335
 21
-339.4558289999998
 31
0.0
  0
LINE
  5
514
330
17
100
AcDbEntity
  8
0
  6
Continuous
100
AcDbLine
 10
408.5194975000002
 20
-454.1499019999998
 30
0.0
 11
410.7294905000001
 21
-455.7805209999998
 31
0.0
  0
LINE
  5
515
330
17
100
AcDbEntity
  8
0
  6
Continuous
100
AcDbLine
 10
398.7867965
 20
-356.2907229999998
 30
0.0
 11
397.1878214999999
 21
-359.7502469999998
 31
0.0
  0
LINE
  5
516
330
17
100
AcDbEntity
  8
0
  6
Continuous
100
AcDbLine
 10
392.2836145000001
 20
-421.6781359999998
 30
0.0
 11
393.2698044999999
 21
-425.9565599999998
 31
0.0
  0
LINE
  5
517
330
17
100
AcDbEntity
  8
0
  6
Continuous
100
AcDbLine
 10
410.7294905000001
 20
-455.7805209999998
 30
0.0
 11
412.9966395000001
 21
-457.0593249999998
 31
0.0
  0
LINE
  5
518
330
17
100
AcDbEntity
  8
0
  6
Continuous
100
AcDbLine
 10
390.0924795
 20
-394.0095839999998
 30
0.0
 11
390.0000004999999
 21
-398.7171299999999
 31
0.0
  0
LINE
  5
519
330
17
100
AcDbEntity
  8
0
  6
Continuous
100
AcDbLine
 10
390.8289025000001
 20
-384.7104079999998
 30
0.0
 11
390.3693495
 21
-389.3310619999998
 31
0.0
  0
LINE
  5
51A
330
17
100
AcDbEntity
  8
0
  6
Continuous
100
AcDbLine
 10
445.5792045
 20
-367.3672159999998
 30
0.0
 11
444.2705095
 21
-363.4500149999999
 31
0.0
  0
LINE
  5
51B
330
17
100
AcDbEntity
  8
0
  6
Continuous
100
AcDbLine
 10
415.3069665
 20
-457.9784299999998
 30
0.0
 11
417.6462275000001
 21
-458.5321699999998
 31
0.0
  0
LINE
  5
51C
330
17
100
AcDbEntity
  8
0
  6
Continuous
100
AcDbLine
 10
429.2705095000001
 20
-455.7805209999998
 30
0.0
 11
431.4805025
 21
-454.1499019999998
 31
0.0
  0
LINE
  5
51D
330
17
100
AcDbEntity
  8
0
  6
Continuous
100
AcDbLine
 10
393.2698044999999
 20
-425.9565599999998
 30
0.0
 11
394.4207955000001
 21
-430.0670439999998
 31
0.0
  0
LINE
  5
51E
330
17
100
AcDbEntity
  8
0
  6
Continuous
100
AcDbLine
 10
422.3537725
 20
-338.9020899999998
 30
0.0
 11
420.0000004999999
 21
-338.7171299999998
 31
0.0
  0
LINE
  5
51F
330
17
100
AcDbEntity
  8
0
  6
Continuous
100
AcDbLine
 10
417.6462275000001
 20
-458.5321699999998
 30
0.0
 11
420.0000004999999
 21
-458.7171299999998
 31
0.0
  0
LINE
  5
520
330
17
100
AcDbEntity
  8
0
  6
Continuous
100
AcDbLine
 10
397.1878214999999
 20
-437.6840129999997
 30
0.0
 11
398.7867965
 21
-441.1435369999998
 31
0.0
  0
LINE
  5
521
330
17
100
AcDbEntity
  8
0
  6
Continuous
100
AcDbLine
 10
398.7867965
 20
-441.1435369999998
 30
0.0
 11
400.5165585000002
 21
-444.3414879999998
 31
0.0
  0
LINE
  5
522
330
17
100
AcDbEntity
  8
0
  6
Continuous
100
AcDbLine
 10
437.6335575
 20
-447.2581489999998
 30
0.0
 11
439.4834415
 21
-444.3414879999998
 31
0.0
  0
LINE
  5
523
330
17
100
AcDbEntity
  8
0
  6
Continuous
100
AcDbLine
 10
391.4683044999999
 20
-380.1761099999998
 30
0.0
 11
390.8289025000001
 21
-384.7104079999998
 31
0.0
  0
LINE
  5
524
330
17
100
AcDbEntity
  8
0
  6
Continuous
100
AcDbLine
 10
431.4805025
 20
-343.2843579999998
 30
0.0
 11
429.2705095000001
 21
-341.6537389999998
 31
0.0
  0
LINE
  5
525
330
17
100
AcDbEntity
  8
0
  6
Continuous
100
AcDbLine
 10
392.2836145000001
 20
-375.7561239999998
 30
0.0
 11
391.4683044999999
 21
-380.1761099999998
 31
0.0
  0
LINE
  5
526
330
17
100
AcDbEntity
  8
0
  6
Continuous
100
AcDbLine
 10
424.6930335
 20
-339.4558289999998
 30
0.0
 11
422.3537725
 21
-338.9020899999998
 31
0.0
  0
LINE
  5
527
330
17
100
AcDbEntity
  8
0
  6
Continuous
100
AcDbLine
 10
437.6335575
 20
-350.1761099999998
 30
0.0
 11
435.6749565
 21
-347.5587199999998
 31
0.0
  0
LINE
  5
528
330
17
100
AcDbEntity
  8
0
  6
Continuous
100
AcDbLine
 10
412.9966395000001
 20
-457.0593249999998
 30
0.0
 11
415.3069665
 21
-457.9784299999998
 31
0.0
  0
LINE
  5
529
330
17
100
AcDbEntity
  8
0
  6
Continuous
100
AcDbLine
 10
427.0033605
 20
-457.0593249999998
 30
0.0
 11
429.2705095000001
 21
-455.7805209999998
 31
0.0
  0
LINE
  5
52A
330
17
100
AcDbEntity
  8
0
  6
Continuous
100
AcDbLine
 10
390.0000004999999
 20
-398.7171299999999
 30
0.0
 11
390.0924795
 21
-403.4246749999998
 31
0.0
  0
LINE
  5
52B
330
17
100
AcDbEntity
  8
0
  6
Continuous
100
AcDbLine
 10
406.3802855000001
 20
-345.2567379999998
 30
0.0
 11
404.3250435000002
 21
-347.5587199999998
 31
0.0
  0
LINE
  5
52C
330
17
100
AcDbEntity
  8
0
  6
Continuous
100
AcDbLine
 10
400.5165585000002
 20
-353.0927719999998
 30
0.0
 11
398.7867965
 21
-356.2907229999998
 31
0.0
  0
LINE
  5
52D
330
17
100
AcDbEntity
  8
0
  6
Continuous
100
AcDbLine
 10
395.7294905000001
 20
-363.4500149999999
 30
0.0
 11
394.4207955000001
 21
-367.3672159999998
 31
0.0
  0
LINE
  5
52E
330
17
100
AcDbEntity
  8
0
  6
Continuous
100
AcDbLine
 10
420.0000004999999
 20
-338.7171299999998
 30
0.0
 11
417.6462275000001
 21
-338.9020899999998
 31
0.0
  0
LINE
  5
52F
330
17
100
AcDbEntity
  8
0
  6
Continuous
100
AcDbLine
 10
390.8289025000001
 20
-412.7238509999998
 30
0.0
 11
391.4683044999999
 21
-417.2581489999998
 31
0.0
  0
LINE
  5
530
330
17
100
AcDbEntity
  8
0
  6
Continuous
100
AcDbLine
 10
439.4834415
 20
-444.3414879999998
 30
0.0
 11
441.2132035000001
 21
-441.1435369999998
 31
0.0
  0
LINE
  5
531
330
17
100
AcDbEntity
  8
0
  6
Continuous
100
AcDbLine
 10
441.2132035000001
 20
-356.2907229999998
 30
0.0
 11
439.4834415
 21
-353.0927719999998
 31
0.0
  0
LINE
  5
532
330
17
100
AcDbEntity
  8
0
  6
Continuous
100
AcDbLine
 10
404.3250435000002
 20
-449.8755399999998
 30
0.0
 11
406.3802855000001
 21
-452.1775209999998
 31
0.0
  0
LINE
  5
533
330
17
100
AcDbEntity
  8
0
  6
Continuous
100
AcDbLine
 10
404.3250435000002
 20
-347.5587199999998
 30
0.0
 11
402.3664424999999
 21
-350.1761099999998
 31
0.0
  0
LINE
  5
534
330
17
100
AcDbEntity
  8
0
  6
Continuous
100
AcDbLine
 10
448.5316955
 20
-380.1761099999998
 30
0.0
 11
447.7163855000001
 21
-375.7561239999998
 31
0.0
  0
LINE
  5
535
330
17
100
AcDbEntity
  8
0
  6
Continuous
100
AcDbLine
 10
408.5194975000002
 20
-343.2843579999998
 30
0.0
 11
406.3802855000001
 21
-345.2567379999998
 31
0.0
  0
LINE
  5
536
330
17
100
AcDbEntity
  8
0
  6
Continuous
100
AcDbLine
 10
406.3802855000001
 20
-452.1775209999998
 30
0.0
 11
408.5194975000002
 21
-454.1499019999998
 31
0.0
  0
LINE
  5
537
330
17
100
AcDbEntity
  8
0
  6
Continuous
100
AcDbLine
 10
410.7294905000001
 20
-341.6537389999998
 30
0.0
 11
408.5194975000002
 21
-343.2843579999998
 31
0.0
  0
LINE
  5
538
330
17
100
AcDbEntity
  8
0
  6
Continuous
100
AcDbLine
 10
530.0000004999999
 20
-542.0618599999998
 30
0.0
 11
534.7075455000001
 21
-541.9693799999997
 31
0.0
  0
LINE
  5
539
330
17
100
AcDbEntity
  8
0
  6
Continuous
100
AcDbLine
 10
474.5672285
 20
-523.5423629999997
 30
0.0
 11
476.5396084999999
 21
-525.6815749999998
 31
0.0
  0
LINE
  5
53A
330
17
100
AcDbEntity
  8
0
  6
Continuous
100
AcDbLine
 10
484.3756424999999
 20
-492.5784189999998
 30
0.0
 11
481.4589805
 21
-494.4283019999998
 31
0.0
  0
LINE
  5
53B
330
17
100
AcDbEntity
  8
0
  6
Continuous
100
AcDbLine
 10
498.6500865
 20
-537.6410649999997
 30
0.0
 11
502.7605705
 21
-538.7920559999997
 31
0.0
  0
LINE
  5
53C
330
17
100
AcDbEntity
  8
0
  6
Continuous
100
AcDbLine
 10
520.6139325000001
 20
-541.6925099999998
 30
0.0
 11
525.2924545
 21
-541.9693799999997
 31
0.0
  0
LINE
  5
53D
330
17
100
AcDbEntity
  8
0
  6
Continuous
100
AcDbLine
 10
515.9932785000001
 20
-541.2329579999997
 30
0.0
 11
520.6139325000001
 21
-541.6925099999998
 31
0.0
  0
LINE
  5
53E
330
17
100
AcDbEntity
  8
0
  6
Continuous
100
AcDbLine
 10
511.4589805
 20
-540.5935549999997
 30
0.0
 11
515.9932785000001
 21
-541.2329579999997
 31
0.0
  0
LINE
  5
53F
330
17
100
AcDbEntity
  8
0
  6
Continuous
100
AcDbLine
 10
484.3756424999999
 20
-531.5453009999998
 30
0.0
 11
487.5735935
 21
-533.2750629999998
 31
0.0
  0
LINE
  5
540
330
17
100
AcDbEntity
  8
0
  6
Continuous
100
AcDbLine
 10
470.7386994999999
 20
-516.7548939999999
 30
0.0
 11
471.6578045000001
 21
-519.0652209999998
 31
0.0
  0
LINE
  5
541
330
17
100
AcDbEntity
  8
0
  6
Continuous
100
AcDbLine
 10
474.5672285
 20
-500.5813569999999
 30
0.0
 11
472.9366095
 21
-502.7913499999998
 31
0.0
  0
LINE
  5
542
330
17
100
AcDbEntity
  8
0
  6
Continuous
100
AcDbLine
 10
481.4589805
 20
-494.4283019999998
 30
0.0
 11
478.8415904999999
 21
-496.3869029999998
 31
0.0
  0
LINE
  5
543
330
17
100
AcDbEntity
  8
0
  6
Continuous
100
AcDbLine
 10
491.0331175000001
 20
-534.8740389999997
 30
0.0
 11
494.7328844999999
 21
-536.3323699999998
 31
0.0
  0
LINE
  5
544
330
17
100
AcDbEntity
  8
0
  6
Continuous
100
AcDbLine
 10
471.6578045000001
 20
-519.0652209999998
 30
0.0
 11
472.9366095
 21
-521.3323699999998
 31
0.0
  0
LINE
  5
545
330
17
100
AcDbEntity
  8
0
  6
Continuous
100
AcDbLine
 10
470.1849595000001
 20
-514.4156329999998
 30
0.0
 11
470.7386994999999
 21
-516.7548939999999
 31
0.0
  0
LINE
  5
546
330
17
100
AcDbEntity
  8
0
  6
Continuous
100
AcDbLine
 10
470.1849595000001
 20
-509.7080869999998
 30
0.0
 11
470.0000004999999
 21
-512.0618599999998
 31
0.0
  0
LINE
  5
547
330
17
100
AcDbEntity
  8
0
  6
Continuous
100
AcDbLine
 10
581.1584095
 20
-527.7368169999999
 30
0.0
 11
583.4603915
 21
-525.6815749999998
 31
0.0
  0
LINE
  5
548
330
17
100
AcDbEntity
  8
0
  6
Continuous
100
AcDbLine
 10
578.5410195000001
 20
-529.6954179999998
 30
0.0
 11
581.1584095
 21
-527.7368169999999
 31
0.0
  0
LINE
  5
549
330
17
100
AcDbEntity
  8
0
  6
Continuous
100
AcDbLine
 10
575.6243575
 20
-531.5453009999998
 30
0.0
 11
578.5410195000001
 21
-529.6954179999998
 31
0.0
  0
LINE
  5
54A
330
17
100
AcDbEntity
  8
0
  6
Continuous
100
AcDbLine
 10
507.0389944999999
 20
-539.7782459999998
 30
0.0
 11
511.4589805
 21
-540.5935549999997
 31
0.0
  0
LINE
  5
54B
330
17
100
AcDbEntity
  8
0
  6
Continuous
100
AcDbLine
 10
572.4264064999999
 20
-533.2750629999998
 30
0.0
 11
575.6243575
 21
-531.5453009999998
 31
0.0
  0
LINE
  5
54C
330
17
100
AcDbEntity
  8
0
  6
Continuous
100
AcDbLine
 10
478.8415904999999
 20
-527.7368169999999
 30
0.0
 11
481.4589805
 21
-529.6954179999998
 31
0.0
  0
LINE
  5
54D
330
17
100
AcDbEntity
  8
0
  6
Continuous
100
AcDbLine
 10
544.0067215000001
 20
-541.2329579999997
 30
0.0
 11
548.5410195000001
 21
-540.5935549999997
 31
0.0
  0
LINE
  5
54E
330
17
100
AcDbEntity
  8
0
  6
Continuous
100
AcDbLine
 10
478.8415904999999
 20
-496.3869029999998
 30
0.0
 11
476.5396084999999
 21
-498.4421449999998
 31
0.0
  0
LINE
  5
54F
330
17
100
AcDbEntity
  8
0
  6
Continuous
100
AcDbLine
 10
494.7328844999999
 20
-487.7913499999998
 30
0.0
 11
491.0331175000001
 21
-489.2496809999998
 31
0.0
  0
LINE
  5
550
330
17
100
AcDbEntity
  8
0
  6
Continuous
100
AcDbLine
 10
476.5396084999999
 20
-498.4421449999998
 30
0.0
 11
474.5672285
 21
-500.5813569999999
 31
0.0
  0
LINE
  5
551
330
17
100
AcDbEntity
  8
0
  6
Continuous
100
AcDbLine
 10
568.9668825
 20
-534.8740389999997
 30
0.0
 11
572.4264064999999
 21
-533.2750629999998
 31
0.0
  0
LINE
  5
552
330
17
100
AcDbEntity
  8
0
  6
Continuous
100
AcDbLine
 10
561.3499134999999
 20
-537.6410649999997
 30
0.0
 11
565.2671155
 21
-536.3323699999998
 31
0.0
  0
LINE
  5
553
330
17
100
AcDbEntity
  8
0
  6
Continuous
100
AcDbLine
 10
487.5735935
 20
-533.2750629999998
 30
0.0
 11
491.0331175000001
 21
-534.8740389999997
 31
0.0
  0
LINE
  5
554
330
17
100
AcDbEntity
  8
0
  6
Continuous
100
AcDbLine
 10
491.0331175000001
 20
-489.2496809999998
 30
0.0
 11
487.5735935
 21
-490.8486569999998
 31
0.0
  0
LINE
  5
555
330
17
100
AcDbEntity
  8
0
  6
Continuous
100
AcDbLine
 10
487.5735935
 20
-490.8486569999998
 30
0.0
 11
484.3756424999999
 21
-492.5784189999998
 31
0.0
  0
LINE
  5
556
330
17
100
AcDbEntity
  8
0
  6
Continuous
100
AcDbLine
 10
472.9366095
 20
-521.3323699999998
 30
0.0
 11
474.5672285
 21
-523.5423629999997
 31
0.0
  0
LINE
  5
557
330
17
100
AcDbEntity
  8
0
  6
Continuous
100
AcDbLine
 10
557.2394295000001
 20
-538.7920559999997
 30
0.0
 11
561.3499134999999
 21
-537.6410649999997
 31
0.0
  0
LINE
  5
558
330
17
100
AcDbEntity
  8
0
  6
Continuous
100
AcDbLine
 10
565.2671155
 20
-536.3323699999998
 30
0.0
 11
568.9668825
 21
-534.8740389999997
 31
0.0
  0
LINE
  5
559
330
17
100
AcDbEntity
  8
0
  6
Continuous
100
AcDbLine
 10
552.9610055
 20
-539.7782459999998
 30
0.0
 11
557.2394295000001
 21
-538.7920559999997
 31
0.0
  0
LINE
  5
55A
330
17
100
AcDbEntity
  8
0
  6
Continuous
100
AcDbLine
 10
502.7605705
 20
-538.7920559999997
 30
0.0
 11
507.0389944999999
 21
-539.7782459999998
 31
0.0
  0
LINE
  5
55B
330
17
100
AcDbEntity
  8
0
  6
Continuous
100
AcDbLine
 10
472.9366095
 20
-502.7913499999998
 30
0.0
 11
471.6578045000001
 21
-505.0584989999999
 31
0.0
  0
LINE
  5
55C
330
17
100
AcDbEntity
  8
0
  6
Continuous
100
AcDbLine
 10
481.4589805
 20
-529.6954179999998
 30
0.0
 11
484.3756424999999
 21
-531.5453009999998
 31
0.0
  0
LINE
  5
55D
330
17
100
AcDbEntity
  8
0
  6
Continuous
100
AcDbLine
 10
548.5410195000001
 20
-540.5935549999997
 30
0.0
 11
552.9610055
 21
-539.7782459999998
 31
0.0
  0
LINE
  5
55E
330
17
100
AcDbEntity
  8
0
  6
Continuous
100
AcDbLine
 10
539.3860675
 20
-541.6925099999998
 30
0.0
 11
544.0067215000001
 21
-541.2329579999997
 31
0.0
  0
LINE
  5
55F
330
17
100
AcDbEntity
  8
0
  6
Continuous
100
AcDbLine
 10
534.7075455000001
 20
-541.9693799999997
 30
0.0
 11
539.3860675
 21
-541.6925099999998
 31
0.0
  0
LINE
  5
560
330
17
100
AcDbEntity
  8
0
  6
Continuous
100
AcDbLine
 10
476.5396084999999
 20
-525.6815749999998
 30
0.0
 11
478.8415904999999
 21
-527.7368169999999
 31
0.0
  0
LINE
  5
561
330
17
100
AcDbEntity
  8
0
  6
Continuous
100
AcDbLine
 10
471.6578045000001
 20
-505.0584989999999
 30
0.0
 11
470.7386994999999
 21
-507.3688259999998
 31
0.0
  0
LINE
  5
562
330
17
100
AcDbEntity
  8
0
  6
Continuous
100
AcDbLine
 10
494.7328844999999
 20
-536.3323699999998
 30
0.0
 11
498.6500865
 21
-537.6410649999997
 31
0.0
  0
LINE
  5
563
330
17
100
AcDbEntity
  8
0
  6
Continuous
100
AcDbLine
 10
525.2924545
 20
-541.9693799999997
 30
0.0
 11
530.0000004999999
 21
-542.0618599999998
 31
0.0
  0
LINE
  5
564
330
17
100
AcDbEntity
  8
0
  6
Continuous
100
AcDbLine
 10
470.7386994999999
 20
-507.3688259999998
 30
0.0
 11
470.1849595000001
 21
-509.7080869999998
 31
0.0
  0
LINE
  5
565
330
17
100
AcDbEntity
  8
0
  6
Continuous
100
AcDbLine
 10
470.0000004999999
 20
-512.0618599999998
 30
0.0
 11
470.1849595000001
 21
-514.4156329999998
 31
0.0
  0
LINE
  5
566
330
17
100
AcDbEntity
  8
0
  6
Continuous
100
AcDbLine
 10
291.4589805
 20
-483.5301639999998
 30
0.0
 11
287.0389944999999
 21
-484.3454739999998
 31
0.0
  0
LINE
  5
567
330
17
100
AcDbEntity
  8
0
  6
Continuous
100
AcDbLine
 10
363.4603915
 20
-498.4421449999998
 30
0.0
 11
361.1584095
 21
-496.3869029999998
 31
0.0
  0
LINE
  5
568
330
17
100
AcDbEntity
  8
0
  6
Continuous
100
AcDbLine
 10
250.1849595000001
 20
-514.4156329999998
 30
0.0
 11
250.7386994999999
 21
-516.7548939999999
 31
0.0
  0
LINE
  5
569
330
17
100
AcDbEntity
  8
0
  6
Continuous
100
AcDbLine
 10
352.4264065
 20
-490.8486569999998
 30
0.0
 11
348.9668825000001
 21
-489.2496809999998
 31
0.0
  0
LINE
  5
56A
330
17
100
AcDbEntity
  8
0
  6
Continuous
100
AcDbLine
 10
287.0389944999999
 20
-484.3454739999998
 30
0.0
 11
282.7605705
 21
-485.3316639999998
 31
0.0
  0
LINE
  5
56B
330
17
100
AcDbEntity
  8
0
  6
Continuous
100
AcDbLine
 10
264.3756425000001
 20
-492.5784189999998
 30
0.0
 11
261.4589805
 21
-494.4283019999998
 31
0.0
  0
LINE
  5
56C
330
17
100
AcDbEntity
  8
0
  6
Continuous
100
AcDbLine
 10
256.5396085000002
 20
-525.6815749999998
 30
0.0
 11
258.8415905000001
 21
-527.7368169999999
 31
0.0
  0
LINE
  5
56D
330
17
100
AcDbEntity
  8
0
  6
Continuous
100
AcDbLine
 10
254.5672285
 20
-500.5813569999999
 30
0.0
 11
252.9366095
 21
-502.7913499999998
 31
0.0
  0
LINE
  5
56E
330
17
100
AcDbEntity
  8
0
  6
Continuous
100
AcDbLine
 10
368.3421955000001
 20
-519.0652209999998
 30
0.0
 11
369.2613005
 21
-516.7548939999999
 31
0.0
  0
LINE
  5
56F
330
17
100
AcDbEntity
  8
0
  6
Continuous
100
AcDbLine
 10
267.5735935000002
 20
-490.8486569999998
 30
0.0
 11
264.3756425000001
 21
-492.5784189999998
 31
0.0
  0
LINE
  5
570
330
17
100
AcDbEntity
  8
0
  6
Continuous
100
AcDbLine
 10
358.5410195000001
 20
-529.6954179999998
 30
0.0
 11
361.1584095
 21
-527.7368169999999
 31
0.0
  0
LINE
  5
571
330
17
100
AcDbEntity
  8
0
  6
Continuous
100
AcDbLine
 10
341.3499134999999
 20
-486.4826549999998
 30
0.0
 11
337.2394295000001
 21
-485.3316639999998
 31
0.0
  0
LINE
  5
572
330
17
100
AcDbEntity
  8
0
  6
Continuous
100
AcDbLine
 10
332.9610055
 20
-484.3454739999998
 30
0.0
 11
328.5410195000001
 21
-483.5301639999998
 31
0.0
  0
LINE
  5
573
330
17
100
AcDbEntity
  8
0
  6
Continuous
100
AcDbLine
 10
348.9668825000001
 20
-489.2496809999998
 30
0.0
 11
345.2671155
 21
-487.7913499999998
 31
0.0
  0
LINE
  5
574
330
17
100
AcDbEntity
  8
0
  6
Continuous
100
AcDbLine
 10
282.7605705
 20
-485.3316639999998
 30
0.0
 11
278.6500865
 21
-486.4826549999998
 31
0.0
  0
LINE
  5
575
330
17
100
AcDbEntity
  8
0
  6
Continuous
100
AcDbLine
 10
583.4603915
 20
-525.6815749999998
 30
0.0
 11
585.4327715000001
 21
-523.5423629999997
 31
0.0
  0
LINE
  5
576
330
17
100
AcDbEntity
  8
0
  6
Continuous
100
AcDbLine
 10
254.5672285
 20
-523.5423629999997
 30
0.0
 11
256.5396085000002
 21
-525.6815749999998
 31
0.0
  0
LINE
  5
577
330
17
100
AcDbEntity
  8
0
  6
Continuous
100
AcDbLine
 10
250.7386994999999
 20
-516.7548939999999
 30
0.0
 11
251.6578045000001
 21
-519.0652209999998
 31
0.0
  0
LINE
  5
578
330
17
100
AcDbEntity
  8
0
  6
Continuous
100
AcDbLine
 10
261.4589805
 20
-494.4283019999998
 30
0.0
 11
258.8415905000001
 21
-496.3869029999998
 31
0.0
  0
LINE
  5
579
330
17
100
AcDbEntity
  8
0
  6
Continuous
100
AcDbLine
 10
345.2671155
 20
-487.7913499999998
 30
0.0
 11
341.3499134999999
 21
-486.4826549999998
 31
0.0
  0
LINE
  5
57A
330
17
100
AcDbEntity
  8
0
  6
Continuous
100
AcDbLine
 10
252.9366095
 20
-521.3323699999998
 30
0.0
 11
254.5672285
 21
-523.5423629999997
 31
0.0
  0
LINE
  5
57B
330
17
100
AcDbEntity
  8
0
  6
Continuous
100
AcDbLine
 10
251.6578045000001
 20
-519.0652209999998
 30
0.0
 11
252.9366095
 21
-521.3323699999998
 31
0.0
  0
LINE
  5
57C
330
17
100
AcDbEntity
  8
0
  6
Continuous
100
AcDbLine
 10
295.9932785
 20
-482.8907619999998
 30
0.0
 11
291.4589805
 21
-483.5301639999998
 31
0.0
  0
LINE
  5
57D
330
17
100
AcDbEntity
  8
0
  6
Continuous
100
AcDbLine
 10
589.8150405000001
 20
-514.4156329999998
 30
0.0
 11
590.0000004999999
 21
-512.0618599999998
 31
0.0
  0
LINE
  5
57E
330
17
100
AcDbEntity
  8
0
  6
Continuous
100
AcDbLine
 10
256.5396085000002
 20
-498.4421449999998
 30
0.0
 11
254.5672285
 21
-500.5813569999999
 31
0.0
  0
LINE
  5
57F
330
17
100
AcDbEntity
  8
0
  6
Continuous
100
AcDbLine
 10
274.7328844999999
 20
-487.7913499999998
 30
0.0
 11
271.0331175000001
 21
-489.2496809999998
 31
0.0
  0
LINE
  5
580
330
17
100
AcDbEntity
  8
0
  6
Continuous
100
AcDbLine
 10
365.4327715000001
 20
-523.5423629999997
 30
0.0
 11
367.0633905000002
 21
-521.3323699999998
 31
0.0
  0
LINE
  5
581
330
17
100
AcDbEntity
  8
0
  6
Continuous
100
AcDbLine
 10
361.1584095
 20
-496.3869029999998
 30
0.0
 11
358.5410195000001
 21
-494.4283019999998
 31
0.0
  0
LINE
  5
582
330
17
100
AcDbEntity
  8
0
  6
Continuous
100
AcDbLine
 10
314.7075455000001
 20
-482.1543399999998
 30
0.0
 11
310.0000004999999
 21
-482.0618599999998
 31
0.0
  0
LINE
  5
583
330
17
100
AcDbEntity
  8
0
  6
Continuous
100
AcDbLine
 10
264.3756425000001
 20
-531.5453009999998
 30
0.0
 11
267.5735935000002
 21
-533.2750629999998
 31
0.0
  0
LINE
  5
584
330
17
100
AcDbEntity
  8
0
  6
Continuous
100
AcDbLine
 10
250.7386994999999
 20
-507.3688259999998
 30
0.0
 11
250.1849595000001
 21
-509.7080869999998
 31
0.0
  0
LINE
  5
585
330
17
100
AcDbEntity
  8
0
  6
Continuous
100
AcDbLine
 10
324.0067215000001
 20
-482.8907619999998
 30
0.0
 11
319.3860675
 21
-482.4312099999998
 31
0.0
  0
LINE
  5
586
330
17
100
AcDbEntity
  8
0
  6
Continuous
100
AcDbLine
 10
250.1849595000001
 20
-509.7080869999998
 30
0.0
 11
250.0000004999999
 21
-512.0618599999998
 31
0.0
  0
LINE
  5
587
330
17
100
AcDbEntity
  8
0
  6
Continuous
100
AcDbLine
 10
361.1584095
 20
-527.7368169999999
 30
0.0
 11
363.4603915
 21
-525.6815749999998
 31
0.0
  0
LINE
  5
588
330
17
100
AcDbEntity
  8
0
  6
Continuous
100
AcDbLine
 10
369.2613005
 20
-516.7548939999999
 30
0.0
 11
369.8150405000001
 21
-514.4156329999998
 31
0.0
  0
LINE
  5
589
330
17
100
AcDbEntity
  8
0
  6
Continuous
100
AcDbLine
 10
587.0633905000001
 20
-521.3323699999998
 30
0.0
 11
588.3421955000001
 21
-519.0652209999998
 31
0.0
  0
LINE
  5
58A
330
17
100
AcDbEntity
  8
0
  6
Continuous
100
AcDbLine
 10
589.2613005
 20
-516.7548939999999
 30
0.0
 11
589.8150405000001
 21
-514.4156329999998
 31
0.0
  0
LINE
  5
58B
330
17
100
AcDbEntity
  8
0
  6
Continuous
100
AcDbLine
 10
258.8415905000001
 20
-527.7368169999999
 30
0.0
 11
261.4589805
 21
-529.6954179999998
 31
0.0
  0
LINE
  5
58C
330
17
100
AcDbEntity
  8
0
  6
Continuous
100
AcDbLine
 10
258.8415905000001
 20
-496.3869029999998
 30
0.0
 11
256.5396085000002
 21
-498.4421449999998
 31
0.0
  0
LINE
  5
58D
330
17
100
AcDbEntity
  8
0
  6
Continuous
100
AcDbLine
 10
251.6578045000001
 20
-505.0584989999999
 30
0.0
 11
250.7386994999999
 21
-507.3688259999998
 31
0.0
  0
LINE
  5
58E
330
17
100
AcDbEntity
  8
0
  6
Continuous
100
AcDbLine
 10
250.0000004999999
 20
-512.0618599999998
 30
0.0
 11
250.1849595000001
 21
-514.4156329999998
 31
0.0
  0
LINE
  5
58F
330
17
100
AcDbEntity
  8
0
  6
Continuous
100
AcDbLine
 10
585.4327715000001
 20
-523.5423629999997
 30
0.0
 11
587.0633905000001
 21
-521.3323699999998
 31
0.0
  0
LINE
  5
590
330
17
100
AcDbEntity
  8
0
  6
Continuous
100
AcDbLine
 10
252.9366095
 20
-502.7913499999998
 30
0.0
 11
251.6578045000001
 21
-505.0584989999999
 31
0.0
  0
LINE
  5
591
330
17
100
AcDbEntity
  8
0
  6
Continuous
100
AcDbLine
 10
271.0331175000001
 20
-489.2496809999998
 30
0.0
 11
267.5735935000002
 21
-490.8486569999998
 31
0.0
  0
LINE
  5
592
330
17
100
AcDbEntity
  8
0
  6
Continuous
100
AcDbLine
 10
261.4589805
 20
-529.6954179999998
 30
0.0
 11
264.3756425000001
 21
-531.5453009999998
 31
0.0
  0
LINE
  5
593
330
17
100
AcDbEntity
  8
0
  6
Continuous
100
AcDbLine
 10
588.3421955000001
 20
-519.0652209999998
 30
0.0
 11
589.2613005
 21
-516.7548939999999
 31
0.0
  0
LINE
  5
594
330
17
100
AcDbEntity
  8
0
  6
Continuous
100
AcDbLine
 10
520.6139325000001
 20
-482.4312099999998
 30
0.0
 11
515.9932785000001
 21
-482.8907619999998
 31
0.0
  0
LINE
  5
595
330
17
100
AcDbEntity
  8
0
  6
Continuous
100
AcDbLine
 10
507.0389944999999
 20
-484.3454739999998
 30
0.0
 11
502.7605705
 21
-485.3316639999998
 31
0.0
  0
LINE
  5
596
330
17
100
AcDbEntity
  8
0
  6
Continuous
100
AcDbLine
 10
511.4589805
 20
-483.5301639999998
 30
0.0
 11
507.0389944999999
 21
-484.3454739999998
 31
0.0
  0
LINE
  5
597
330
17
100
AcDbEntity
  8
0
  6
Continuous
100
AcDbLine
 10
515.9932785000001
 20
-482.8907619999998
 30
0.0
 11
511.4589805
 21
-483.5301639999998
 31
0.0
  0
LINE
  5
598
330
17
100
AcDbEntity
  8
0
  6
Continuous
100
AcDbLine
 10
498.6500865
 20
-486.4826549999998
 30
0.0
 11
494.7328844999999
 21
-487.7913499999998
 31
0.0
  0
LINE
  5
599
330
17
100
AcDbEntity
  8
0
  6
Continuous
100
AcDbLine
 10
502.7605705
 20
-485.3316639999998
 30
0.0
 11
498.6500865
 21
-486.4826549999998
 31
0.0
  0
LINE
  5
59A
330
17
100
AcDbEntity
  8
0
  6
Continuous
100
AcDbLine
 10
314.7075455000001
 20
-541.9693799999997
 30
0.0
 11
319.3860675
 21
-541.6925099999998
 31
0.0
  0
LINE
  5
59B
330
17
100
AcDbEntity
  8
0
  6
Continuous
100
AcDbLine
 10
363.4603915
 20
-525.6815749999998
 30
0.0
 11
365.4327715000001
 21
-523.5423629999997
 31
0.0
  0
LINE
  5
59C
330
17
100
AcDbEntity
  8
0
  6
Continuous
100
AcDbLine
 10
348.9668825000001
 20
-534.8740389999997
 30
0.0
 11
352.4264065
 21
-533.2750629999998
 31
0.0
  0
LINE
  5
59D
330
17
100
AcDbEntity
  8
0
  6
Continuous
100
AcDbLine
 10
300.6139325000001
 20
-482.4312099999998
 30
0.0
 11
295.9932785
 21
-482.8907619999998
 31
0.0
  0
LINE
  5
59E
330
17
100
AcDbEntity
  8
0
  6
Continuous
100
AcDbLine
 10
337.2394295000001
 20
-485.3316639999998
 30
0.0
 11
332.9610055
 21
-484.3454739999998
 31
0.0
  0
LINE
  5
59F
330
17
100
AcDbEntity
  8
0
  6
Continuous
100
AcDbLine
 10
305.2924545
 20
-482.1543399999998
 30
0.0
 11
300.6139325000001
 21
-482.4312099999998
 31
0.0
  0
LINE
  5
5A0
330
17
100
AcDbEntity
  8
0
  6
Continuous
100
AcDbLine
 10
337.2394295000001
 20
-538.7920559999997
 30
0.0
 11
341.3499134999999
 21
-537.6410649999997
 31
0.0
  0
LINE
  5
5A1
330
17
100
AcDbEntity
  8
0
  6
Continuous
100
AcDbLine
 10
369.2613005
 20
-507.3688259999998
 30
0.0
 11
368.3421955000001
 21
-505.0584989999999
 31
0.0
  0
LINE
  5
5A2
330
17
100
AcDbEntity
  8
0
  6
Continuous
100
AcDbLine
 10
341.3499134999999
 20
-537.6410649999997
 30
0.0
 11
345.2671155
 21
-536.3323699999998
 31
0.0
  0
LINE
  5
5A3
330
17
100
AcDbEntity
  8
0
  6
Continuous
100
AcDbLine
 10
435.6749565
 20
-449.8755399999998
 30
0.0
 11
437.6335575
 21
-447.2581489999998
 31
0.0
  0
LINE
  5
5A4
330
17
100
AcDbEntity
  8
0
  6
Continuous
100
AcDbLine
 10
431.4805025
 20
-454.1499019999998
 30
0.0
 11
433.6197145
 21
-452.1775209999998
 31
0.0
  0
LINE
  5
5A5
330
17
100
AcDbEntity
  8
0
  6
Continuous
100
AcDbLine
 10
367.0633905000002
 20
-521.3323699999998
 30
0.0
 11
368.3421955000001
 21
-519.0652209999998
 31
0.0
  0
LINE
  5
5A6
330
17
100
AcDbEntity
  8
0
  6
Continuous
100
AcDbLine
 10
287.0389944999999
 20
-539.7782459999998
 30
0.0
 11
291.4589805
 21
-540.5935549999997
 31
0.0
  0
LINE
  5
5A7
330
17
100
AcDbEntity
  8
0
  6
Continuous
100
AcDbLine
 10
369.8150405000001
 20
-514.4156329999998
 30
0.0
 11
370.0000004999999
 21
-512.0618599999998
 31
0.0
  0
LINE
  5
5A8
330
17
100
AcDbEntity
  8
0
  6
Continuous
100
AcDbLine
 10
370.0000004999999
 20
-512.0618599999998
 30
0.0
 11
369.8150405000001
 21
-509.7080869999998
 31
0.0
  0
LINE
  5
5A9
330
17
100
AcDbEntity
  8
0
  6
Continuous
100
AcDbLine
 10
368.3421955000001
 20
-505.0584989999999
 30
0.0
 11
367.0633905000002
 21
-502.7913499999998
 31
0.0
  0
LINE
  5
5AA
330
17
100
AcDbEntity
  8
0
  6
Continuous
100
AcDbLine
 10
358.5410195000001
 20
-494.4283019999998
 30
0.0
 11
355.6243575
 21
-492.5784189999998
 31
0.0
  0
LINE
  5
5AB
330
17
100
AcDbEntity
  8
0
  6
Continuous
100
AcDbLine
 10
282.7605705
 20
-538.7920559999997
 30
0.0
 11
287.0389944999999
 21
-539.7782459999998
 31
0.0
  0
LINE
  5
5AC
330
17
100
AcDbEntity
  8
0
  6
Continuous
100
AcDbLine
 10
393.2698044999999
 20
-371.4776999999997
 30
0.0
 11
392.2836145000001
 21
-375.7561239999998
 31
0.0
  0
LINE
  5
5AD
330
17
100
AcDbEntity
  8
0
  6
Continuous
100
AcDbLine
 10
422.3537725
 20
-458.5321699999998
 30
0.0
 11
424.6930335
 21
-457.9784299999998
 31
0.0
  0
LINE
  5
5AE
330
17
100
AcDbEntity
  8
0
  6
Continuous
100
AcDbLine
 10
352.4264065
 20
-533.2750629999998
 30
0.0
 11
355.6243575
 21
-531.5453009999998
 31
0.0
  0
LINE
  5
5AF
330
17
100
AcDbEntity
  8
0
  6
Continuous
100
AcDbLine
 10
390.3693495
 20
-408.1031979999998
 30
0.0
 11
390.8289025000001
 21
-412.7238509999998
 31
0.0
  0
LINE
  5
5B0
330
17
100
AcDbEntity
  8
0
  6
Continuous
100
AcDbLine
 10
394.4207955000001
 20
-367.3672159999998
 30
0.0
 11
393.2698044999999
 21
-371.4776999999997
 31
0.0
  0
LINE
  5
5B1
330
17
100
AcDbEntity
  8
0
  6
Continuous
100
AcDbLine
 10
310.0000004999999
 20
-542.0618599999998
 30
0.0
 11
314.7075455000001
 21
-541.9693799999997
 31
0.0
  0
LINE
  5
5B2
330
17
100
AcDbEntity
  8
0
  6
Continuous
100
AcDbLine
 10
328.5410195000001
 20
-540.5935549999997
 30
0.0
 11
332.9610055
 21
-539.7782459999998
 31
0.0
  0
LINE
  5
5B3
330
17
100
AcDbEntity
  8
0
  6
Continuous
100
AcDbLine
 10
291.4589805
 20
-540.5935549999997
 30
0.0
 11
295.9932785
 21
-541.2329579999997
 31
0.0
  0
LINE
  5
5B4
330
17
100
AcDbEntity
  8
0
  6
Continuous
100
AcDbLine
 10
278.6500865
 20
-537.6410649999997
 30
0.0
 11
282.7605705
 21
-538.7920559999997
 31
0.0
  0
LINE
  5
5B5
330
17
100
AcDbEntity
  8
0
  6
Continuous
100
AcDbLine
 10
345.2671155
 20
-536.3323699999998
 30
0.0
 11
348.9668825000001
 21
-534.8740389999997
 31
0.0
  0
LINE
  5
5B6
330
17
100
AcDbEntity
  8
0
  6
Continuous
100
AcDbLine
 10
319.3860675
 20
-541.6925099999998
 30
0.0
 11
324.0067215000001
 21
-541.2329579999997
 31
0.0
  0
LINE
  5
5B7
330
17
100
AcDbEntity
  8
0
  6
Continuous
100
AcDbLine
 10
274.7328844999999
 20
-536.3323699999998
 30
0.0
 11
278.6500865
 21
-537.6410649999997
 31
0.0
  0
LINE
  5
5B8
330
17
100
AcDbEntity
  8
0
  6
Continuous
100
AcDbLine
 10
332.9610055
 20
-539.7782459999998
 30
0.0
 11
337.2394295000001
 21
-538.7920559999997
 31
0.0
  0
LINE
  5
5B9
330
17
100
AcDbEntity
  8
0
  6
Continuous
100
AcDbLine
 10
319.3860675
 20
-482.4312099999998
 30
0.0
 11
314.7075455000001
 21
-482.1543399999998
 31
0.0
  0
LINE
  5
5BA
330
17
100
AcDbEntity
  8
0
  6
Continuous
100
AcDbLine
 10
310.0000004999999
 20
-482.0618599999998
 30
0.0
 11
305.2924545
 21
-482.1543399999998
 31
0.0
  0
LINE
  5
5BB
330
17
100
AcDbEntity
  8
0
  6
Continuous
100
AcDbLine
 10
300.6139325000001
 20
-541.6925099999998
 30
0.0
 11
305.2924545
 21
-541.9693799999997
 31
0.0
  0
LINE
  5
5BC
330
17
100
AcDbEntity
  8
0
  6
Continuous
100
AcDbLine
 10
324.0067215000001
 20
-541.2329579999997
 30
0.0
 11
328.5410195000001
 21
-540.5935549999997
 31
0.0
  0
LINE
  5
5BD
330
17
100
AcDbEntity
  8
0
  6
Continuous
100
AcDbLine
 10
367.0633905000002
 20
-502.7913499999998
 30
0.0
 11
365.4327715000001
 21
-500.5813569999999
 31
0.0
  0
LINE
  5
5BE
330
17
100
AcDbEntity
  8
0
  6
Continuous
100
AcDbLine
 10
355.6243575
 20
-531.5453009999998
 30
0.0
 11
358.5410195000001
 21
-529.6954179999998
 31
0.0
  0
LINE
  5
5BF
330
17
100
AcDbEntity
  8
0
  6
Continuous
100
AcDbLine
 10
271.0331175000001
 20
-534.8740389999997
 30
0.0
 11
274.7328844999999
 21
-536.3323699999998
 31
0.0
  0
LINE
  5
5C0
330
17
100
AcDbEntity
  8
0
  6
Continuous
100
AcDbLine
 10
369.8150405000001
 20
-509.7080869999998
 30
0.0
 11
369.2613005
 21
-507.3688259999998
 31
0.0
  0
LINE
  5
5C1
330
17
100
AcDbEntity
  8
0
  6
Continuous
100
AcDbLine
 10
305.2924545
 20
-541.9693799999997
 30
0.0
 11
310.0000004999999
 21
-542.0618599999998
 31
0.0
  0
LINE
  5
5C2
330
17
100
AcDbEntity
  8
0
  6
Continuous
100
AcDbLine
 10
295.9932785
 20
-541.2329579999997
 30
0.0
 11
300.6139325000001
 21
-541.6925099999998
 31
0.0
  0
LINE
  5
5C3
330
17
100
AcDbEntity
  8
0
  6
Continuous
100
AcDbLine
 10
365.4327715000001
 20
-500.5813569999999
 30
0.0
 11
363.4603915
 21
-498.4421449999998
 31
0.0
  0
LINE
  5
5C4
330
17
100
AcDbEntity
  8
0
  6
Continuous
100
AcDbLine
 10
267.5735935000002
 20
-533.2750629999998
 30
0.0
 11
271.0331175000001
 21
-534.8740389999997
 31
0.0
  0
LINE
  5
5C5
330
17
100
AcDbEntity
  8
0
  6
Continuous
100
AcDbLine
 10
328.5410195000001
 20
-483.5301639999998
 30
0.0
 11
324.0067215000001
 21
-482.8907619999998
 31
0.0
  0
LINE
  5
5C6
330
17
100
AcDbEntity
  8
0
  6
Continuous
100
AcDbLine
 10
355.6243575
 20
-492.5784189999998
 30
0.0
 11
352.4264065
 21
-490.8486569999998
 31
0.0
  0
LINE
  5
5C7
330
17
100
AcDbEntity
  8
0
  6
Continuous
100
AcDbLine
 10
278.6500865
 20
-486.4826549999998
 30
0.0
 11
274.7328844999999
 21
-487.7913499999998
 31
0.0
  0
LINE
  5
5C8
330
17
100
AcDbEntity
  8
0
  6
Continuous
100
AcDbLine
 10
534.7075455000001
 20
-482.1543399999998
 30
0.0
 11
530.0000004999999
 21
-482.0618599999998
 31
0.0
  0
LINE
  5
5C9
330
17
100
AcDbEntity
  8
0
  6
Continuous
100
AcDbLine
 10
557.2394295000001
 20
-485.3316639999998
 30
0.0
 11
552.9610055
 21
-484.3454739999998
 31
0.0
  0
LINE
  5
5CA
330
17
100
AcDbEntity
  8
0
  6
Continuous
100
AcDbLine
 10
587.0633905000001
 20
-502.7913499999998
 30
0.0
 11
585.4327715000001
 21
-500.5813569999999
 31
0.0
  0
LINE
  5
5CB
330
17
100
AcDbEntity
  8
0
  6
Continuous
100
AcDbLine
 10
561.3499134999999
 20
-486.4826549999998
 30
0.0
 11
557.2394295000001
 21
-485.3316639999998
 31
0.0
  0
LINE
  5
5CC
330
17
100
AcDbEntity
  8
0
  6
Continuous
100
AcDbLine
 10
589.2613005
 20
-507.3688259999998
 30
0.0
 11
588.3421955000001
 21
-505.0584989999999
 31
0.0
  0
LINE
  5
5CD
330
17
100
AcDbEntity
  8
0
  6
Continuous
100
AcDbLine
 10
548.5410195000001
 20
-483.5301639999998
 30
0.0
 11
544.0067215000001
 21
-482.8907619999998
 31
0.0
  0
LINE
  5
5CE
330
17
100
AcDbEntity
  8
0
  6
Continuous
100
AcDbLine
 10
525.2924545
 20
-482.1543399999998
 30
0.0
 11
520.6139325000001
 21
-482.4312099999998
 31
0.0
  0
LINE
  5
5CF
330
17
100
AcDbEntity
  8
0
  6
Continuous
100
AcDbLine
 10
530.0000004999999
 20
-482.0618599999998
 30
0.0
 11
525.2924545
 21
-482.1543399999998
 31
0.0
  0
LINE
  5
5D0
330
17
100
AcDbEntity
  8
0
  6
Continuous
100
AcDbLine
 10
583.4603915
 20
-498.4421449999998
 30
0.0
 11
581.1584095
 21
-496.3869029999998
 31
0.0
  0
LINE
  5
5D1
330
17
100
AcDbEntity
  8
0
  6
Continuous
100
AcDbLine
 10
539.3860675
 20
-482.4312099999998
 30
0.0
 11
534.7075455000001
 21
-482.1543399999998
 31
0.0
  0
LINE
  5
5D2
330
17
100
AcDbEntity
  8
0
  6
Continuous
100
AcDbLine
 10
578.5410195000001
 20
-494.4283019999998
 30
0.0
 11
575.6243575
 21
-492.5784189999998
 31
0.0
  0
LINE
  5
5D3
330
17
100
AcDbEntity
  8
0
  6
Continuous
100
AcDbLine
 10
588.3421955000001
 20
-505.0584989999999
 30
0.0
 11
587.0633905000001
 21
-502.7913499999998
 31
0.0
  0
LINE
  5
5D4
330
17
100
AcDbEntity
  8
0
  6
Continuous
100
AcDbLine
 10
589.8150405000001
 20
-509.7080869999998
 30
0.0
 11
589.2613005
 21
-507.3688259999998
 31
0.0
  0
LINE
  5
5D5
330
17
100
AcDbEntity
  8
0
  6
Continuous
100
AcDbLine
 10
585.4327715000001
 20
-500.5813569999999
 30
0.0
 11
583.4603915
 21
-498.4421449999998
 31
0.0
  0
LINE
  5
5D6
330
17
100
AcDbEntity
  8
0
  6
Continuous
100
AcDbLine
 10
544.0067215000001
 20
-482.8907619999998
 30
0.0
 11
539.3860675
 21
-482.4312099999998
 31
0.0
  0
LINE
  5
5D7
330
17
100
AcDbEntity
  8
0
  6
Continuous
100
AcDbLine
 10
565.2671155
 20
-487.7913499999998
 30
0.0
 11
561.3499134999999
 21
-486.4826549999998
 31
0.0
  0
LINE
  5
5D8
330
17
100
AcDbEntity
  8
0
  6
Continuous
100
AcDbLine
 10
568.9668825
 20
-489.2496809999998
 30
0.0
 11
565.2671155
 21
-487.7913499999998
 31
0.0
  0
LINE
  5
5D9
330
17
100
AcDbEntity
  8
0
  6
Continuous
100
AcDbLine
 10
572.4264064999999
 20
-490.8486569999998
 30
0.0
 11
568.9668825
 21
-489.2496809999998
 31
0.0
  0
LINE
  5
5DA
330
17
100
AcDbEntity
  8
0
  6
Continuous
100
AcDbLine
 10
581.1584095
 20
-496.3869029999998
 30
0.0
 11
578.5410195000001
 21
-494.4283019999998
 31
0.0
  0
LINE
  5
5DB
330
17
100
AcDbEntity
  8
0
  6
Continuous
100
AcDbLine
 10
575.6243575
 20
-492.5784189999998
 30
0.0
 11
572.4264064999999
 21
-490.8486569999998
 31
0.0
  0
LINE
  5
5DC
330
17
100
AcDbEntity
  8
0
  6
Continuous
100
AcDbLine
 10
590.0000004999999
 20
-512.0618599999998
 30
0.0
 11
589.8150405000001
 21
-509.7080869999998
 31
0.0
  0
LINE
  5
5DD
330
17
100
AcDbEntity
  8
0
  6
Continuous
100
AcDbLine
 10
552.9610055
 20
-484.3454739999998
 30
0.0
 11
548.5410195000001
 21
-483.5301639999998
 31
0.0
  0
LINE
  5
5DE
330
17
100
AcDbEntity
  8
0
  6
Continuous
100
AcDbLine
 10
266.9593205000001
 20
-712.3606259999998
 30
0.0
 11
272.0031034999999
 21
-704.0239309999998
 31
0.0
  0
LINE
  5
5DF
330
17
100
AcDbEntity
  8
0
  6
Continuous
100
AcDbLine
 10
296.6127655
 20
-838.0507029999998
 30
0.0
 11
297.6924615
 21
-835.4513459999997
 31
0.0
  0
LINE
  5
5E0
330
17
100
AcDbEntity
  8
0
  6
Continuous
100
AcDbLine
 10
257.7263095
 20
-729.2447489999998
 30
0.0
 11
265.1619765
 21
-715.3313949999998
 31
0.0
  0
LINE
  5
5E1
330
17
100
AcDbEntity
  8
0
  6
Continuous
100
AcDbLine
 10
242.6161524999999
 20
-858.0787169999998
 30
0.0
 11
242.7439285
 21
-858.1482569999998
 31
0.0
  0
LINE
  5
5E2
330
17
100
AcDbEntity
  8
0
  6
Continuous
100
AcDbLine
 10
619.9121004999999
 20
-823.8778789999997
 30
0.0
 11
619.9852395
 21
-820.9753139999998
 31
0.0
  0
LINE
  5
5E3
330
17
100
AcDbEntity
  8
0
  6
Continuous
100
AcDbLine
 10
544.3527435
 20
-840.1248269999998
 30
0.0
 11
545.9150394999999
 21
-842.9954569999997
 31
0.0
  0
LINE
  5
5E4
330
17
100
AcDbEntity
  8
0
  6
Continuous
100
AcDbLine
 10
540.3338965
 20
-822.5201139999997
 30
0.0
 11
538.7697905
 21
-804.6497089999999
 31
0.0
  0
LINE
  5
5E5
330
17
100
AcDbEntity
  8
0
  6
Continuous
100
AcDbLine
 10
227.2893025000001
 20
-845.0468969999999
 30
0.0
 11
229.5581345
 21
-848.0097469999998
 31
0.0
  0
LINE
  5
5E6
330
17
100
AcDbEntity
  8
0
  6
Continuous
100
AcDbLine
 10
295.6455505000001
 20
-840.1279609999999
 30
0.0
 11
296.0863965000001
 21
-839.3179319999999
 31
0.0
  0
LINE
  5
5E7
330
17
100
AcDbEntity
  8
0
  6
Continuous
100
AcDbLine
 10
459.4486415000001
 20
-828.3406409999997
 30
0.0
 11
459.7808755
 21
-826.2429989999997
 31
0.0
  0
LINE
  5
5E8
330
17
100
AcDbEntity
  8
0
  6
Continuous
100
AcDbLine
 10
381.8248195000001
 20
-833.9264749999998
 30
0.0
 11
381.9577395000001
 21
-834.4225399999997
 31
0.0
  0
LINE
  5
5E9
330
17
100
AcDbEntity
  8
0
  6
Continuous
100
AcDbLine
 10
535.8737204999999
 20
-729.1823639999997
 30
0.0
 11
535.9524625000001
 21
-724.7075959999998
 31
0.0
  0
LINE
  5
5EA
330
17
100
AcDbEntity
  8
0
  6
Continuous
100
AcDbLine
 10
575.4525925
 20
-716.4813539999998
 30
0.0
 11
582.3352775
 21
-729.3599879999998
 31
0.0
  0
LINE
  5
5EB
330
17
100
AcDbEntity
  8
0
  6
Continuous
100
AcDbLine
 10
301.2423655
 20
-804.4764509999998
 30
0.0
 11
301.2302094999999
 21
-804.6497089999999
 31
0.0
  0
LINE
  5
5EC
330
17
100
AcDbEntity
  8
0
  6
Continuous
100
AcDbLine
 10
220.8895924999999
 20
-830.2619589999999
 30
0.0
 11
221.6360154999999
 21
-833.3846119999998
 31
0.0
  0
LINE
  5
5ED
330
17
100
AcDbEntity
  8
0
  6
Continuous
100
AcDbLine
 10
387.1189565000002
 20
-776.9183289999999
 30
0.0
 11
388.0000004999999
 21
-771.6777749999999
 31
0.0
  0
LINE
  5
5EE
330
17
100
AcDbEntity
  8
0
  6
Continuous
100
AcDbLine
 10
449.2024905
 20
-756.9954889999998
 30
0.0
 11
452.0000004999999
 21
-771.6777749999999
 31
0.0
  0
LINE
  5
5EF
330
17
100
AcDbEntity
  8
0
  6
Continuous
100
AcDbLine
 10
573.2926335
 20
-712.7770719999999
 30
0.0
 11
574.8380235000001
 21
-715.3313949999998
 31
0.0
  0
LINE
  5
5F0
330
17
100
AcDbEntity
  8
0
  6
Continuous
100
AcDbLine
 10
536.3713975
 20
-718.8071879999998
 30
0.0
 11
536.8884475000002
 21
-711.5248919999998
 31
0.0
  0
LINE
  5
5F1
330
17
100
AcDbEntity
  8
0
  6
Continuous
100
AcDbLine
 10
240.0065635000003
 20
-767.2106139999998
 30
0.0
 11
240.7018345000001
 21
-765.5805639999998
 31
0.0
  0
LINE
  5
5F2
330
17
100
AcDbEntity
  8
0
  6
Continuous
100
AcDbLine
 10
304.0011815
 20
-756.7587699999998
 30
0.0
 11
303.9511274999999
 21
-759.2363929999997
 31
0.0
  0
LINE
  5
5F3
330
17
100
AcDbEntity
  8
0
  6
Continuous
100
AcDbLine
 10
393.8922425
 20
-742.0774219999998
 30
0.0
 11
396.0000004999999
 21
-732.4901529999998
 31
0.0
  0
LINE
  5
5F4
330
17
100
AcDbEntity
  8
0
  6
Continuous
100
AcDbLine
 10
444.2978595000002
 20
-733.8449859999998
 30
0.0
 11
448.0000004999999
 21
-750.6844059999998
 31
0.0
  0
LINE
  5
5F5
330
17
100
AcDbEntity
  8
0
  6
Continuous
100
AcDbLine
 10
597.2560715000001
 20
-858.1482569999998
 30
0.0
 11
600.9335965
 21
-856.1468209999999
 31
0.0
  0
LINE
  5
5F6
330
17
100
AcDbEntity
  8
0
  6
Continuous
100
AcDbLine
 10
618.3639845
 20
-833.3846119999998
 30
0.0
 11
619.3373724999998
 21
-829.3124569999999
 31
0.0
  0
LINE
  5
5F7
330
17
100
AcDbEntity
  8
0
  6
Continuous
100
AcDbLine
 10
619.6526215000001
 20
-816.8016709999998
 30
0.0
 11
618.8855605000001
 21
-812.6856589999999
 31
0.0
  0
LINE
  5
5F8
330
17
100
AcDbEntity
  8
0
  6
Continuous
100
AcDbLine
 10
572.7494035000002
 20
-861.3992329999998
 30
0.0
 11
576.9009985
 21
-861.9416319999997
 31
0.0
  0
LINE
  5
5F9
330
17
100
AcDbEntity
  8
0
  6
Continuous
100
AcDbLine
 10
581.0865464999999
 20
-862.0470999999998
 30
0.0
 11
585.2601895
 21
-861.7144819999998
 31
0.0
  0
LINE
  5
5FA
330
17
100
AcDbEntity
  8
0
  6
Continuous
100
AcDbLine
 10
619.8797715
 20
-825.1608619999998
 30
0.0
 11
619.9121004999999
 21
-823.8778789999997
 31
0.0
  0
LINE
  5
5FB
330
17
100
AcDbEntity
  8
0
  6
Continuous
100
AcDbLine
 10
615.1715065000001
 20
-841.1135039999997
 30
0.0
 11
616.9702724999999
 21
-837.3327129999998
 31
0.0
  0
LINE
  5
5FC
330
17
100
AcDbEntity
  8
0
  6
Continuous
100
AcDbLine
 10
619.3373724999998
 20
-829.3124569999999
 30
0.0
 11
619.8797715
 21
-825.1608619999998
 31
0.0
  0
LINE
  5
5FD
330
17
100
AcDbEntity
  8
0
  6
Continuous
100
AcDbLine
 10
576.9009985
 20
-861.9416319999997
 30
0.0
 11
581.0865464999999
 21
-862.0470999999998
 31
0.0
  0
LINE
  5
5FE
330
17
100
AcDbEntity
  8
0
  6
Continuous
100
AcDbLine
 10
619.9852395
 20
-820.9753139999998
 30
0.0
 11
619.6526215000001
 21
-816.8016709999998
 31
0.0
  0
LINE
  5
5FF
330
17
100
AcDbEntity
  8
0
  6
Continuous
100
AcDbLine
 10
593.3894855000001
 20
-859.7543219999998
 30
0.0
 11
597.2560715000001
 21
-858.1482569999998
 31
0.0
  0
LINE
  5
600
330
17
100
AcDbEntity
  8
0
  6
Continuous
100
AcDbLine
 10
610.4418655000001
 20
-848.0097469999998
 30
0.0
 11
612.9873945000001
 21
-844.6855599999999
 31
0.0
  0
LINE
  5
601
330
17
100
AcDbEntity
  8
0
  6
Continuous
100
AcDbLine
 10
612.9873945000001
 20
-844.6855599999999
 30
0.0
 11
615.1715065000001
 21
-841.1135039999997
 31
0.0
  0
LINE
  5
602
330
17
100
AcDbEntity
  8
0
  6
Continuous
100
AcDbLine
 10
616.9702724999999
 20
-837.3327129999998
 30
0.0
 11
618.3639845
 21
-833.3846119999998
 31
0.0
  0
LINE
  5
603
330
17
100
AcDbEntity
  8
0
  6
Continuous
100
AcDbLine
 10
604.3817685000001
 20
-853.7719429999999
 30
0.0
 11
607.5628094999999
 21
-851.0496429999998
 31
0.0
  0
LINE
  5
604
330
17
100
AcDbEntity
  8
0
  6
Continuous
100
AcDbLine
 10
564.7291474999999
 20
-859.0321329999998
 30
0.0
 11
568.6772484999998
 21
-860.4258449999997
 31
0.0
  0
LINE
  5
605
330
17
100
AcDbEntity
  8
0
  6
Continuous
100
AcDbLine
 10
607.5628094999999
 20
-851.0496429999998
 30
0.0
 11
610.4418655000001
 21
-848.0097469999998
 31
0.0
  0
LINE
  5
606
330
17
100
AcDbEntity
  8
0
  6
Continuous
100
AcDbLine
 10
560.9483565
 20
-857.2333669999999
 30
0.0
 11
564.7291474999999
 21
-859.0321329999998
 31
0.0
  0
LINE
  5
607
330
17
100
AcDbEntity
  8
0
  6
Continuous
100
AcDbLine
 10
568.6772484999998
 20
-860.4258449999997
 30
0.0
 11
572.7494035000002
 21
-861.3992329999998
 31
0.0
  0
LINE
  5
608
330
17
100
AcDbEntity
  8
0
  6
Continuous
100
AcDbLine
 10
589.3762015
 20
-860.9474209999998
 30
0.0
 11
593.3894855000001
 21
-859.7543219999998
 31
0.0
  0
LINE
  5
609
330
17
100
AcDbEntity
  8
0
  6
Continuous
100
AcDbLine
 10
600.9335965
 20
-856.1468209999999
 30
0.0
 11
604.3817685000001
 21
-853.7719429999999
 31
0.0
  0
LINE
  5
60A
330
17
100
AcDbEntity
  8
0
  6
Continuous
100
AcDbLine
 10
585.2601895
 20
-861.7144819999998
 30
0.0
 11
589.3762015
 21
-860.9474209999998
 31
0.0
  0
LINE
  5
60B
330
17
100
AcDbEntity
  8
0
  6
Continuous
100
AcDbLine
 10
541.1144395
 20
-831.4380619999997
 30
0.0
 11
542.3075384999999
 21
-835.4513459999997
 31
0.0
  0
LINE
  5
60C
330
17
100
AcDbEntity
  8
0
  6
Continuous
100
AcDbLine
 10
554.0521135000001
 20
-852.5037259999999
 30
0.0
 11
557.3763005
 21
-855.0492549999999
 31
0.0
  0
LINE
  5
60D
330
17
100
AcDbEntity
  8
0
  6
Continuous
100
AcDbLine
 10
548.2899175
 20
-846.4436289999998
 30
0.0
 11
551.0122174999999
 21
-849.6246699999998
 31
0.0
  0
LINE
  5
60E
330
17
100
AcDbEntity
  8
0
  6
Continuous
100
AcDbLine
 10
551.0122174999999
 20
-849.6246699999998
 30
0.0
 11
554.0521135000001
 21
-852.5037259999999
 31
0.0
  0
LINE
  5
60F
330
17
100
AcDbEntity
  8
0
  6
Continuous
100
AcDbLine
 10
542.3075384999999
 20
-835.4513459999997
 30
0.0
 11
543.9136034999998
 21
-839.3179319999999
 31
0.0
  0
LINE
  5
610
330
17
100
AcDbEntity
  8
0
  6
Continuous
100
AcDbLine
 10
543.9136034999998
 20
-839.3179319999999
 30
0.0
 11
544.3527435
 21
-840.1248269999998
 31
0.0
  0
LINE
  5
611
330
17
100
AcDbEntity
  8
0
  6
Continuous
100
AcDbLine
 10
582.3352775
 20
-729.3599879999998
 30
0.0
 11
590.4886575
 21
-746.1097109999998
 31
0.0
  0
LINE
  5
612
330
17
100
AcDbEntity
  8
0
  6
Continuous
100
AcDbLine
 10
567.9968965
 20
-704.0239309999998
 30
0.0
 11
573.2926335
 21
-712.7770719999999
 31
0.0
  0
LINE
  5
613
330
17
100
AcDbEntity
  8
0
  6
Continuous
100
AcDbLine
 10
561.8118965
 20
-695.4375969999999
 30
0.0
 11
567.9968965
 21
-704.0239309999998
 31
0.0
  0
LINE
  5
614
330
17
100
AcDbEntity
  8
0
  6
Continuous
100
AcDbLine
 10
556.2830235000001
 20
-689.5723929999998
 30
0.0
 11
561.8118965
 21
-695.4375969999999
 31
0.0
  0
LINE
  5
615
330
17
100
AcDbEntity
  8
0
  6
Continuous
100
AcDbLine
 10
551.4102765
 20
-686.4283179999999
 30
0.0
 11
556.2830235000001
 21
-689.5723929999998
 31
0.0
  0
LINE
  5
616
330
17
100
AcDbEntity
  8
0
  6
Continuous
100
AcDbLine
 10
547.1936575000001
 20
-686.0053739999998
 30
0.0
 11
551.4102765
 21
-686.4283179999999
 31
0.0
  0
LINE
  5
617
330
17
100
AcDbEntity
  8
0
  6
Continuous
100
AcDbLine
 10
543.6331645
 20
-688.3035589999998
 30
0.0
 11
547.1936575000001
 21
-686.0053739999998
 31
0.0
  0
LINE
  5
618
330
17
100
AcDbEntity
  8
0
  6
Continuous
100
AcDbLine
 10
540.7287985
 20
-693.3228729999998
 30
0.0
 11
543.6331645
 21
-688.3035589999998
 31
0.0
  0
LINE
  5
619
330
17
100
AcDbEntity
  8
0
  6
Continuous
100
AcDbLine
 10
538.4805595
 20
-701.0633179999999
 30
0.0
 11
540.7287985
 21
-693.3228729999998
 31
0.0
  0
LINE
  5
61A
330
17
100
AcDbEntity
  8
0
  6
Continuous
100
AcDbLine
 10
535.6726045
 20
-740.6114299999998
 30
0.0
 11
535.8737204999999
 21
-729.1823639999997
 31
0.0
  0
LINE
  5
61B
330
17
100
AcDbEntity
  8
0
  6
Continuous
100
AcDbLine
 10
537.0812674999999
 20
-780.5824859999997
 30
0.0
 11
536.0488725
 21
-759.2363929999997
 31
0.0
  0
LINE
  5
61C
330
17
100
AcDbEntity
  8
0
  6
Continuous
100
AcDbLine
 10
538.7697905
 20
-804.6497089999999
 30
0.0
 11
537.0812674999999
 21
-780.5824859999997
 31
0.0
  0
LINE
  5
61D
330
17
100
AcDbEntity
  8
0
  6
Continuous
100
AcDbLine
 10
541.1144395
 20
-831.4380619999997
 30
0.0
 11
540.3338965
 21
-822.5201139999997
 31
0.0
  0
LINE
  5
61E
330
17
100
AcDbEntity
  8
0
  6
Continuous
100
AcDbLine
 10
545.9150394999999
 20
-842.9954569999997
 30
0.0
 11
548.2899175
 21
-846.4436289999998
 31
0.0
  0
LINE
  5
61F
330
17
100
AcDbEntity
  8
0
  6
Continuous
100
AcDbLine
 10
557.3763005
 20
-855.0492549999999
 30
0.0
 11
560.9483565
 21
-857.2333669999999
 31
0.0
  0
LINE
  5
620
330
17
100
AcDbEntity
  8
0
  6
Continuous
100
AcDbLine
 10
536.0488725
 20
-759.2363929999997
 30
0.0
 11
535.6726045
 21
-740.6114299999998
 31
0.0
  0
LINE
  5
621
330
17
100
AcDbEntity
  8
0
  6
Continuous
100
AcDbLine
 10
608.7637995000002
 20
-787.7725469999997
 30
0.0
 11
618.8855605000001
 21
-812.6856589999999
 31
0.0
  0
LINE
  5
622
330
17
100
AcDbEntity
  8
0
  6
Continuous
100
AcDbLine
 10
535.9524625000001
 20
-724.7075959999998
 30
0.0
 11
536.3713975
 21
-718.8071879999998
 31
0.0
  0
LINE
  5
623
330
17
100
AcDbEntity
  8
0
  6
Continuous
100
AcDbLine
 10
599.2981655000001
 20
-765.5805639999998
 30
0.0
 11
608.7637995000002
 21
-787.7725469999997
 31
0.0
  0
LINE
  5
624
330
17
100
AcDbEntity
  8
0
  6
Continuous
100
AcDbLine
 10
590.4886575
 20
-746.1097109999998
 30
0.0
 11
599.2981655000001
 21
-765.5805639999998
 31
0.0
  0
LINE
  5
625
330
17
100
AcDbEntity
  8
0
  6
Continuous
100
AcDbLine
 10
574.8380235000001
 20
-715.3313949999998
 30
0.0
 11
575.4525925
 21
-716.4813539999998
 31
0.0
  0
LINE
  5
626
330
17
100
AcDbEntity
  8
0
  6
Continuous
100
AcDbLine
 10
536.8884475000002
 20
-711.5248919999998
 30
0.0
 11
538.4805595
 21
-701.0633179999999
 31
0.0
  0
LINE
  5
627
330
17
100
AcDbEntity
  8
0
  6
Continuous
100
AcDbLine
 10
301.5194404999999
 20
-701.0633179999999
 30
0.0
 11
303.1115525
 21
-711.5248919999998
 31
0.0
  0
LINE
  5
628
330
17
100
AcDbEntity
  8
0
  6
Continuous
100
AcDbLine
 10
299.2712014999999
 20
-693.3228729999998
 30
0.0
 11
301.5194404999999
 21
-701.0633179999999
 31
0.0
  0
LINE
  5
629
330
17
100
AcDbEntity
  8
0
  6
Continuous
100
AcDbLine
 10
296.3668355000002
 20
-688.3035589999998
 30
0.0
 11
299.2712014999999
 21
-693.3228729999998
 31
0.0
  0
LINE
  5
62A
330
17
100
AcDbEntity
  8
0
  6
Continuous
100
AcDbLine
 10
283.7169765
 20
-689.5723929999998
 30
0.0
 11
288.5897234999999
 21
-686.4283179999999
 31
0.0
  0
LINE
  5
62B
330
17
100
AcDbEntity
  8
0
  6
Continuous
100
AcDbLine
 10
278.1881035000001
 20
-695.4375969999999
 30
0.0
 11
283.7169765
 21
-689.5723929999998
 31
0.0
  0
LINE
  5
62C
330
17
100
AcDbEntity
  8
0
  6
Continuous
100
AcDbLine
 10
272.0031034999999
 20
-704.0239309999998
 30
0.0
 11
278.1881035000001
 21
-695.4375969999999
 31
0.0
  0
LINE
  5
62D
330
17
100
AcDbEntity
  8
0
  6
Continuous
100
AcDbLine
 10
257.6647224999999
 20
-729.3599879999998
 30
0.0
 11
257.7263095
 21
-729.2447489999998
 31
0.0
  0
LINE
  5
62E
330
17
100
AcDbEntity
  8
0
  6
Continuous
100
AcDbLine
 10
231.2362005000002
 20
-787.7725469999997
 30
0.0
 11
240.0065635000003
 21
-767.2106139999998
 31
0.0
  0
LINE
  5
62F
330
17
100
AcDbEntity
  8
0
  6
Continuous
100
AcDbLine
 10
301.2302094999999
 20
-804.6497089999999
 30
0.0
 11
298.8855605000001
 21
-831.4380619999997
 31
0.0
  0
LINE
  5
630
330
17
100
AcDbEntity
  8
0
  6
Continuous
100
AcDbLine
 10
303.9511274999999
 20
-759.2363929999997
 30
0.0
 11
302.9187325
 21
-780.5824859999997
 31
0.0
  0
LINE
  5
631
330
17
100
AcDbEntity
  8
0
  6
Continuous
100
AcDbLine
 10
221.1144395000003
 20
-812.6856589999999
 30
0.0
 11
231.2362005000002
 21
-787.7725469999997
 31
0.0
  0
LINE
  5
632
330
17
100
AcDbEntity
  8
0
  6
Continuous
100
AcDbLine
 10
288.5897234999999
 20
-686.4283179999999
 30
0.0
 11
292.8063425
 21
-686.0053739999998
 31
0.0
  0
LINE
  5
633
330
17
100
AcDbEntity
  8
0
  6
Continuous
100
AcDbLine
 10
302.9187325
 20
-780.5824859999997
 30
0.0
 11
301.2423655
 21
-804.4764509999998
 31
0.0
  0
LINE
  5
634
330
17
100
AcDbEntity
  8
0
  6
Continuous
100
AcDbLine
 10
304.3273955000001
 20
-740.6114299999998
 30
0.0
 11
304.0011815
 21
-756.7587699999998
 31
0.0
  0
LINE
  5
635
330
17
100
AcDbEntity
  8
0
  6
Continuous
100
AcDbLine
 10
303.1115525
 20
-711.5248919999998
 30
0.0
 11
304.0475375000001
 21
-724.7075959999998
 31
0.0
  0
LINE
  5
636
330
17
100
AcDbEntity
  8
0
  6
Continuous
100
AcDbLine
 10
249.5113425000001
 20
-746.1097109999998
 30
0.0
 11
257.6647224999999
 21
-729.3599879999998
 31
0.0
  0
LINE
  5
637
330
17
100
AcDbEntity
  8
0
  6
Continuous
100
AcDbLine
 10
292.8063425
 20
-686.0053739999998
 30
0.0
 11
296.3668355000002
 21
-688.3035589999998
 31
0.0
  0
LINE
  5
638
330
17
100
AcDbEntity
  8
0
  6
Continuous
100
AcDbLine
 10
265.1619765
 20
-715.3313949999998
 30
0.0
 11
266.9593205000001
 21
-712.3606259999998
 31
0.0
  0
LINE
  5
639
330
17
100
AcDbEntity
  8
0
  6
Continuous
100
AcDbLine
 10
240.7018345000001
 20
-765.5805639999998
 30
0.0
 11
249.5113425000001
 21
-746.1097109999998
 31
0.0
  0
LINE
  5
63A
330
17
100
AcDbEntity
  8
0
  6
Continuous
100
AcDbLine
 10
221.1144395000003
 20
-812.6856589999999
 30
0.0
 11
220.3473785000001
 21
-816.8016709999998
 31
0.0
  0
LINE
  5
63B
330
17
100
AcDbEntity
  8
0
  6
Continuous
100
AcDbLine
 10
220.3473785000001
 20
-816.8016709999998
 30
0.0
 11
220.0147605000001
 21
-820.9753139999998
 31
0.0
  0
LINE
  5
63C
330
17
100
AcDbEntity
  8
0
  6
Continuous
100
AcDbLine
 10
220.6626275
 20
-829.3124569999999
 30
0.0
 11
220.8895924999999
 21
-830.2619589999999
 31
0.0
  0
LINE
  5
63D
330
17
100
AcDbEntity
  8
0
  6
Continuous
100
AcDbLine
 10
221.6360154999999
 20
-833.3846119999998
 30
0.0
 11
223.0297275
 21
-837.3327129999998
 31
0.0
  0
LINE
  5
63E
330
17
100
AcDbEntity
  8
0
  6
Continuous
100
AcDbLine
 10
224.8284934999999
 20
-841.1135039999997
 30
0.0
 11
227.0126055
 21
-844.6855599999999
 31
0.0
  0
LINE
  5
63F
330
17
100
AcDbEntity
  8
0
  6
Continuous
100
AcDbLine
 10
227.0126055
 20
-844.6855599999999
 30
0.0
 11
227.2893025000001
 21
-845.0468969999999
 31
0.0
  0
LINE
  5
640
330
17
100
AcDbEntity
  8
0
  6
Continuous
100
AcDbLine
 10
229.5581345
 20
-848.0097469999998
 30
0.0
 11
232.4371905
 21
-851.0496429999998
 31
0.0
  0
LINE
  5
641
330
17
100
AcDbEntity
  8
0
  6
Continuous
100
AcDbLine
 10
235.6182315000001
 20
-853.7719429999999
 30
0.0
 11
239.0664035000002
 21
-856.1468209999999
 31
0.0
  0
LINE
  5
642
330
17
100
AcDbEntity
  8
0
  6
Continuous
100
AcDbLine
 10
242.7439285
 20
-858.1482569999998
 30
0.0
 11
246.6105144999999
 21
-859.7543219999998
 31
0.0
  0
LINE
  5
643
330
17
100
AcDbEntity
  8
0
  6
Continuous
100
AcDbLine
 10
246.6105144999999
 20
-859.7543219999998
 30
0.0
 11
250.6237985
 21
-860.9474209999998
 31
0.0
  0
LINE
  5
644
330
17
100
AcDbEntity
  8
0
  6
Continuous
100
AcDbLine
 10
254.7398105000002
 20
-861.7144819999998
 30
0.0
 11
258.9134535
 21
-862.0470999999998
 31
0.0
  0
LINE
  5
645
330
17
100
AcDbEntity
  8
0
  6
Continuous
100
AcDbLine
 10
258.9134535
 20
-862.0470999999998
 30
0.0
 11
263.0990015
 21
-861.9416319999997
 31
0.0
  0
LINE
  5
646
330
17
100
AcDbEntity
  8
0
  6
Continuous
100
AcDbLine
 10
263.0990015
 20
-861.9416319999997
 30
0.0
 11
267.2505965000002
 21
-861.3992329999998
 31
0.0
  0
LINE
  5
647
330
17
100
AcDbEntity
  8
0
  6
Continuous
100
AcDbLine
 10
267.2505965000002
 20
-861.3992329999998
 30
0.0
 11
271.3227515000001
 21
-860.4258449999997
 31
0.0
  0
LINE
  5
648
330
17
100
AcDbEntity
  8
0
  6
Continuous
100
AcDbLine
 10
271.3227515000001
 20
-860.4258449999997
 30
0.0
 11
275.2708525
 21
-859.0321329999998
 31
0.0
  0
LINE
  5
649
330
17
100
AcDbEntity
  8
0
  6
Continuous
100
AcDbLine
 10
275.2708525
 20
-859.0321329999998
 30
0.0
 11
279.0516435000002
 21
-857.2333669999999
 31
0.0
  0
LINE
  5
64A
330
17
100
AcDbEntity
  8
0
  6
Continuous
100
AcDbLine
 10
279.0516435000002
 20
-857.2333669999999
 30
0.0
 11
282.6236995000001
 21
-855.0492549999999
 31
0.0
  0
LINE
  5
64B
330
17
100
AcDbEntity
  8
0
  6
Continuous
100
AcDbLine
 10
282.6236995000001
 20
-855.0492549999999
 30
0.0
 11
285.9478865000001
 21
-852.5037259999999
 31
0.0
  0
LINE
  5
64C
330
17
100
AcDbEntity
  8
0
  6
Continuous
100
AcDbLine
 10
285.9478865000001
 20
-852.5037259999999
 30
0.0
 11
288.9877825000001
 21
-849.6246699999998
 31
0.0
  0
LINE
  5
64D
330
17
100
AcDbEntity
  8
0
  6
Continuous
100
AcDbLine
 10
288.9877825000001
 20
-849.6246699999998
 30
0.0
 11
291.7100824999999
 21
-846.4436289999998
 31
0.0
  0
LINE
  5
64E
330
17
100
AcDbEntity
  8
0
  6
Continuous
100
AcDbLine
 10
291.7100824999999
 20
-846.4436289999998
 30
0.0
 11
294.0849605
 21
-842.9954569999997
 31
0.0
  0
LINE
  5
64F
330
17
100
AcDbEntity
  8
0
  6
Continuous
100
AcDbLine
 10
294.0849605
 20
-842.9954569999997
 30
0.0
 11
295.6455505000001
 21
-840.1279609999999
 31
0.0
  0
LINE
  5
650
330
17
100
AcDbEntity
  8
0
  6
Continuous
100
AcDbLine
 10
296.0863965000001
 20
-839.3179319999999
 30
0.0
 11
296.6127655
 21
-838.0507029999998
 31
0.0
  0
LINE
  5
651
330
17
100
AcDbEntity
  8
0
  6
Continuous
100
AcDbLine
 10
297.6924615
 20
-835.4513459999997
 30
0.0
 11
298.8855605000001
 21
-831.4380619999997
 31
0.0
  0
LINE
  5
652
330
17
100
AcDbEntity
  8
0
  6
Continuous
100
AcDbLine
 10
220.1202285000001
 20
-825.1608619999998
 30
0.0
 11
220.6626275
 21
-829.3124569999999
 31
0.0
  0
LINE
  5
653
330
17
100
AcDbEntity
  8
0
  6
Continuous
100
AcDbLine
 10
223.0297275
 20
-837.3327129999998
 30
0.0
 11
224.8284934999999
 21
-841.1135039999997
 31
0.0
  0
LINE
  5
654
330
17
100
AcDbEntity
  8
0
  6
Continuous
100
AcDbLine
 10
232.4371905
 20
-851.0496429999998
 30
0.0
 11
235.6182315000001
 21
-853.7719429999999
 31
0.0
  0
LINE
  5
655
330
17
100
AcDbEntity
  8
0
  6
Continuous
100
AcDbLine
 10
239.0664035000002
 20
-856.1468209999999
 30
0.0
 11
242.6161524999999
 21
-858.0787169999998
 31
0.0
  0
LINE
  5
656
330
17
100
AcDbEntity
  8
0
  6
Continuous
100
AcDbLine
 10
250.6237985
 20
-860.9474209999998
 30
0.0
 11
254.7398105000002
 21
-861.7144819999998
 31
0.0
  0
LINE
  5
657
330
17
100
AcDbEntity
  8
0
  6
Continuous
100
AcDbLine
 10
220.0147605000001
 20
-820.9753139999998
 30
0.0
 11
220.1202285000001
 21
-825.1608619999998
 31
0.0
  0
LINE
  5
658
330
17
100
AcDbEntity
  8
0
  6
Continuous
100
AcDbLine
 10
304.0475375000001
 20
-724.7075959999998
 30
0.0
 11
304.3273955000001
 21
-740.6114299999998
 31
0.0
  0
LINE
  5
659
330
17
100
AcDbEntity
  8
0
  6
Continuous
100
AcDbLine
 10
599.3710065
 20
-1020.610411999999
 30
0.0
 11
601.5995755000001
 21
-1020.886732999999
 31
0.0
  0
LINE
  5
65A
330
17
100
AcDbEntity
  8
0
  6
Continuous
100
AcDbLine
 10
629.5325205000001
 20
-974.1612849999999
 30
0.0
 11
625.2350075000001
 21
-974.0848849999997
 31
0.0
  0
LINE
  5
65B
330
17
100
AcDbEntity
  8
0
  6
Continuous
100
AcDbLine
 10
494.8317515000001
 20
-997.0466129999998
 30
0.0
 11
494.6133805000001
 21
-995.6280739999998
 31
0.0
  0
LINE
  5
65C
330
17
100
AcDbEntity
  8
0
  6
Continuous
100
AcDbLine
 10
468.0976745
 20
-979.6869709999999
 30
0.0
 11
464.2741165
 21
-978.6897949999998
 31
0.0
  0
LINE
  5
65D
330
17
100
AcDbEntity
  8
0
  6
Continuous
100
AcDbLine
 10
190.8049305000001
 20
-1020.671016999999
 30
0.0
 11
191.6003335000002
 21
-1020.769638999999
 31
0.0
  0
LINE
  5
65E
330
17
100
AcDbEntity
  8
0
  6
Continuous
100
AcDbLine
 10
269.2659455
 20
-981.4405089999997
 30
0.0
 11
265.3598515
 21
-980.1826879999998
 31
0.0
  0
LINE
  5
65F
330
17
100
AcDbEntity
  8
0
  6
Continuous
100
AcDbLine
 10
420.0000004999999
 20
-682.1060679999998
 30
0.0
 11
420.0000004999999
 21
-682.0618599999997
 31
0.0
  0
LINE
  5
660
330
17
100
AcDbEntity
  8
0
  6
Continuous
100
AcDbLine
 10
446.7652245000001
 20
-851.7876529999998
 30
0.0
 11
449.7257935
 21
-848.8270849999999
 31
0.0
  0
LINE
  5
661
330
17
100
AcDbEntity
  8
0
  6
Continuous
100
AcDbLine
 10
428.0000004999999
 20
-687.7042999999998
 30
0.0
 11
432.0000004999999
 21
-694.7020899999998
 31
0.0
  0
LINE
  5
662
330
17
100
AcDbEntity
  8
0
  6
Continuous
100
AcDbLine
 10
424.1811385
 20
-861.8427359999998
 30
0.0
 11
428.3164675
 21
-861.1877639999997
 31
0.0
  0
LINE
  5
663
330
17
100
AcDbEntity
  8
0
  6
Continuous
100
AcDbLine
 10
436.2694655
 20
-858.6036789999997
 30
0.0
 11
440.0000004999999
 21
-856.7028769999998
 31
0.0
  0
LINE
  5
664
330
17
100
AcDbEntity
  8
0
  6
Continuous
100
AcDbLine
 10
408.0000004999999
 20
-694.7020899999998
 30
0.0
 11
412.0000004999999
 21
-687.7042999999998
 31
0.0
  0
LINE
  5
665
330
17
100
AcDbEntity
  8
0
  6
Continuous
100
AcDbLine
 10
440.0000004999999
 20
-856.7028769999998
 30
0.0
 11
443.5114105
 21
-854.4225399999998
 31
0.0
  0
LINE
  5
666
330
17
100
AcDbEntity
  8
0
  6
Continuous
100
AcDbLine
 10
440.0000004999999
 20
-717.0950159999997
 30
0.0
 11
444.0000004999999
 21
-732.4901529999998
 31
0.0
  0
LINE
  5
667
330
17
100
AcDbEntity
  8
0
  6
Continuous
100
AcDbLine
 10
456.5418185000001
 20
-838.3313259999997
 30
0.0
 11
458.0422605000001
 21
-834.4225399999997
 31
0.0
  0
LINE
  5
668
330
17
100
AcDbEntity
  8
0
  6
Continuous
100
AcDbLine
 10
416.0000004999999
 20
-683.5056259999999
 30
0.0
 11
420.0000004999999
 21
-682.1060679999998
 31
0.0
  0
LINE
  5
669
330
17
100
AcDbEntity
  8
0
  6
Continuous
100
AcDbLine
 10
420.0000004999999
 20
-682.1060679999998
 30
0.0
 11
424.0000004999999
 21
-683.5056259999999
 31
0.0
  0
LINE
  5
66A
330
17
100
AcDbEntity
  8
0
  6
Continuous
100
AcDbLine
 10
449.7257935
 20
-848.8270849999999
 30
0.0
 11
452.3606795
 21
-845.5732699999998
 31
0.0
  0
LINE
  5
66B
330
17
100
AcDbEntity
  8
0
  6
Continuous
100
AcDbLine
 10
459.1259044999999
 20
-830.3783279999997
 30
0.0
 11
459.4486415000001
 21
-828.3406409999997
 31
0.0
  0
LINE
  5
66C
330
17
100
AcDbEntity
  8
0
  6
Continuous
100
AcDbLine
 10
432.0000004999999
 20
-694.7020899999998
 30
0.0
 11
436.0000004999999
 21
-704.4989949999997
 31
0.0
  0
LINE
  5
66D
330
17
100
AcDbEntity
  8
0
  6
Continuous
100
AcDbLine
 10
443.5114105
 20
-854.4225399999998
 30
0.0
 11
446.7652245000001
 21
-851.7876529999998
 31
0.0
  0
LINE
  5
66E
330
17
100
AcDbEntity
  8
0
  6
Continuous
100
AcDbLine
 10
412.0000004999999
 20
-687.7042999999998
 30
0.0
 11
416.0000004999999
 21
-683.5056259999999
 31
0.0
  0
LINE
  5
66F
330
17
100
AcDbEntity
  8
0
  6
Continuous
100
AcDbLine
 10
452.0000004999999
 20
-771.6777749999999
 30
0.0
 11
456.0000004999999
 21
-795.4702599999998
 31
0.0
  0
LINE
  5
670
330
17
100
AcDbEntity
  8
0
  6
Continuous
100
AcDbLine
 10
459.7808755
 20
-826.2429989999997
 30
0.0
 11
460.0000004999999
 21
-822.0618599999998
 31
0.0
  0
LINE
  5
671
330
17
100
AcDbEntity
  8
0
  6
Continuous
100
AcDbLine
 10
452.3606795
 20
-845.5732699999998
 30
0.0
 11
454.6410165
 21
-842.0618599999997
 31
0.0
  0
LINE
  5
672
330
17
100
AcDbEntity
  8
0
  6
Continuous
100
AcDbLine
 10
420.0000004999999
 20
-862.0618599999998
 30
0.0
 11
424.1811385
 21
-861.8427359999998
 31
0.0
  0
LINE
  5
673
330
17
100
AcDbEntity
  8
0
  6
Continuous
100
AcDbLine
 10
428.3164675
 20
-861.1877639999997
 30
0.0
 11
432.3606795
 21
-860.1041209999998
 31
0.0
  0
LINE
  5
674
330
17
100
AcDbEntity
  8
0
  6
Continuous
100
AcDbLine
 10
432.3606795
 20
-860.1041209999998
 30
0.0
 11
436.2694655
 21
-858.6036789999997
 31
0.0
  0
LINE
  5
675
330
17
100
AcDbEntity
  8
0
  6
Continuous
100
AcDbLine
 10
436.0000004999999
 20
-704.4989949999997
 30
0.0
 11
440.0000004999999
 21
-717.0950159999997
 31
0.0
  0
LINE
  5
676
330
17
100
AcDbEntity
  8
0
  6
Continuous
100
AcDbLine
 10
458.0422605000001
 20
-834.4225399999997
 30
0.0
 11
459.1259044999999
 21
-830.3783279999997
 31
0.0
  0
LINE
  5
677
330
17
100
AcDbEntity
  8
0
  6
Continuous
100
AcDbLine
 10
454.6410165
 20
-842.0618599999997
 30
0.0
 11
456.5418185000001
 21
-838.3313259999997
 31
0.0
  0
LINE
  5
678
330
17
100
AcDbEntity
  8
0
  6
Continuous
100
AcDbLine
 10
380.2191245000001
 20
-826.2429989999997
 30
0.0
 11
380.8740955
 21
-830.3783279999997
 31
0.0
  0
LINE
  5
679
330
17
100
AcDbEntity
  8
0
  6
Continuous
100
AcDbLine
 10
396.0000004999999
 20
-732.4901529999998
 30
0.0
 11
400.0000004999999
 21
-717.0950159999997
 31
0.0
  0
LINE
  5
67A
330
17
100
AcDbEntity
  8
0
  6
Continuous
100
AcDbLine
 10
404.0000004999999
 20
-704.4989949999997
 30
0.0
 11
408.0000004999999
 21
-694.7020899999998
 31
0.0
  0
LINE
  5
67B
330
17
100
AcDbEntity
  8
0
  6
Continuous
100
AcDbLine
 10
380.0000004999999
 20
-822.0618599999998
 30
0.0
 11
384.0000004999999
 21
-795.4702599999998
 31
0.0
  0
LINE
  5
67C
330
17
100
AcDbEntity
  8
0
  6
Continuous
100
AcDbLine
 10
388.0000004999999
 20
-771.6777749999999
 30
0.0
 11
392.0000004999999
 21
-750.6844059999998
 31
0.0
  0
LINE
  5
67D
330
17
100
AcDbEntity
  8
0
  6
Continuous
100
AcDbLine
 10
384.0000004999999
 20
-795.4702599999998
 30
0.0
 11
387.1189565000002
 21
-776.9183289999999
 31
0.0
  0
LINE
  5
67E
330
17
100
AcDbEntity
  8
0
  6
Continuous
100
AcDbLine
 10
448.0000004999999
 20
-750.6844059999998
 30
0.0
 11
449.2024905
 21
-756.9954889999998
 31
0.0
  0
LINE
  5
67F
330
17
100
AcDbEntity
  8
0
  6
Continuous
100
AcDbLine
 10
456.0000004999999
 20
-795.4702599999998
 30
0.0
 11
460.0000004999999
 21
-822.0618599999998
 31
0.0
  0
LINE
  5
680
330
17
100
AcDbEntity
  8
0
  6
Continuous
100
AcDbLine
 10
400.0000004999999
 20
-717.0950159999997
 30
0.0
 11
404.0000004999999
 21
-704.4989949999997
 31
0.0
  0
LINE
  5
681
330
17
100
AcDbEntity
  8
0
  6
Continuous
100
AcDbLine
 10
392.0000004999999
 20
-750.6844059999998
 30
0.0
 11
393.8922425
 21
-742.0774219999998
 31
0.0
  0
LINE
  5
682
330
17
100
AcDbEntity
  8
0
  6
Continuous
100
AcDbLine
 10
444.0000004999999
 20
-732.4901529999998
 30
0.0
 11
444.2978595000002
 21
-733.8449859999998
 31
0.0
  0
LINE
  5
683
330
17
100
AcDbEntity
  8
0
  6
Continuous
100
AcDbLine
 10
424.0000004999999
 20
-683.5056259999999
 30
0.0
 11
428.0000004999999
 21
-687.7042999999998
 31
0.0
  0
LINE
  5
684
330
17
100
AcDbEntity
  8
0
  6
Continuous
100
AcDbLine
 10
411.6835324999999
 20
-861.1877639999997
 30
0.0
 11
415.8188615000001
 21
-861.8427359999998
 31
0.0
  0
LINE
  5
685
330
17
100
AcDbEntity
  8
0
  6
Continuous
100
AcDbLine
 10
383.4581815000001
 20
-838.3313259999997
 30
0.0
 11
385.3589835
 21
-842.0618599999997
 31
0.0
  0
LINE
  5
686
330
17
100
AcDbEntity
  8
0
  6
Continuous
100
AcDbLine
 10
385.3589835
 20
-842.0618599999997
 30
0.0
 11
387.6393205000001
 21
-845.5732699999998
 31
0.0
  0
LINE
  5
687
330
17
100
AcDbEntity
  8
0
  6
Continuous
100
AcDbLine
 10
380.8740955
 20
-830.3783279999997
 30
0.0
 11
381.8248195000001
 21
-833.9264749999998
 31
0.0
  0
LINE
  5
688
330
17
100
AcDbEntity
  8
0
  6
Continuous
100
AcDbLine
 10
415.8188615000001
 20
-861.8427359999998
 30
0.0
 11
420.0000004999999
 21
-862.0618599999998
 31
0.0
  0
LINE
  5
689
330
17
100
AcDbEntity
  8
0
  6
Continuous
100
AcDbLine
 10
403.7305345
 20
-858.6036789999997
 30
0.0
 11
407.6393205000001
 21
-860.1041209999998
 31
0.0
  0
LINE
  5
68A
330
17
100
AcDbEntity
  8
0
  6
Continuous
100
AcDbLine
 10
380.0000004999999
 20
-822.0618599999998
 30
0.0
 11
380.2191245000001
 21
-826.2429989999997
 31
0.0
  0
LINE
  5
68B
330
17
100
AcDbEntity
  8
0
  6
Continuous
100
AcDbLine
 10
387.6393205000001
 20
-845.5732699999998
 30
0.0
 11
390.2742064999999
 21
-848.8270849999999
 31
0.0
  0
LINE
  5
68C
330
17
100
AcDbEntity
  8
0
  6
Continuous
100
AcDbLine
 10
407.6393205000001
 20
-860.1041209999998
 30
0.0
 11
411.6835324999999
 21
-861.1877639999997
 31
0.0
  0
LINE
  5
68D
330
17
100
AcDbEntity
  8
0
  6
Continuous
100
AcDbLine
 10
381.9577395000001
 20
-834.4225399999997
 30
0.0
 11
383.4581815000001
 21
-838.3313259999997
 31
0.0
  0
LINE
  5
68E
330
17
100
AcDbEntity
  8
0
  6
Continuous
100
AcDbLine
 10
400.0000004999999
 20
-856.7028769999998
 30
0.0
 11
403.7305345
 21
-858.6036789999997
 31
0.0
  0
LINE
  5
68F
330
17
100
AcDbEntity
  8
0
  6
Continuous
100
AcDbLine
 10
393.2347755
 20
-851.7876529999998
 30
0.0
 11
396.4885895
 21
-854.4225399999998
 31
0.0
  0
LINE
  5
690
330
17
100
AcDbEntity
  8
0
  6
Continuous
100
AcDbLine
 10
396.4885895
 20
-854.4225399999998
 30
0.0
 11
400.0000004999999
 21
-856.7028769999998
 31
0.0
  0
LINE
  5
691
330
17
100
AcDbEntity
  8
0
  6
Continuous
100
AcDbLine
 10
390.2742064999999
 20
-848.8270849999999
 30
0.0
 11
393.2347755
 21
-851.7876529999998
 31
0.0
  0
LINE
  5
692
330
17
100
AcDbEntity
  8
0
  6
Continuous
100
AcDbLine
 10
420.0000004999999
 20
-974.0656599999997
 30
0.0
 11
412.3945115000001
 21
-974.1855489999998
 31
0.0
  0
LINE
  5
693
330
17
100
AcDbEntity
  8
0
  6
Continuous
100
AcDbLine
 10
420.0000004999999
 20
-1022.058001999999
 30
0.0
 11
427.6054885
 21
-1021.938113
 31
0.0
  0
LINE
  5
694
330
17
100
AcDbEntity
  8
0
  6
Continuous
100
AcDbLine
 10
457.7036745
 20
-977.3149869999997
 30
0.0
 11
450.7201434999999
 21
-976.1674859999997
 31
0.0
  0
LINE
  5
695
330
17
100
AcDbEntity
  8
0
  6
Continuous
100
AcDbLine
 10
450.7201434999999
 20
-976.1674859999997
 30
0.0
 11
443.4000355000001
 21
-975.2598639999998
 31
0.0
  0
LINE
  5
696
330
17
100
AcDbEntity
  8
0
  6
Continuous
100
AcDbLine
 10
443.4000355000001
 20
-975.2598639999998
 30
0.0
 11
435.8235525
 21
-974.6020649999998
 31
0.0
  0
LINE
  5
697
330
17
100
AcDbEntity
  8
0
  6
Continuous
100
AcDbLine
 10
435.8235525
 20
-974.6020649999998
 30
0.0
 11
428.0737034999999
 21
-974.2012969999999
 31
0.0
  0
LINE
  5
698
330
17
100
AcDbEntity
  8
0
  6
Continuous
100
AcDbLine
 10
428.0737034999999
 20
-974.2012969999999
 30
0.0
 11
420.2353964999999
 21
-974.0619489999998
 31
0.0
  0
LINE
  5
699
330
17
100
AcDbEntity
  8
0
  6
Continuous
100
AcDbLine
 10
420.2353964999999
 20
-974.0619489999998
 30
0.0
 11
420.0000004999999
 21
-974.0656599999997
 31
0.0
  0
LINE
  5
69A
330
17
100
AcDbEntity
  8
0
  6
Continuous
100
AcDbLine
 10
412.3945115000001
 20
-974.1855489999998
 30
0.0
 11
404.6369525
 21
-974.5707429999997
 31
0.0
  0
LINE
  5
69B
330
17
100
AcDbEntity
  8
0
  6
Continuous
100
AcDbLine
 10
404.6369525
 20
-974.5707429999997
 30
0.0
 11
397.0477155000001
 21
-975.2133099999996
 31
0.0
  0
LINE
  5
69C
330
17
100
AcDbEntity
  8
0
  6
Continuous
100
AcDbLine
 10
397.0477155000001
 20
-975.2133099999996
 30
0.0
 11
389.7099475
 21
-976.1062099999998
 31
0.0
  0
LINE
  5
69D
330
17
100
AcDbEntity
  8
0
  6
Continuous
100
AcDbLine
 10
389.7099475
 20
-976.1062099999998
 30
0.0
 11
382.7040445
 21
-977.2396599999998
 31
0.0
  0
LINE
  5
69E
330
17
100
AcDbEntity
  8
0
  6
Continuous
100
AcDbLine
 10
382.7040445
 20
-977.2396599999998
 30
0.0
 11
376.1067635000001
 21
-978.6012429999997
 31
0.0
  0
LINE
  5
69F
330
17
100
AcDbEntity
  8
0
  6
Continuous
100
AcDbLine
 10
376.1067635000001
 20
-978.6012429999997
 30
0.0
 11
369.9903855
 21
-980.1760389999998
 31
0.0
  0
LINE
  5
6A0
330
17
100
AcDbEntity
  8
0
  6
Continuous
100
AcDbLine
 10
369.9903855
 20
-980.1760389999998
 30
0.0
 11
364.4219235
 21
-981.9467969999996
 31
0.0
  0
LINE
  5
6A1
330
17
100
AcDbEntity
  8
0
  6
Continuous
100
AcDbLine
 10
364.4219235
 20
-981.9467969999996
 30
0.0
 11
359.4623865
 21
-983.8941129999998
 31
0.0
  0
LINE
  5
6A2
330
17
100
AcDbEntity
  8
0
  6
Continuous
100
AcDbLine
 10
359.4623865
 20
-983.8941129999998
 30
0.0
 11
355.1661125
 21
-985.9966549999999
 31
0.0
  0
LINE
  5
6A3
330
17
100
AcDbEntity
  8
0
  6
Continuous
100
AcDbLine
 10
355.1661125
 20
-985.9966549999999
 30
0.0
 11
351.5801725000001
 21
-988.2313849999997
 31
0.0
  0
LINE
  5
6A4
330
17
100
AcDbEntity
  8
0
  6
Continuous
100
AcDbLine
 10
351.5801725000001
 20
-988.2313849999997
 30
0.0
 11
348.7438544999999
 21
-990.5738189999999
 31
0.0
  0
LINE
  5
6A5
330
17
100
AcDbEntity
  8
0
  6
Continuous
100
AcDbLine
 10
348.7438544999999
 20
-990.5738189999999
 30
0.0
 11
346.6882335
 21
-992.9982939999998
 31
0.0
  0
LINE
  5
6A6
330
17
100
AcDbEntity
  8
0
  6
Continuous
100
AcDbLine
 10
346.6882335
 20
-992.9982939999998
 30
0.0
 11
345.4358305
 21
-995.4782459999998
 31
0.0
  0
LINE
  5
6A7
330
17
100
AcDbEntity
  8
0
  6
Continuous
100
AcDbLine
 10
345.4358305
 20
-995.4782459999998
 30
0.0
 11
345.0003695
 21
-997.9865039999998
 31
0.0
  0
LINE
  5
6A8
330
17
100
AcDbEntity
  8
0
  6
Continuous
100
AcDbLine
 10
345.0003695
 20
-997.9865039999998
 30
0.0
 11
345.3866195
 21
-1000.495586999999
 31
0.0
  0
LINE
  5
6A9
330
17
100
AcDbEntity
  8
0
  6
Continuous
100
AcDbLine
 10
345.3866195
 20
-1000.495586999999
 30
0.0
 11
346.5903495
 21
-1002.978005999999
 31
0.0
  0
LINE
  5
6AA
330
17
100
AcDbEntity
  8
0
  6
Continuous
100
AcDbLine
 10
346.5903495
 20
-1002.978005999999
 30
0.0
 11
348.5983714999999
 21
-1005.406561999999
 31
0.0
  0
LINE
  5
6AB
330
17
100
AcDbEntity
  8
0
  6
Continuous
100
AcDbLine
 10
348.5983714999999
 20
-1005.406561999999
 30
0.0
 11
351.3886835
 21
-1007.754647999999
 31
0.0
  0
LINE
  5
6AC
330
17
100
AcDbEntity
  8
0
  6
Continuous
100
AcDbLine
 10
354.9307165
 20
-1009.996536999999
 30
0.0
 11
359.1856614999999
 21
-1012.107666999999
 31
0.0
  0
LINE
  5
6AD
330
17
100
AcDbEntity
  8
0
  6
Continuous
100
AcDbLine
 10
359.1856614999999
 20
-1012.107666999999
 30
0.0
 11
364.1069015
 21
-1014.064906999999
 31
0.0
  0
LINE
  5
6AE
330
17
100
AcDbEntity
  8
0
  6
Continuous
100
AcDbLine
 10
364.1069015
 20
-1014.064906999999
 30
0.0
 11
369.6405174999999
 21
-1015.846814999999
 31
0.0
  0
LINE
  5
6AF
330
17
100
AcDbEntity
  8
0
  6
Continuous
100
AcDbLine
 10
369.6405174999999
 20
-1015.846814999999
 30
0.0
 11
375.7258835
 21
-1017.433866999999
 31
0.0
  0
LINE
  5
6B0
330
17
100
AcDbEntity
  8
0
  6
Continuous
100
AcDbLine
 10
375.7258835
 20
-1017.433866999999
 30
0.0
 11
382.2963255000002
 21
-1018.808674999999
 31
0.0
  0
LINE
  5
6B1
330
17
100
AcDbEntity
  8
0
  6
Continuous
100
AcDbLine
 10
382.2963255000002
 20
-1018.808674999999
 30
0.0
 11
389.2798565
 21
-1019.956175999999
 31
0.0
  0
LINE
  5
6B2
330
17
100
AcDbEntity
  8
0
  6
Continuous
100
AcDbLine
 10
389.2798565
 20
-1019.956175999999
 30
0.0
 11
396.5999644999999
 21
-1020.863796999999
 31
0.0
  0
LINE
  5
6B3
330
17
100
AcDbEntity
  8
0
  6
Continuous
100
AcDbLine
 10
396.5999644999999
 20
-1020.863796999999
 30
0.0
 11
404.1764474999999
 21
-1021.521595999999
 31
0.0
  0
LINE
  5
6B4
330
17
100
AcDbEntity
  8
0
  6
Continuous
100
AcDbLine
 10
404.1764474999999
 20
-1021.521595999999
 30
0.0
 11
411.9262965
 21
-1021.922364999999
 31
0.0
  0
LINE
  5
6B5
330
17
100
AcDbEntity
  8
0
  6
Continuous
100
AcDbLine
 10
411.9262965
 20
-1021.922364999999
 30
0.0
 11
419.7646034999999
 21
-1022.061712999999
 31
0.0
  0
LINE
  5
6B6
330
17
100
AcDbEntity
  8
0
  6
Continuous
100
AcDbLine
 10
419.7646034999999
 20
-1022.061712999999
 30
0.0
 11
420.0000004999999
 21
-1022.058001999999
 31
0.0
  0
LINE
  5
6B7
330
17
100
AcDbEntity
  8
0
  6
Continuous
100
AcDbLine
 10
427.6054885
 20
-1021.938113
 30
0.0
 11
435.3630475
 21
-1021.552918999999
 31
0.0
  0
LINE
  5
6B8
330
17
100
AcDbEntity
  8
0
  6
Continuous
100
AcDbLine
 10
435.3630475
 20
-1021.552918999999
 30
0.0
 11
442.9522844999999
 21
-1020.910352
 31
0.0
  0
LINE
  5
6B9
330
17
100
AcDbEntity
  8
0
  6
Continuous
100
AcDbLine
 10
442.9522844999999
 20
-1020.910352
 30
0.0
 11
450.2900525
 21
-1020.017451999999
 31
0.0
  0
LINE
  5
6BA
330
17
100
AcDbEntity
  8
0
  6
Continuous
100
AcDbLine
 10
450.2900525
 20
-1020.017451999999
 30
0.0
 11
457.2959554999999
 21
-1018.884001999999
 31
0.0
  0
LINE
  5
6BB
330
17
100
AcDbEntity
  8
0
  6
Continuous
100
AcDbLine
 10
457.2959554999999
 20
-1018.884001999999
 30
0.0
 11
463.8932365
 21
-1017.522418999999
 31
0.0
  0
LINE
  5
6BC
330
17
100
AcDbEntity
  8
0
  6
Continuous
100
AcDbLine
 10
463.8932365
 20
-1017.522418999999
 30
0.0
 11
470.0096144999999
 21
-1015.947622
 31
0.0
  0
LINE
  5
6BD
330
17
100
AcDbEntity
  8
0
  6
Continuous
100
AcDbLine
 10
470.0096144999999
 20
-1015.947622
 30
0.0
 11
475.5780765000001
 21
-1014.176864999999
 31
0.0
  0
LINE
  5
6BE
330
17
100
AcDbEntity
  8
0
  6
Continuous
100
AcDbLine
 10
475.5780765000001
 20
-1014.176864999999
 30
0.0
 11
480.5376134999999
 21
-1012.229547999999
 31
0.0
  0
LINE
  5
6BF
330
17
100
AcDbEntity
  8
0
  6
Continuous
100
AcDbLine
 10
480.5376134999999
 20
-1012.229547999999
 30
0.0
 11
484.8338875000002
 21
-1010.127006999999
 31
0.0
  0
LINE
  5
6C0
330
17
100
AcDbEntity
  8
0
  6
Continuous
100
AcDbLine
 10
484.8338875000002
 20
-1010.127006999999
 30
0.0
 11
488.4198275000001
 21
-1007.892276999999
 31
0.0
  0
LINE
  5
6C1
330
17
100
AcDbEntity
  8
0
  6
Continuous
100
AcDbLine
 10
488.4198275000001
 20
-1007.892276999999
 30
0.0
 11
491.2561455
 21
-1005.549841999999
 31
0.0
  0
LINE
  5
6C2
330
17
100
AcDbEntity
  8
0
  6
Continuous
100
AcDbLine
 10
491.2561455
 20
-1005.549841999999
 30
0.0
 11
493.3117665000001
 21
-1003.125367999999
 31
0.0
  0
LINE
  5
6C3
330
17
100
AcDbEntity
  8
0
  6
Continuous
100
AcDbLine
 10
493.3117665000001
 20
-1003.125367999999
 30
0.0
 11
494.5641695000001
 21
-1000.645416
 31
0.0
  0
LINE
  5
6C4
330
17
100
AcDbEntity
  8
0
  6
Continuous
100
AcDbLine
 10
494.5641695000001
 20
-1000.645416
 30
0.0
 11
494.9996305000001
 21
-998.1371579999999
 31
0.0
  0
LINE
  5
6C5
330
17
100
AcDbEntity
  8
0
  6
Continuous
100
AcDbLine
 10
494.9996305000001
 20
-998.1371579999999
 30
0.0
 11
494.8317515000001
 21
-997.0466129999998
 31
0.0
  0
LINE
  5
6C6
330
17
100
AcDbEntity
  8
0
  6
Continuous
100
AcDbLine
 10
494.6133805000001
 20
-995.6280739999998
 30
0.0
 11
493.4096505
 21
-993.1456559999997
 31
0.0
  0
LINE
  5
6C7
330
17
100
AcDbEntity
  8
0
  6
Continuous
100
AcDbLine
 10
493.4096505
 20
-993.1456559999997
 30
0.0
 11
491.4016285
 21
-990.7170999999996
 31
0.0
  0
LINE
  5
6C8
330
17
100
AcDbEntity
  8
0
  6
Continuous
100
AcDbLine
 10
491.4016285
 20
-990.7170999999996
 30
0.0
 11
488.6113164999999
 21
-988.3690139999997
 31
0.0
  0
LINE
  5
6C9
330
17
100
AcDbEntity
  8
0
  6
Continuous
100
AcDbLine
 10
488.6113164999999
 20
-988.3690139999997
 30
0.0
 11
485.0692835000002
 21
-986.1271249999999
 31
0.0
  0
LINE
  5
6CA
330
17
100
AcDbEntity
  8
0
  6
Continuous
100
AcDbLine
 10
485.0692835000002
 20
-986.1271249999999
 30
0.0
 11
480.8143385000001
 21
-984.0159949999998
 31
0.0
  0
LINE
  5
6CB
330
17
100
AcDbEntity
  8
0
  6
Continuous
100
AcDbLine
 10
480.8143385000001
 20
-984.0159949999998
 30
0.0
 11
475.8930984999999
 21
-982.0587539999996
 31
0.0
  0
LINE
  5
6CC
330
17
100
AcDbEntity
  8
0
  6
Continuous
100
AcDbLine
 10
475.8930984999999
 20
-982.0587539999996
 30
0.0
 11
470.3594825
 21
-980.2768459999999
 31
0.0
  0
LINE
  5
6CD
330
17
100
AcDbEntity
  8
0
  6
Continuous
100
AcDbLine
 10
470.3594825
 20
-980.2768459999999
 30
0.0
 11
468.0976745
 21
-979.6869709999999
 31
0.0
  0
LINE
  5
6CE
330
17
100
AcDbEntity
  8
0
  6
Continuous
100
AcDbLine
 10
464.2741165
 20
-978.6897949999998
 30
0.0
 11
457.7036745
 21
-977.3149869999997
 31
0.0
  0
LINE
  5
6CF
330
17
100
AcDbEntity
  8
0
  6
Continuous
100
AcDbLine
 10
351.3886835
 20
-1007.754647999999
 30
0.0
 11
354.9307165
 21
-1009.996536999999
 31
0.0
  0
LINE
  5
6D0
330
17
100
AcDbEntity
  8
0
  6
Continuous
100
AcDbLine
 10
662.2955665000001
 20
-1018.906936999999
 30
0.0
 11
668.8928474999999
 21
-1017.545354999999
 31
0.0
  0
LINE
  5
6D1
330
17
100
AcDbEntity
  8
0
  6
Continuous
100
AcDbLine
 10
680.5776874999999
 20
-1014.199800999999
 30
0.0
 11
685.5372245
 21
-1012.252483999999
 31
0.0
  0
LINE
  5
6D2
330
17
100
AcDbEntity
  8
0
  6
Continuous
100
AcDbLine
 10
693.4194385
 20
-1007.915211999999
 30
0.0
 11
696.2557565
 21
-1005.572777999999
 31
0.0
  0
LINE
  5
6D3
330
17
100
AcDbEntity
  8
0
  6
Continuous
100
AcDbLine
 10
696.2557565
 20
-1005.572777999999
 30
0.0
 11
698.3113785
 21
-1003.148302999999
 31
0.0
  0
LINE
  5
6D4
330
17
100
AcDbEntity
  8
0
  6
Continuous
100
AcDbLine
 10
699.6129914999999
 20
-995.6510099999997
 30
0.0
 11
698.4092615000001
 21
-993.1685909999997
 31
0.0
  0
LINE
  5
6D5
330
17
100
AcDbEntity
  8
0
  6
Continuous
100
AcDbLine
 10
609.1760584999999
 20
-1021.544531999999
 30
0.0
 11
616.9259075000002
 21
-1021.9453
 31
0.0
  0
LINE
  5
6D6
330
17
100
AcDbEntity
  8
0
  6
Continuous
100
AcDbLine
 10
685.8139495
 20
-984.0389299999996
 30
0.0
 11
680.8927095000001
 21
-982.0816899999998
 31
0.0
  0
LINE
  5
6D7
330
17
100
AcDbEntity
  8
0
  6
Continuous
100
AcDbLine
 10
587.2959364999998
 20
-1018.831609999999
 30
0.0
 11
594.2794675
 21
-1019.979110999999
 31
0.0
  0
LINE
  5
6D8
330
17
100
AcDbEntity
  8
0
  6
Continuous
100
AcDbLine
 10
698.3113785
 20
-1003.148302999999
 30
0.0
 11
699.5637805000001
 21
-1000.668350999999
 31
0.0
  0
LINE
  5
6D9
330
17
100
AcDbEntity
  8
0
  6
Continuous
100
AcDbLine
 10
699.5637805000001
 20
-1000.668350999999
 30
0.0
 11
699.9992414999999
 21
-998.1600929999997
 31
0.0
  0
LINE
  5
6DA
330
17
100
AcDbEntity
  8
0
  6
Continuous
100
AcDbLine
 10
693.6109275000001
 20
-988.3919499999999
 30
0.0
 11
690.0688944999999
 21
-986.1500599999997
 31
0.0
  0
LINE
  5
6DB
330
17
100
AcDbEntity
  8
0
  6
Continuous
100
AcDbLine
 10
696.4012405
 20
-990.7400349999997
 30
0.0
 11
693.6109275000001
 21
-988.3919499999999
 31
0.0
  0
LINE
  5
6DC
330
17
100
AcDbEntity
  8
0
  6
Continuous
100
AcDbLine
 10
559.9303274999999
 20
-1010.019471999999
 30
0.0
 11
564.1852725000001
 21
-1012.130601999999
 31
0.0
  0
LINE
  5
6DD
330
17
100
AcDbEntity
  8
0
  6
Continuous
100
AcDbLine
 10
556.3882945
 20
-1007.777582999999
 30
0.0
 11
559.9303274999999
 21
-1010.019471999999
 31
0.0
  0
LINE
  5
6DE
330
17
100
AcDbEntity
  8
0
  6
Continuous
100
AcDbLine
 10
580.7254945000002
 20
-1017.456801999999
 30
0.0
 11
587.2959364999998
 21
-1018.831609999999
 31
0.0
  0
LINE
  5
6DF
330
17
100
AcDbEntity
  8
0
  6
Continuous
100
AcDbLine
 10
675.3590935
 20
-980.2997819999998
 30
0.0
 11
669.2737275000001
 21
-978.7127299999998
 31
0.0
  0
LINE
  5
6E0
330
17
100
AcDbEntity
  8
0
  6
Continuous
100
AcDbLine
 10
662.7032855
 20
-977.3379219999997
 30
0.0
 11
655.7197545000001
 21
-976.1904219999996
 31
0.0
  0
LINE
  5
6E1
330
17
100
AcDbEntity
  8
0
  6
Continuous
100
AcDbLine
 10
616.9259075000002
 20
-1021.9453
 30
0.0
 11
624.7642145000002
 21
-1022.084647999999
 31
0.0
  0
LINE
  5
6E2
330
17
100
AcDbEntity
  8
0
  6
Continuous
100
AcDbLine
 10
655.7197545000001
 20
-976.1904219999996
 30
0.0
 11
648.3996475000001
 21
-975.2827999999997
 31
0.0
  0
LINE
  5
6E3
330
17
100
AcDbEntity
  8
0
  6
Continuous
100
AcDbLine
 10
698.4092615000001
 20
-993.1685909999997
 30
0.0
 11
696.4012405
 21
-990.7400349999997
 31
0.0
  0
LINE
  5
6E4
330
17
100
AcDbEntity
  8
0
  6
Continuous
100
AcDbLine
 10
574.6401284999999
 20
-1015.869750999999
 30
0.0
 11
580.7254945000002
 21
-1017.456801999999
 31
0.0
  0
LINE
  5
6E5
330
17
100
AcDbEntity
  8
0
  6
Continuous
100
AcDbLine
 10
690.0688944999999
 20
-986.1500599999997
 30
0.0
 11
685.8139495
 21
-984.0389299999996
 31
0.0
  0
LINE
  5
6E6
330
17
100
AcDbEntity
  8
0
  6
Continuous
100
AcDbLine
 10
553.5979825000001
 20
-1005.429496999999
 30
0.0
 11
556.3882945
 21
-1007.777582999999
 31
0.0
  0
LINE
  5
6E7
330
17
100
AcDbEntity
  8
0
  6
Continuous
100
AcDbLine
 10
601.5995755000001
 20
-1020.886732999999
 30
0.0
 11
609.1760584999999
 21
-1021.544531999999
 31
0.0
  0
LINE
  5
6E8
330
17
100
AcDbEntity
  8
0
  6
Continuous
100
AcDbLine
 10
680.8927095000001
 20
-982.0816899999998
 30
0.0
 11
675.3590935
 21
-980.2997819999998
 31
0.0
  0
LINE
  5
6E9
330
17
100
AcDbEntity
  8
0
  6
Continuous
100
AcDbLine
 10
564.1852725000001
 20
-1012.130601999999
 30
0.0
 11
569.1065125
 21
-1014.087842999999
 31
0.0
  0
LINE
  5
6EA
330
17
100
AcDbEntity
  8
0
  6
Continuous
100
AcDbLine
 10
675.0092255000001
 20
-1015.970557999999
 30
0.0
 11
680.5776874999999
 21
-1014.199800999999
 31
0.0
  0
LINE
  5
6EB
330
17
100
AcDbEntity
  8
0
  6
Continuous
100
AcDbLine
 10
624.7642145000002
 20
-1022.084647999999
 30
0.0
 11
632.6051005000001
 21
-1021.961047999999
 31
0.0
  0
LINE
  5
6EC
330
17
100
AcDbEntity
  8
0
  6
Continuous
100
AcDbLine
 10
689.8334984999999
 20
-1010.149941999999
 30
0.0
 11
693.4194385
 21
-1007.915211999999
 31
0.0
  0
LINE
  5
6ED
330
17
100
AcDbEntity
  8
0
  6
Continuous
100
AcDbLine
 10
699.9992414999999
 20
-998.1600929999997
 30
0.0
 11
699.6129914999999
 21
-995.6510099999997
 31
0.0
  0
LINE
  5
6EE
330
17
100
AcDbEntity
  8
0
  6
Continuous
100
AcDbLine
 10
569.1065125
 20
-1014.087842999999
 30
0.0
 11
574.6401284999999
 21
-1015.869750999999
 31
0.0
  0
LINE
  5
6EF
330
17
100
AcDbEntity
  8
0
  6
Continuous
100
AcDbLine
 10
594.2794675
 20
-1019.979110999999
 30
0.0
 11
599.3710065
 21
-1020.610411999999
 31
0.0
  0
LINE
  5
6F0
330
17
100
AcDbEntity
  8
0
  6
Continuous
100
AcDbLine
 10
669.2737275000001
 20
-978.7127299999998
 30
0.0
 11
662.7032855
 21
-977.3379219999997
 31
0.0
  0
LINE
  5
6F1
330
17
100
AcDbEntity
  8
0
  6
Continuous
100
AcDbLine
 10
632.6051005000001
 20
-1021.961047999999
 30
0.0
 11
640.3626584999999
 21
-1021.575853999999
 31
0.0
  0
LINE
  5
6F2
330
17
100
AcDbEntity
  8
0
  6
Continuous
100
AcDbLine
 10
640.3626584999999
 20
-1021.575853999999
 30
0.0
 11
647.9518955000001
 21
-1020.933287999999
 31
0.0
  0
LINE
  5
6F3
330
17
100
AcDbEntity
  8
0
  6
Continuous
100
AcDbLine
 10
647.9518955000001
 20
-1020.933287999999
 30
0.0
 11
655.2896634999999
 21
-1020.040387999999
 31
0.0
  0
LINE
  5
6F4
330
17
100
AcDbEntity
  8
0
  6
Continuous
100
AcDbLine
 10
668.8928474999999
 20
-1017.545354999999
 30
0.0
 11
675.0092255000001
 21
-1015.970557999999
 31
0.0
  0
LINE
  5
6F5
330
17
100
AcDbEntity
  8
0
  6
Continuous
100
AcDbLine
 10
685.5372245
 20
-1012.252483999999
 30
0.0
 11
689.8334984999999
 21
-1010.149941999999
 31
0.0
  0
LINE
  5
6F6
330
17
100
AcDbEntity
  8
0
  6
Continuous
100
AcDbLine
 10
655.2896634999999
 20
-1020.040387999999
 30
0.0
 11
662.2955665000001
 21
-1018.906936999999
 31
0.0
  0
LINE
  5
6F7
330
17
100
AcDbEntity
  8
0
  6
Continuous
100
AcDbLine
 10
581.1063745000001
 20
-978.6241779999997
 30
0.0
 11
574.9899965000001
 21
-980.1989749999998
 31
0.0
  0
LINE
  5
6F8
330
17
100
AcDbEntity
  8
0
  6
Continuous
100
AcDbLine
 10
609.6365634999999
 20
-974.5936779999997
 30
0.0
 11
602.0473265
 21
-975.2362449999997
 31
0.0
  0
LINE
  5
6F9
330
17
100
AcDbEntity
  8
0
  6
Continuous
100
AcDbLine
 10
625.2350075000001
 20
-974.0848849999997
 30
0.0
 11
617.3941225
 21
-974.2084849999999
 31
0.0
  0
LINE
  5
6FA
330
17
100
AcDbEntity
  8
0
  6
Continuous
100
AcDbLine
 10
648.3996475000001
 20
-975.2827999999997
 30
0.0
 11
640.8231634999999
 21
-974.6250009999997
 31
0.0
  0
LINE
  5
6FB
330
17
100
AcDbEntity
  8
0
  6
Continuous
100
AcDbLine
 10
633.0733145000001
 20
-974.2242319999999
 30
0.0
 11
629.5325205000001
 21
-974.1612849999999
 31
0.0
  0
LINE
  5
6FC
330
17
100
AcDbEntity
  8
0
  6
Continuous
100
AcDbLine
 10
594.7095584999999
 20
-976.1291449999996
 30
0.0
 11
587.7036555000001
 21
-977.2625959999997
 31
0.0
  0
LINE
  5
6FD
330
17
100
AcDbEntity
  8
0
  6
Continuous
100
AcDbLine
 10
574.9899965000001
 20
-980.1989749999998
 30
0.0
 11
569.4215344999999
 21
-981.9697319999997
 31
0.0
  0
LINE
  5
6FE
330
17
100
AcDbEntity
  8
0
  6
Continuous
100
AcDbLine
 10
602.0473265
 20
-975.2362449999997
 30
0.0
 11
594.7095584999999
 21
-976.1291449999996
 31
0.0
  0
LINE
  5
6FF
330
17
100
AcDbEntity
  8
0
  6
Continuous
100
AcDbLine
 10
640.8231634999999
 20
-974.6250009999997
 30
0.0
 11
633.0733145000001
 21
-974.2242319999999
 31
0.0
  0
LINE
  5
700
330
17
100
AcDbEntity
  8
0
  6
Continuous
100
AcDbLine
 10
569.4215344999999
 20
-981.9697319999997
 30
0.0
 11
564.4619985000002
 21
-983.9170489999997
 31
0.0
  0
LINE
  5
701
330
17
100
AcDbEntity
  8
0
  6
Continuous
100
AcDbLine
 10
617.3941225
 20
-974.2084849999999
 30
0.0
 11
609.6365634999999
 21
-974.5936779999997
 31
0.0
  0
LINE
  5
702
330
17
100
AcDbEntity
  8
0
  6
Continuous
100
AcDbLine
 10
587.7036555000001
 20
-977.2625959999997
 30
0.0
 11
581.1063745000001
 21
-978.6241779999997
 31
0.0
  0
LINE
  5
703
330
17
100
AcDbEntity
  8
0
  6
Continuous
100
AcDbLine
 10
549.9999804999999
 20
-998.0094389999997
 30
0.0
 11
550.3862305
 21
-1000.518522999999
 31
0.0
  0
LINE
  5
704
330
17
100
AcDbEntity
  8
0
  6
Continuous
100
AcDbLine
 10
556.5797835
 20
-988.2543199999997
 30
0.0
 11
553.7434654999999
 21
-990.5967549999997
 31
0.0
  0
LINE
  5
705
330
17
100
AcDbEntity
  8
0
  6
Continuous
100
AcDbLine
 10
551.6878444999999
 20
-993.0212289999998
 30
0.0
 11
550.4354415
 21
-995.5011809999998
 31
0.0
  0
LINE
  5
706
330
17
100
AcDbEntity
  8
0
  6
Continuous
100
AcDbLine
 10
551.5899605000002
 20
-1003.000940999999
 30
0.0
 11
553.5979825000001
 21
-1005.429496999999
 31
0.0
  0
LINE
  5
707
330
17
100
AcDbEntity
  8
0
  6
Continuous
100
AcDbLine
 10
564.4619985000002
 20
-983.9170489999997
 30
0.0
 11
560.1657245000001
 21
-986.0195899999997
 31
0.0
  0
LINE
  5
708
330
17
100
AcDbEntity
  8
0
  6
Continuous
100
AcDbLine
 10
560.1657245000001
 20
-986.0195899999997
 30
0.0
 11
556.5797835
 21
-988.2543199999997
 31
0.0
  0
LINE
  5
709
330
17
100
AcDbEntity
  8
0
  6
Continuous
100
AcDbLine
 10
553.7434654999999
 20
-990.5967549999997
 30
0.0
 11
551.6878444999999
 21
-993.0212289999998
 31
0.0
  0
LINE
  5
70A
330
17
100
AcDbEntity
  8
0
  6
Continuous
100
AcDbLine
 10
550.4354415
 20
-995.5011809999998
 30
0.0
 11
549.9999804999999
 21
-998.0094389999997
 31
0.0
  0
LINE
  5
70B
330
17
100
AcDbEntity
  8
0
  6
Continuous
100
AcDbLine
 10
550.3862305
 20
-1000.518522999999
 30
0.0
 11
551.5899605000002
 21
-1003.000940999999
 31
0.0
  0
LINE
  5
70C
330
17
100
AcDbEntity
  8
0
  6
Continuous
100
AcDbLine
 10
275.8147074999999
 20
-983.9218359999998
 30
0.0
 11
270.8934675
 21
-981.9645959999999
 31
0.0
  0
LINE
  5
70D
330
17
100
AcDbEntity
  8
0
  6
Continuous
100
AcDbLine
 10
280.0696534999999
 20
-986.0329659999997
 30
0.0
 11
275.8147074999999
 21
-983.9218359999998
 31
0.0
  0
LINE
  5
70E
330
17
100
AcDbEntity
  8
0
  6
Continuous
100
AcDbLine
 10
283.6116855
 20
-988.2748549999998
 30
0.0
 11
280.0696534999999
 21
-986.0329659999997
 31
0.0
  0
LINE
  5
70F
330
17
100
AcDbEntity
  8
0
  6
Continuous
100
AcDbLine
 10
286.4019985
 20
-990.6229409999996
 30
0.0
 11
283.6116855
 21
-988.2748549999998
 31
0.0
  0
LINE
  5
710
330
17
100
AcDbEntity
  8
0
  6
Continuous
100
AcDbLine
 10
288.4100195000001
 20
-993.0514969999997
 30
0.0
 11
286.4019985
 21
-990.6229409999996
 31
0.0
  0
LINE
  5
711
330
17
100
AcDbEntity
  8
0
  6
Continuous
100
AcDbLine
 10
289.6137495
 20
-995.5339159999999
 30
0.0
 11
288.4100195000001
 21
-993.0514969999997
 31
0.0
  0
LINE
  5
712
330
17
100
AcDbEntity
  8
0
  6
Continuous
100
AcDbLine
 10
290.0000004999999
 20
-998.0429989999999
 30
0.0
 11
289.6137495
 21
-995.5339159999999
 31
0.0
  0
LINE
  5
713
330
17
100
AcDbEntity
  8
0
  6
Continuous
100
AcDbLine
 10
289.5645385
 20
-1000.551256999999
 30
0.0
 11
290.0000004999999
 21
-998.0429989999999
 31
0.0
  0
LINE
  5
714
330
17
100
AcDbEntity
  8
0
  6
Continuous
100
AcDbLine
 10
288.3121364999999
 20
-1003.031208999999
 30
0.0
 11
289.5645385
 21
-1000.551256999999
 31
0.0
  0
LINE
  5
715
330
17
100
AcDbEntity
  8
0
  6
Continuous
100
AcDbLine
 10
286.2565155
 20
-1005.455683999999
 30
0.0
 11
288.3121364999999
 21
-1003.031208999999
 31
0.0
  0
LINE
  5
716
330
17
100
AcDbEntity
  8
0
  6
Continuous
100
AcDbLine
 10
283.4201964999999
 20
-1007.798117999999
 30
0.0
 11
286.2565155
 21
-1005.455683999999
 31
0.0
  0
LINE
  5
717
330
17
100
AcDbEntity
  8
0
  6
Continuous
100
AcDbLine
 10
279.8342565
 20
-1010.032847999999
 30
0.0
 11
283.4201964999999
 21
-1007.798117999999
 31
0.0
  0
LINE
  5
718
330
17
100
AcDbEntity
  8
0
  6
Continuous
100
AcDbLine
 10
275.5379824999999
 20
-1012.135389999999
 30
0.0
 11
279.8342565
 21
-1010.032847999999
 31
0.0
  0
LINE
  5
719
330
17
100
AcDbEntity
  8
0
  6
Continuous
100
AcDbLine
 10
270.5784455
 20
-1014.082705999999
 30
0.0
 11
275.5379824999999
 21
-1012.135389999999
 31
0.0
  0
LINE
  5
71A
330
17
100
AcDbEntity
  8
0
  6
Continuous
100
AcDbLine
 10
265.0099835000003
 20
-1015.853463999999
 30
0.0
 11
270.5784455
 21
-1014.082705999999
 31
0.0
  0
LINE
  5
71B
330
17
100
AcDbEntity
  8
0
  6
Continuous
100
AcDbLine
 10
258.8936065
 20
-1017.428259999999
 30
0.0
 11
265.0099835000003
 21
-1015.853463999999
 31
0.0
  0
LINE
  5
71C
330
17
100
AcDbEntity
  8
0
  6
Continuous
100
AcDbLine
 10
252.2963255000001
 20
-1018.789842999999
 30
0.0
 11
258.8936065
 21
-1017.428259999999
 31
0.0
  0
LINE
  5
71D
330
17
100
AcDbEntity
  8
0
  6
Continuous
100
AcDbLine
 10
245.2904215000001
 20
-1019.923292999999
 30
0.0
 11
252.2963255000001
 21
-1018.789842999999
 31
0.0
  0
LINE
  5
71E
330
17
100
AcDbEntity
  8
0
  6
Continuous
100
AcDbLine
 10
237.9526545
 20
-1020.816192999999
 30
0.0
 11
245.2904215000001
 21
-1019.923292999999
 31
0.0
  0
LINE
  5
71F
330
17
100
AcDbEntity
  8
0
  6
Continuous
100
AcDbLine
 10
230.3634165
 20
-1021.458759999999
 30
0.0
 11
237.9526545
 21
-1020.816192999999
 31
0.0
  0
LINE
  5
720
330
17
100
AcDbEntity
  8
0
  6
Continuous
100
AcDbLine
 10
222.6058585000003
 20
-1021.843954
 30
0.0
 11
230.3634165
 21
-1021.458759999999
 31
0.0
  0
LINE
  5
721
330
17
100
AcDbEntity
  8
0
  6
Continuous
100
AcDbLine
 10
214.7649725000001
 20
-1021.967553999999
 30
0.0
 11
222.6058585000003
 21
-1021.843954
 31
0.0
  0
LINE
  5
722
330
17
100
AcDbEntity
  8
0
  6
Continuous
100
AcDbLine
 10
206.9266665000002
 20
-1021.828205999999
 30
0.0
 11
214.7649725000001
 21
-1021.967553999999
 31
0.0
  0
LINE
  5
723
330
17
100
AcDbEntity
  8
0
  6
Continuous
100
AcDbLine
 10
199.1768165
 20
-1021.427437999999
 30
0.0
 11
206.9266665000002
 21
-1021.828205999999
 31
0.0
  0
LINE
  5
724
330
17
100
AcDbEntity
  8
0
  6
Continuous
100
AcDbLine
 10
191.6003335000002
 20
-1020.769638999999
 30
0.0
 11
199.1768165
 21
-1021.427437999999
 31
0.0
  0
LINE
  5
725
330
17
100
AcDbEntity
  8
0
  6
Continuous
100
AcDbLine
 10
184.2802255000001
 20
-1019.862017
 30
0.0
 11
190.8049305000001
 21
-1020.671016999999
 31
0.0
  0
LINE
  5
726
330
17
100
AcDbEntity
  8
0
  6
Continuous
100
AcDbLine
 10
177.2966945
 20
-1018.714515999999
 30
0.0
 11
184.2802255000001
 21
-1019.862017
 31
0.0
  0
LINE
  5
727
330
17
100
AcDbEntity
  8
0
  6
Continuous
100
AcDbLine
 10
170.7262525000001
 20
-1017.339707999999
 30
0.0
 11
177.2966945
 21
-1018.714515999999
 31
0.0
  0
LINE
  5
728
330
17
100
AcDbEntity
  8
0
  6
Continuous
100
AcDbLine
 10
164.6408875000001
 20
-1015.752656999999
 30
0.0
 11
170.7262525000001
 21
-1017.339707999999
 31
0.0
  0
LINE
  5
729
330
17
100
AcDbEntity
  8
0
  6
Continuous
100
AcDbLine
 10
159.1072705000001
 20
-1013.970749
 30
0.0
 11
164.6408875000001
 21
-1015.752656999999
 31
0.0
  0
LINE
  5
72A
330
17
100
AcDbEntity
  8
0
  6
Continuous
100
AcDbLine
 10
154.1860305
 20
-1012.013507999999
 30
0.0
 11
159.1072705000001
 21
-1013.970749
 31
0.0
  0
LINE
  5
72B
330
17
100
AcDbEntity
  8
0
  6
Continuous
100
AcDbLine
 10
149.9310855000001
 20
-1009.902377999999
 30
0.0
 11
154.1860305
 21
-1012.013507999999
 31
0.0
  0
LINE
  5
72C
330
17
100
AcDbEntity
  8
0
  6
Continuous
100
AcDbLine
 10
146.3890535
 20
-1007.660488999999
 30
0.0
 11
149.9310855000001
 21
-1009.902377999999
 31
0.0
  0
LINE
  5
72D
330
17
100
AcDbEntity
  8
0
  6
Continuous
100
AcDbLine
 10
143.5987405000003
 20
-1005.312402999999
 30
0.0
 11
146.3890535
 21
-1007.660488999999
 31
0.0
  0
LINE
  5
72E
330
17
100
AcDbEntity
  8
0
  6
Continuous
100
AcDbLine
 10
141.5907185000003
 20
-1002.883846999999
 30
0.0
 11
143.5987405000003
 21
-1005.312402999999
 31
0.0
  0
LINE
  5
72F
330
17
100
AcDbEntity
  8
0
  6
Continuous
100
AcDbLine
 10
140.3869885000001
 20
-1000.401428999999
 30
0.0
 11
141.5907185000003
 21
-1002.883846999999
 31
0.0
  0
LINE
  5
730
330
17
100
AcDbEntity
  8
0
  6
Continuous
100
AcDbLine
 10
140.0007384999998
 20
-997.8923449999998
 30
0.0
 11
140.3869885000001
 21
-1000.401428999999
 31
0.0
  0
LINE
  5
731
330
17
100
AcDbEntity
  8
0
  6
Continuous
100
AcDbLine
 10
140.4362005
 20
-995.3840869999998
 30
0.0
 11
140.0007384999998
 21
-997.8923449999998
 31
0.0
  0
LINE
  5
732
330
17
100
AcDbEntity
  8
0
  6
Continuous
100
AcDbLine
 10
141.6886025000001
 20
-992.9041349999998
 30
0.0
 11
140.4362005
 21
-995.3840869999998
 31
0.0
  0
LINE
  5
733
330
17
100
AcDbEntity
  8
0
  6
Continuous
100
AcDbLine
 10
143.7442235
 20
-990.4796609999996
 30
0.0
 11
141.6886025000001
 21
-992.9041349999998
 31
0.0
  0
LINE
  5
734
330
17
100
AcDbEntity
  8
0
  6
Continuous
100
AcDbLine
 10
146.5805425
 20
-988.1372259999997
 30
0.0
 11
143.7442235
 21
-990.4796609999996
 31
0.0
  0
LINE
  5
735
330
17
100
AcDbEntity
  8
0
  6
Continuous
100
AcDbLine
 10
150.1664825
 20
-985.9024959999999
 30
0.0
 11
146.5805425
 21
-988.1372259999997
 31
0.0
  0
LINE
  5
736
330
17
100
AcDbEntity
  8
0
  6
Continuous
100
AcDbLine
 10
154.4627565000002
 20
-983.7999549999999
 30
0.0
 11
150.1664825
 21
-985.9024959999999
 31
0.0
  0
LINE
  5
737
330
17
100
AcDbEntity
  8
0
  6
Continuous
100
AcDbLine
 10
159.4222935
 20
-981.8526379999996
 30
0.0
 11
154.4627565000002
 21
-983.7999549999999
 31
0.0
  0
LINE
  5
738
330
17
100
AcDbEntity
  8
0
  6
Continuous
100
AcDbLine
 10
164.9907545
 20
-980.0818809999995
 30
0.0
 11
159.4222935
 21
-981.8526379999996
 31
0.0
  0
LINE
  5
739
330
17
100
AcDbEntity
  8
0
  6
Continuous
100
AcDbLine
 10
171.1071325000002
 20
-978.5070839999999
 30
0.0
 11
164.9907545
 21
-980.0818809999995
 31
0.0
  0
LINE
  5
73A
330
17
100
AcDbEntity
  8
0
  6
Continuous
100
AcDbLine
 10
177.7044135000003
 20
-977.1455009999998
 30
0.0
 11
171.1071325000002
 21
-978.5070839999999
 31
0.0
  0
LINE
  5
73B
330
17
100
AcDbEntity
  8
0
  6
Continuous
100
AcDbLine
 10
184.7103175000001
 20
-976.0120509999998
 30
0.0
 11
177.7044135000003
 21
-977.1455009999998
 31
0.0
  0
LINE
  5
73C
330
17
100
AcDbEntity
  8
0
  6
Continuous
100
AcDbLine
 10
192.0480844999999
 20
-975.1191509999996
 30
0.0
 11
184.7103175000001
 21
-976.0120509999998
 31
0.0
  0
LINE
  5
73D
330
17
100
AcDbEntity
  8
0
  6
Continuous
100
AcDbLine
 10
199.6373224999999
 20
-974.4765839999997
 30
0.0
 11
192.0480844999999
 21
-975.1191509999996
 31
0.0
  0
LINE
  5
73E
330
17
100
AcDbEntity
  8
0
  6
Continuous
100
AcDbLine
 10
207.3948805000002
 20
-974.0913899999998
 30
0.0
 11
199.6373224999999
 21
-974.4765839999997
 31
0.0
  0
LINE
  5
73F
330
17
100
AcDbEntity
  8
0
  6
Continuous
100
AcDbLine
 10
215.2357665000002
 20
-973.96779
 30
0.0
 11
207.3948805000002
 21
-974.0913899999998
 31
0.0
  0
LINE
  5
740
330
17
100
AcDbEntity
  8
0
  6
Continuous
100
AcDbLine
 10
223.0740725
 20
-974.1071379999999
 30
0.0
 11
215.2357665000002
 21
-973.96779
 31
0.0
  0
LINE
  5
741
330
17
100
AcDbEntity
  8
0
  6
Continuous
100
AcDbLine
 10
230.8239224999999
 20
-974.5079069999999
 30
0.0
 11
223.0740725
 21
-974.1071379999999
 31
0.0
  0
LINE
  5
742
330
17
100
AcDbEntity
  8
0
  6
Continuous
100
AcDbLine
 10
238.4004055000002
 20
-975.1657059999997
 30
0.0
 11
230.8239224999999
 21
-974.5079069999999
 31
0.0
  0
LINE
  5
743
330
17
100
AcDbEntity
  8
0
  6
Continuous
100
AcDbLine
 10
245.7205125
 20
-976.0733269999999
 30
0.0
 11
238.4004055000002
 21
-975.1657059999997
 31
0.0
  0
LINE
  5
744
330
17
100
AcDbEntity
  8
0
  6
Continuous
100
AcDbLine
 10
252.7040445000002
 20
-977.2208279999997
 30
0.0
 11
245.7205125
 21
-976.0733269999999
 31
0.0
  0
LINE
  5
745
330
17
100
AcDbEntity
  8
0
  6
Continuous
100
AcDbLine
 10
259.2744865000002
 20
-978.5956359999998
 30
0.0
 11
252.7040445000002
 21
-977.2208279999997
 31
0.0
  0
LINE
  5
746
330
17
100
AcDbEntity
  8
0
  6
Continuous
100
AcDbLine
 10
265.3598515
 20
-980.1826879999998
 30
0.0
 11
259.2744865000002
 21
-978.5956359999998
 31
0.0
  0
LINE
  5
747
330
17
100
AcDbEntity
  8
0
  6
Continuous
100
AcDbLine
 10
270.8934675
 20
-981.9645959999999
 30
0.0
 11
269.2659455
 21
-981.4405089999997
 31
0.0
  0
LINE
  5
748
330
17
100
AcDbEntity
  8
0
  6
Continuous
100
AcDbLine
 10
63.18291650000015
 20
-1058.355541999999
 30
0.0
 11
63.06618850000018
 21
-1082.061859999999
 31
0.0
  0
LINE
  5
749
330
17
100
AcDbEntity
  8
0
  6
Continuous
100
AcDbLine
 10
63.38539250000008
 20
-1044.656728999999
 30
0.0
 11
63.18291650000015
 21
-1058.355541999999
 31
0.0
  0
LINE
  5
74A
330
17
100
AcDbEntity
  8
0
  6
Continuous
100
AcDbLine
 10
63.72385750000012
 20
-1030.972064999999
 30
0.0
 11
63.38539250000008
 21
-1044.656728999999
 31
0.0
  0
LINE
  5
74B
330
17
100
AcDbEntity
  8
0
  6
Continuous
100
AcDbLine
 10
64.19630350000011
 20
-1017.306387999999
 30
0.0
 11
63.72385750000012
 21
-1030.972064999999
 31
0.0
  0
LINE
  5
74C
330
17
100
AcDbEntity
  8
0
  6
Continuous
100
AcDbLine
 10
64.80376450000017
 20
-1003.669234999999
 30
0.0
 11
64.19630350000011
 21
-1017.306387999999
 31
0.0
  0
LINE
  5
74D
330
17
100
AcDbEntity
  8
0
  6
Continuous
100
AcDbLine
 10
65.54521450000016
 20
-990.0652409999997
 30
0.0
 11
64.80376450000017
 21
-1003.669234999999
 31
0.0
  0
LINE
  5
74E
330
17
100
AcDbEntity
  8
0
  6
Continuous
100
AcDbLine
 10
66.41968350000002
 20
-976.5018949999996
 30
0.0
 11
65.54521450000016
 21
-990.0652409999997
 31
0.0
  0
LINE
  5
74F
330
17
100
AcDbEntity
  8
0
  6
Continuous
100
AcDbLine
 10
67.42719749999992
 20
-962.9850909999998
 30
0.0
 11
66.41968350000002
 21
-976.5018949999996
 31
0.0
  0
LINE
  5
750
330
17
100
AcDbEntity
  8
0
  6
Continuous
100
AcDbLine
 10
68.56678149999993
 20
-949.5216789999998
 30
0.0
 11
67.42719749999992
 21
-962.9850909999998
 31
0.0
  0
LINE
  5
751
330
17
100
AcDbEntity
  8
0
  6
Continuous
100
AcDbLine
 10
69.83843450000017
 20
-936.1189379999999
 30
0.0
 11
68.56678149999993
 21
-949.5216789999998
 31
0.0
  0
LINE
  5
752
330
17
100
AcDbEntity
  8
0
  6
Continuous
100
AcDbLine
 10
71.24012850000008
 20
-922.7831989999998
 30
0.0
 11
69.83843450000017
 21
-936.1189379999999
 31
0.0
  0
LINE
  5
753
330
17
100
AcDbEntity
  8
0
  6
Continuous
100
AcDbLine
 10
72.77093450000006
 20
-909.5188939999998
 30
0.0
 11
71.24012850000008
 21
-922.7831989999998
 31
0.0
  0
LINE
  5
754
330
17
100
AcDbEntity
  8
0
  6
Continuous
100
AcDbLine
 10
74.42994050000016
 20
-896.3335329999997
 30
0.0
 11
72.77093450000006
 21
-909.5188939999998
 31
0.0
  0
LINE
  5
755
330
17
100
AcDbEntity
  8
0
  6
Continuous
100
AcDbLine
 10
76.21709350000014
 20
-883.2327799999998
 30
0.0
 11
74.42994050000016
 21
-896.3335329999997
 31
0.0
  0
LINE
  5
756
330
17
100
AcDbEntity
  8
0
  6
Continuous
100
AcDbLine
 10
78.12935549999997
 20
-870.2239539999998
 30
0.0
 11
76.21709350000014
 21
-883.2327799999998
 31
0.0
  0
LINE
  5
757
330
17
100
AcDbEntity
  8
0
  6
Continuous
100
AcDbLine
 10
80.16588750000005
 20
-857.3101229999998
 30
0.0
 11
78.12935549999997
 21
-870.2239539999998
 31
0.0
  0
LINE
  5
758
330
17
100
AcDbEntity
  8
0
  6
Continuous
100
AcDbLine
 10
82.3256745000001
 20
-844.4996219999998
 30
0.0
 11
80.16588750000005
 21
-857.3101229999998
 31
0.0
  0
LINE
  5
759
330
17
100
AcDbEntity
  8
0
  6
Continuous
100
AcDbLine
 10
84.60673750000001
 20
-831.7954549999997
 30
0.0
 11
82.3256745000001
 21
-844.4996219999998
 31
0.0
  0
LINE
  5
75A
330
17
100
AcDbEntity
  8
0
  6
Continuous
100
AcDbLine
 10
87.00809650000019
 20
-819.2036979999997
 30
0.0
 11
84.60673750000001
 21
-831.7954549999997
 31
0.0
  0
LINE
  5
75B
330
17
100
AcDbEntity
  8
0
  6
Continuous
100
AcDbLine
 10
89.52686150000022
 20
-806.7299089999998
 30
0.0
 11
87.00809650000019
 21
-819.2036979999997
 31
0.0
  0
LINE
  5
75C
330
17
100
AcDbEntity
  8
0
  6
Continuous
100
AcDbLine
 10
92.16297849999978
 20
-794.3796089999998
 30
0.0
 11
89.52686150000022
 21
-806.7299089999998
 31
0.0
  0
LINE
  5
75D
330
17
100
AcDbEntity
  8
0
  6
Continuous
100
AcDbLine
 10
94.91239050000013
 20
-782.1560729999998
 30
0.0
 11
92.16297849999978
 21
-794.3796089999998
 31
0.0
  0
LINE
  5
75E
330
17
100
AcDbEntity
  8
0
  6
Continuous
100
AcDbLine
 10
97.77437750000013
 20
-770.0632709999998
 30
0.0
 11
94.91239050000013
 21
-782.1560729999998
 31
0.0
  0
LINE
  5
75F
330
17
100
AcDbEntity
  8
0
  6
Continuous
100
AcDbLine
 10
100.7468034999999
 20
-758.1069509999998
 30
0.0
 11
97.77437750000013
 21
-770.0632709999998
 31
0.0
  0
LINE
  5
760
330
17
100
AcDbEntity
  8
0
  6
Continuous
100
AcDbLine
 10
103.8267435
 20
-746.2909249999998
 30
0.0
 11
100.7468034999999
 21
-758.1069509999998
 31
0.0
  0
LINE
  5
761
330
17
100
AcDbEntity
  8
0
  6
Continuous
100
AcDbLine
 10
107.0132625000003
 20
-734.6171179999998
 30
0.0
 11
103.8267435
 21
-746.2909249999998
 31
0.0
  0
LINE
  5
762
330
17
100
AcDbEntity
  8
0
  6
Continuous
100
AcDbLine
 10
110.3033714999999
 20
-723.0896209999998
 30
0.0
 11
107.0132625000003
 21
-734.6171179999998
 31
0.0
  0
LINE
  5
763
330
17
100
AcDbEntity
  8
0
  6
Continuous
100
AcDbLine
 10
113.6950345
 20
-711.7126999999998
 30
0.0
 11
110.3033714999999
 21
-723.0896209999998
 31
0.0
  0
LINE
  5
764
330
17
100
AcDbEntity
  8
0
  6
Continuous
100
AcDbLine
 10
117.1851795000002
 20
-700.4876679999998
 30
0.0
 11
113.6950345
 21
-711.7126999999998
 31
0.0
  0
LINE
  5
765
330
17
100
AcDbEntity
  8
0
  6
Continuous
100
AcDbLine
 10
120.7710995000002
 20
-689.4176929999998
 30
0.0
 11
117.1851795000002
 21
-700.4876679999998
 31
0.0
  0
LINE
  5
766
330
17
100
AcDbEntity
  8
0
  6
Continuous
100
AcDbLine
 10
124.4514745000001
 20
-678.5049059999998
 30
0.0
 11
120.7710995000002
 21
-689.4176929999998
 31
0.0
  0
LINE
  5
767
330
17
100
AcDbEntity
  8
0
  6
Continuous
100
AcDbLine
 10
128.2213555
 20
-667.7501319999999
 30
0.0
 11
124.4514745000001
 21
-678.5049059999998
 31
0.0
  0
LINE
  5
768
330
17
100
AcDbEntity
  8
0
  6
Continuous
100
AcDbLine
 10
132.0800795000002
 20
-657.1545649999998
 30
0.0
 11
128.2213555
 21
-667.7501319999999
 31
0.0
  0
LINE
  5
769
330
17
100
AcDbEntity
  8
0
  6
Continuous
100
AcDbLine
 10
136.0242275
 20
-646.7204159999998
 30
0.0
 11
132.0800795000002
 21
-657.1545649999998
 31
0.0
  0
LINE
  5
76A
330
17
100
AcDbEntity
  8
0
  6
Continuous
100
AcDbLine
 10
140.0506445
 20
-636.4470879999998
 30
0.0
 11
136.0242275
 21
-646.7204159999998
 31
0.0
  0
LINE
  5
76B
330
17
100
AcDbEntity
  8
0
  6
Continuous
100
AcDbLine
 10
144.1554005
 20
-626.3353719999998
 30
0.0
 11
140.0506445
 21
-636.4470879999998
 31
0.0
  0
LINE
  5
76C
330
17
100
AcDbEntity
  8
0
  6
Continuous
100
AcDbLine
 10
148.3365855000001
 20
-616.3830589999998
 30
0.0
 11
144.1554005
 21
-626.3353719999998
 31
0.0
  0
LINE
  5
76D
330
17
100
AcDbEntity
  8
0
  6
Continuous
100
AcDbLine
 10
152.5909294999999
 20
-606.5907849999998
 30
0.0
 11
148.3365855000001
 21
-616.3830589999998
 31
0.0
  0
LINE
  5
76E
330
17
100
AcDbEntity
  8
0
  6
Continuous
100
AcDbLine
 10
156.9151245
 20
-596.9561759999999
 30
0.0
 11
152.5909294999999
 21
-606.5907849999998
 31
0.0
  0
LINE
  5
76F
330
17
100
AcDbEntity
  8
0
  6
Continuous
100
AcDbLine
 10
161.3051775000001
 20
-587.4781109999998
 30
0.0
 11
156.9151245
 21
-596.9561759999999
 31
0.0
  0
LINE
  5
770
330
17
100
AcDbEntity
  8
0
  6
Continuous
100
AcDbLine
 10
165.7586355
 20
-578.1534619999997
 30
0.0
 11
161.3051775000001
 21
-587.4781109999998
 31
0.0
  0
LINE
  5
771
330
17
100
AcDbEntity
  8
0
  6
Continuous
100
AcDbLine
 10
170.2703465000001
 20
-568.9793469999998
 30
0.0
 11
165.7586355
 21
-578.1534619999997
 31
0.0
  0
LINE
  5
772
330
17
100
AcDbEntity
  8
0
  6
Continuous
100
AcDbLine
 10
174.8382665000001
 20
-559.9517129999997
 30
0.0
 11
170.2703465000001
 21
-568.9793469999998
 31
0.0
  0
LINE
  5
773
330
17
100
AcDbEntity
  8
0
  6
Continuous
100
AcDbLine
 10
179.4586065
 20
-551.0658999999998
 30
0.0
 11
174.8382665000001
 21
-559.9517129999997
 31
0.0
  0
LINE
  5
774
330
17
100
AcDbEntity
  8
0
  6
Continuous
100
AcDbLine
 10
184.1262345000002
 20
-542.3178869999998
 30
0.0
 11
179.4586065
 21
-551.0658999999998
 31
0.0
  0
LINE
  5
775
330
17
100
AcDbEntity
  8
0
  6
Continuous
100
AcDbLine
 10
188.8387975000002
 20
-533.7010919999998
 30
0.0
 11
184.1262345000002
 21
-542.3178869999998
 31
0.0
  0
LINE
  5
776
330
17
100
AcDbEntity
  8
0
  6
Continuous
100
AcDbLine
 10
193.5918085000002
 20
-525.2090989999998
 30
0.0
 11
188.8387975000002
 21
-533.7010919999998
 31
0.0
  0
LINE
  5
777
330
17
100
AcDbEntity
  8
0
  6
Continuous
100
AcDbLine
 10
198.3818714999999
 20
-516.8353209999998
 30
0.0
 11
193.5918085000002
 21
-525.2090989999998
 31
0.0
  0
LINE
  5
778
330
17
100
AcDbEntity
  8
0
  6
Continuous
100
AcDbLine
 10
203.2042045000002
 20
-508.5727889999998
 30
0.0
 11
198.3818714999999
 21
-516.8353209999998
 31
0.0
  0
LINE
  5
779
330
17
100
AcDbEntity
  8
0
  6
Continuous
100
AcDbLine
 10
208.0548275
 20
-500.4121279999998
 30
0.0
 11
203.2042045000002
 21
-508.5727889999998
 31
0.0
  0
LINE
  5
77A
330
17
100
AcDbEntity
  8
0
  6
Continuous
100
AcDbLine
 10
212.9308425000001
 20
-492.3455469999998
 30
0.0
 11
208.0548275
 21
-500.4121279999998
 31
0.0
  0
LINE
  5
77B
330
17
100
AcDbEntity
  8
0
  6
Continuous
100
AcDbLine
 10
217.8258895000001
 20
-484.3632879999998
 30
0.0
 11
212.9308425000001
 21
-492.3455469999998
 31
0.0
  0
LINE
  5
77C
330
17
100
AcDbEntity
  8
0
  6
Continuous
100
AcDbLine
 10
222.7387915000001
 20
-476.4543699999998
 30
0.0
 11
217.8258895000001
 21
-484.3632879999998
 31
0.0
  0
LINE
  5
77D
330
17
100
AcDbEntity
  8
0
  6
Continuous
100
AcDbLine
 10
227.6637184999999
 20
-468.6088469999998
 30
0.0
 11
222.7387915000001
 21
-476.4543699999998
 31
0.0
  0
LINE
  5
77E
330
17
100
AcDbEntity
  8
0
  6
Continuous
100
AcDbLine
 10
232.5968805
 20
-460.8161569999999
 30
0.0
 11
227.6637184999999
 21
-468.6088469999998
 31
0.0
  0
LINE
  5
77F
330
17
100
AcDbEntity
  8
0
  6
Continuous
100
AcDbLine
 10
237.5354605
 20
-453.0644119999998
 30
0.0
 11
232.5968805
 21
-460.8161569999999
 31
0.0
  0
LINE
  5
780
330
17
100
AcDbEntity
  8
0
  6
Continuous
100
AcDbLine
 10
242.4737325000001
 20
-445.3420389999998
 30
0.0
 11
237.5354605
 21
-453.0644119999998
 31
0.0
  0
LINE
  5
781
330
17
100
AcDbEntity
  8
0
  6
Continuous
100
AcDbLine
 10
247.4099965000002
 20
-437.6380659999998
 30
0.0
 11
242.4737325000001
 21
-445.3420389999998
 31
0.0
  0
LINE
  5
782
330
17
100
AcDbEntity
  8
0
  6
Continuous
100
AcDbLine
 10
252.3363235000001
 20
-429.9404929999998
 30
0.0
 11
247.4099965000002
 21
-437.6380659999998
 31
0.0
  0
LINE
  5
783
330
17
100
AcDbEntity
  8
0
  6
Continuous
100
AcDbLine
 10
257.2500915
 20
-422.2278329999998
 30
0.0
 11
252.3363235000001
 21
-429.9404929999998
 31
0.0
  0
LINE
  5
784
330
17
100
AcDbEntity
  8
0
  6
Continuous
100
AcDbLine
 10
262.1485325
 20
-414.4819239999998
 30
0.0
 11
257.2500915
 21
-422.2278329999998
 31
0.0
  0
LINE
  5
785
330
17
100
AcDbEntity
  8
0
  6
Continuous
100
AcDbLine
 10
267.0284155000001
 20
-406.6824609999998
 30
0.0
 11
262.1485325
 21
-414.4819239999998
 31
0.0
  0
LINE
  5
786
330
17
100
AcDbEntity
  8
0
  6
Continuous
100
AcDbLine
 10
271.8849875
 20
-398.8108829999998
 30
0.0
 11
267.0284155000001
 21
-406.6824609999998
 31
0.0
  0
LINE
  5
787
330
17
100
AcDbEntity
  8
0
  6
Continuous
100
AcDbLine
 10
276.7177555
 20
-390.8478229999998
 30
0.0
 11
271.8849875
 21
-398.8108829999998
 31
0.0
  0
LINE
  5
788
330
17
100
AcDbEntity
  8
0
  6
Continuous
100
AcDbLine
 10
281.5218935
 20
-382.7748889999998
 30
0.0
 11
276.7177555
 21
-390.8478229999998
 31
0.0
  0
LINE
  5
789
330
17
100
AcDbEntity
  8
0
  6
Continuous
100
AcDbLine
 10
286.2965285
 20
-374.5776399999998
 30
0.0
 11
281.5218935
 21
-382.7748889999998
 31
0.0
  0
LINE
  5
78A
330
17
100
AcDbEntity
  8
0
  6
Continuous
100
AcDbLine
 10
291.0382145000001
 20
-366.2396319999998
 30
0.0
 11
286.2965285
 21
-374.5776399999998
 31
0.0
  0
LINE
  5
78B
330
17
100
AcDbEntity
  8
0
  6
Continuous
100
AcDbLine
 10
295.7448385
 20
-357.7487289999997
 30
0.0
 11
291.0382145000001
 21
-366.2396319999998
 31
0.0
  0
LINE
  5
78C
330
17
100
AcDbEntity
  8
0
  6
Continuous
100
AcDbLine
 10
300.4121655000001
 20
-349.0929759999998
 30
0.0
 11
295.7448385
 21
-357.7487289999997
 31
0.0
  0
LINE
  5
78D
330
17
100
AcDbEntity
  8
0
  6
Continuous
100
AcDbLine
 10
305.0389935
 20
-340.2611969999998
 30
0.0
 11
300.4121655000001
 21
-349.0929759999998
 31
0.0
  0
LINE
  5
78E
330
17
100
AcDbEntity
  8
0
  6
Continuous
100
AcDbLine
 10
309.6217484999999
 20
-331.2438699999998
 30
0.0
 11
305.0389935
 21
-340.2611969999998
 31
0.0
  0
LINE
  5
78F
330
17
100
AcDbEntity
  8
0
  6
Continuous
100
AcDbLine
 10
314.1570585000001
 20
-322.0349479999998
 30
0.0
 11
309.6217484999999
 21
-331.2438699999998
 31
0.0
  0
LINE
  5
790
330
17
100
AcDbEntity
  8
0
  6
Continuous
100
AcDbLine
 10
318.6425525000001
 20
-312.6262789999998
 30
0.0
 11
314.1570585000001
 21
-322.0349479999998
 31
0.0
  0
LINE
  5
791
330
17
100
AcDbEntity
  8
0
  6
Continuous
100
AcDbLine
 10
323.0762095
 20
-303.0139279999998
 30
0.0
 11
318.6425525000001
 21
-312.6262789999998
 31
0.0
  0
LINE
  5
792
330
17
100
AcDbEntity
  8
0
  6
Continuous
100
AcDbLine
 10
327.4524375
 20
-293.1950869999998
 30
0.0
 11
323.0762095
 21
-303.0139279999998
 31
0.0
  0
LINE
  5
793
330
17
100
AcDbEntity
  8
0
  6
Continuous
100
AcDbLine
 10
331.7705665
 20
-283.1669059999997
 30
0.0
 11
327.4524375
 21
-293.1950869999998
 31
0.0
  0
LINE
  5
794
330
17
100
AcDbEntity
  8
0
  6
Continuous
100
AcDbLine
 10
336.0263655000001
 20
-272.9278729999998
 30
0.0
 11
331.7705665
 21
-283.1669059999997
 31
0.0
  0
LINE
  5
795
330
17
100
AcDbEntity
  8
0
  6
Continuous
100
AcDbLine
 10
340.2162315
 20
-262.4789229999998
 30
0.0
 11
336.0263655000001
 21
-272.9278729999998
 31
0.0
  0
LINE
  5
796
330
17
100
AcDbEntity
  8
0
  6
Continuous
100
AcDbLine
 10
344.3380205
 20
-251.8202509999998
 30
0.0
 11
340.2162315
 21
-262.4789229999998
 31
0.0
  0
LINE
  5
797
330
17
100
AcDbEntity
  8
0
  6
Continuous
100
AcDbLine
 10
348.3879214999999
 20
-240.9522239999998
 30
0.0
 11
344.3380205
 21
-251.8202509999998
 31
0.0
  0
LINE
  5
798
330
17
100
AcDbEntity
  8
0
  6
Continuous
100
AcDbLine
 10
352.3640385000001
 20
-229.8792939999998
 30
0.0
 11
348.3879214999999
 21
-240.9522239999998
 31
0.0
  0
LINE
  5
799
330
17
100
AcDbEntity
  8
0
  6
Continuous
100
AcDbLine
 10
356.2628885000001
 20
-218.6056069999998
 30
0.0
 11
352.3640385000001
 21
-229.8792939999998
 31
0.0
  0
LINE
  5
79A
330
17
100
AcDbEntity
  8
0
  6
Continuous
100
AcDbLine
 10
360.0806334999999
 20
-207.1335479999998
 30
0.0
 11
356.2628885000001
 21
-218.6056069999998
 31
0.0
  0
LINE
  5
79B
330
17
100
AcDbEntity
  8
0
  6
Continuous
100
AcDbLine
 10
363.8152285000001
 20
-195.4690089999998
 30
0.0
 11
360.0806334999999
 21
-207.1335479999998
 31
0.0
  0
LINE
  5
79C
330
17
100
AcDbEntity
  8
0
  6
Continuous
100
AcDbLine
 10
367.4626694999999
 20
-183.6168089999998
 30
0.0
 11
363.8152285000001
 21
-195.4690089999998
 31
0.0
  0
LINE
  5
79D
330
17
100
AcDbEntity
  8
0
  6
Continuous
100
AcDbLine
 10
371.0219925000001
 20
-171.5825279999998
 30
0.0
 11
367.4626694999999
 21
-183.6168089999998
 31
0.0
  0
LINE
  5
79E
330
17
100
AcDbEntity
  8
0
  6
Continuous
100
AcDbLine
 10
374.4898825
 20
-159.3740099999998
 30
0.0
 11
371.0219925000001
 21
-171.5825279999998
 31
0.0
  0
LINE
  5
79F
330
17
100
AcDbEntity
  8
0
  6
Continuous
100
AcDbLine
 10
377.4538525
 20
-148.5
 30
0.0
 11
374.4898825
 21
-159.3740099999998
 31
0.0
  0
LINE
  5
7A0
330
17
100
AcDbEntity
  8
0
  6
Continuous
100
AcDbLine
 10
462.5461474999999
 20
-148.5
 30
0.0
 11
377.4538525
 21
-148.5
 31
0.0
  0
LINE
  5
7A1
330
17
100
AcDbEntity
  8
0
  6
Continuous
100
AcDbLine
 10
465.5101175000002
 20
-159.3740099999998
 30
0.0
 11
462.5461474999999
 21
-148.5
 31
0.0
  0
LINE
  5
7A2
330
17
100
AcDbEntity
  8
0
  6
Continuous
100
AcDbLine
 10
468.9780075
 20
-171.5825279999998
 30
0.0
 11
465.5101175000002
 21
-159.3740099999998
 31
0.0
  0
LINE
  5
7A3
330
17
100
AcDbEntity
  8
0
  6
Continuous
100
AcDbLine
 10
472.5373305
 20
-183.6168089999998
 30
0.0
 11
468.9780075
 21
-171.5825279999998
 31
0.0
  0
LINE
  5
7A4
330
17
100
AcDbEntity
  8
0
  6
Continuous
100
AcDbLine
 10
476.1847715
 20
-195.4690089999998
 30
0.0
 11
472.5373305
 21
-183.6168089999998
 31
0.0
  0
LINE
  5
7A5
330
17
100
AcDbEntity
  8
0
  6
Continuous
100
AcDbLine
 10
479.9193665
 20
-207.1335479999998
 30
0.0
 11
476.1847715
 21
-195.4690089999998
 31
0.0
  0
LINE
  5
7A6
330
17
100
AcDbEntity
  8
0
  6
Continuous
100
AcDbLine
 10
483.7371115
 20
-218.6056069999998
 30
0.0
 11
479.9193665
 21
-207.1335479999998
 31
0.0
  0
LINE
  5
7A7
330
17
100
AcDbEntity
  8
0
  6
Continuous
100
AcDbLine
 10
487.6359615000001
 20
-229.8792939999998
 30
0.0
 11
483.7371115
 21
-218.6056069999998
 31
0.0
  0
LINE
  5
7A8
330
17
100
AcDbEntity
  8
0
  6
Continuous
100
AcDbLine
 10
491.6120785
 20
-240.9522239999998
 30
0.0
 11
487.6359615000001
 21
-229.8792939999998
 31
0.0
  0
LINE
  5
7A9
330
17
100
AcDbEntity
  8
0
  6
Continuous
100
AcDbLine
 10
495.6619794999999
 20
-251.8202509999998
 30
0.0
 11
491.6120785
 21
-240.9522239999998
 31
0.0
  0
LINE
  5
7AA
330
17
100
AcDbEntity
  8
0
  6
Continuous
100
AcDbLine
 10
499.7837685000002
 20
-262.4789229999998
 30
0.0
 11
495.6619794999999
 21
-251.8202509999998
 31
0.0
  0
LINE
  5
7AB
330
17
100
AcDbEntity
  8
0
  6
Continuous
100
AcDbLine
 10
503.9736345000001
 20
-272.9278729999998
 30
0.0
 11
499.7837685000002
 21
-262.4789229999998
 31
0.0
  0
LINE
  5
7AC
330
17
100
AcDbEntity
  8
0
  6
Continuous
100
AcDbLine
 10
508.2294335000001
 20
-283.1669059999997
 30
0.0
 11
503.9736345000001
 21
-272.9278729999998
 31
0.0
  0
LINE
  5
7AD
330
17
100
AcDbEntity
  8
0
  6
Continuous
100
AcDbLine
 10
512.5475625000001
 20
-293.1950869999998
 30
0.0
 11
508.2294335000001
 21
-283.1669059999997
 31
0.0
  0
LINE
  5
7AE
330
17
100
AcDbEntity
  8
0
  6
Continuous
100
AcDbLine
 10
516.9237905
 20
-303.0139279999998
 30
0.0
 11
512.5475625000001
 21
-293.1950869999998
 31
0.0
  0
LINE
  5
7AF
330
17
100
AcDbEntity
  8
0
  6
Continuous
100
AcDbLine
 10
521.3574475
 20
-312.6262789999998
 30
0.0
 11
516.9237905
 21
-303.0139279999998
 31
0.0
  0
LINE
  5
7B0
330
17
100
AcDbEntity
  8
0
  6
Continuous
100
AcDbLine
 10
525.8429415000001
 20
-322.0349479999998
 30
0.0
 11
521.3574475
 21
-312.6262789999998
 31
0.0
  0
LINE
  5
7B1
330
17
100
AcDbEntity
  8
0
  6
Continuous
100
AcDbLine
 10
530.3782515
 20
-331.2438699999998
 30
0.0
 11
525.8429415000001
 21
-322.0349479999998
 31
0.0
  0
LINE
  5
7B2
330
17
100
AcDbEntity
  8
0
  6
Continuous
100
AcDbLine
 10
534.9610064999999
 20
-340.2611969999998
 30
0.0
 11
530.3782515
 21
-331.2438699999998
 31
0.0
  0
LINE
  5
7B3
330
17
100
AcDbEntity
  8
0
  6
Continuous
100
AcDbLine
 10
539.5878345
 20
-349.0929759999998
 30
0.0
 11
534.9610064999999
 21
-340.2611969999998
 31
0.0
  0
LINE
  5
7B4
330
17
100
AcDbEntity
  8
0
  6
Continuous
100
AcDbLine
 10
544.2551615
 20
-357.7487289999997
 30
0.0
 11
539.5878345
 21
-349.0929759999998
 31
0.0
  0
LINE
  5
7B5
330
17
100
AcDbEntity
  8
0
  6
Continuous
100
AcDbLine
 10
548.9617854999998
 20
-366.2396319999998
 30
0.0
 11
544.2551615
 21
-357.7487289999997
 31
0.0
  0
LINE
  5
7B6
330
17
100
AcDbEntity
  8
0
  6
Continuous
100
AcDbLine
 10
553.7034715000002
 20
-374.5776399999998
 30
0.0
 11
548.9617854999998
 21
-366.2396319999998
 31
0.0
  0
LINE
  5
7B7
330
17
100
AcDbEntity
  8
0
  6
Continuous
100
AcDbLine
 10
558.4781064999999
 20
-382.7748889999998
 30
0.0
 11
553.7034715000002
 21
-374.5776399999998
 31
0.0
  0
LINE
  5
7B8
330
17
100
AcDbEntity
  8
0
  6
Continuous
100
AcDbLine
 10
563.2822444999999
 20
-390.8478229999998
 30
0.0
 11
558.4781064999999
 21
-382.7748889999998
 31
0.0
  0
LINE
  5
7B9
330
17
100
AcDbEntity
  8
0
  6
Continuous
100
AcDbLine
 10
568.1150125000001
 20
-398.8108829999998
 30
0.0
 11
563.2822444999999
 21
-390.8478229999998
 31
0.0
  0
LINE
  5
7BA
330
17
100
AcDbEntity
  8
0
  6
Continuous
100
AcDbLine
 10
572.9715845
 20
-406.6824609999998
 30
0.0
 11
568.1150125000001
 21
-398.8108829999998
 31
0.0
  0
LINE
  5
7BB
330
17
100
AcDbEntity
  8
0
  6
Continuous
100
AcDbLine
 10
577.8514674999999
 20
-414.4819239999998
 30
0.0
 11
572.9715845
 21
-406.6824609999998
 31
0.0
  0
LINE
  5
7BC
330
17
100
AcDbEntity
  8
0
  6
Continuous
100
AcDbLine
 10
582.7499085000002
 20
-422.2278329999998
 30
0.0
 11
577.8514674999999
 21
-414.4819239999998
 31
0.0
  0
LINE
  5
7BD
330
17
100
AcDbEntity
  8
0
  6
Continuous
100
AcDbLine
 10
587.6636765
 20
-429.9404929999998
 30
0.0
 11
582.7499085000002
 21
-422.2278329999998
 31
0.0
  0
LINE
  5
7BE
330
17
100
AcDbEntity
  8
0
  6
Continuous
100
AcDbLine
 10
592.5900035000002
 20
-437.6380659999998
 30
0.0
 11
587.6636765
 21
-429.9404929999998
 31
0.0
  0
LINE
  5
7BF
330
17
100
AcDbEntity
  8
0
  6
Continuous
100
AcDbLine
 10
597.5262675000001
 20
-445.3420389999998
 30
0.0
 11
592.5900035000002
 21
-437.6380659999998
 31
0.0
  0
LINE
  5
7C0
330
17
100
AcDbEntity
  8
0
  6
Continuous
100
AcDbLine
 10
602.4645395
 20
-453.0644119999998
 30
0.0
 11
597.5262675000001
 21
-445.3420389999998
 31
0.0
  0
LINE
  5
7C1
330
17
100
AcDbEntity
  8
0
  6
Continuous
100
AcDbLine
 10
607.4031194999999
 20
-460.8161569999999
 30
0.0
 11
602.4645395
 21
-453.0644119999998
 31
0.0
  0
LINE
  5
7C2
330
17
100
AcDbEntity
  8
0
  6
Continuous
100
AcDbLine
 10
612.3362815
 20
-468.6088469999998
 30
0.0
 11
607.4031194999999
 21
-460.8161569999999
 31
0.0
  0
LINE
  5
7C3
330
17
100
AcDbEntity
  8
0
  6
Continuous
100
AcDbLine
 10
617.2612085
 20
-476.4543699999998
 30
0.0
 11
612.3362815
 21
-468.6088469999998
 31
0.0
  0
LINE
  5
7C4
330
17
100
AcDbEntity
  8
0
  6
Continuous
100
AcDbLine
 10
622.1741105000001
 20
-484.3632879999998
 30
0.0
 11
617.2612085
 21
-476.4543699999998
 31
0.0
  0
LINE
  5
7C5
330
17
100
AcDbEntity
  8
0
  6
Continuous
100
AcDbLine
 10
627.0691575
 20
-492.3455469999998
 30
0.0
 11
622.1741105000001
 21
-484.3632879999998
 31
0.0
  0
LINE
  5
7C6
330
17
100
AcDbEntity
  8
0
  6
Continuous
100
AcDbLine
 10
631.9451725000001
 20
-500.4121279999998
 30
0.0
 11
627.0691575
 21
-492.3455469999998
 31
0.0
  0
LINE
  5
7C7
330
17
100
AcDbEntity
  8
0
  6
Continuous
100
AcDbLine
 10
636.7957954999999
 20
-508.5727889999998
 30
0.0
 11
631.9451725000001
 21
-500.4121279999998
 31
0.0
  0
LINE
  5
7C8
330
17
100
AcDbEntity
  8
0
  6
Continuous
100
AcDbLine
 10
641.6181285
 20
-516.8353209999998
 30
0.0
 11
636.7957954999999
 21
-508.5727889999998
 31
0.0
  0
LINE
  5
7C9
330
17
100
AcDbEntity
  8
0
  6
Continuous
100
AcDbLine
 10
646.4081914999999
 20
-525.2090989999998
 30
0.0
 11
641.6181285
 21
-516.8353209999998
 31
0.0
  0
LINE
  5
7CA
330
17
100
AcDbEntity
  8
0
  6
Continuous
100
AcDbLine
 10
651.1612025000001
 20
-533.7010919999998
 30
0.0
 11
646.4081914999999
 21
-525.2090989999998
 31
0.0
  0
LINE
  5
7CB
330
17
100
AcDbEntity
  8
0
  6
Continuous
100
AcDbLine
 10
655.8737655000002
 20
-542.3178869999998
 30
0.0
 11
651.1612025000001
 21
-533.7010919999998
 31
0.0
  0
LINE
  5
7CC
330
17
100
AcDbEntity
  8
0
  6
Continuous
100
AcDbLine
 10
660.5413934999999
 20
-551.0658999999998
 30
0.0
 11
655.8737655000002
 21
-542.3178869999998
 31
0.0
  0
LINE
  5
7CD
330
17
100
AcDbEntity
  8
0
  6
Continuous
100
AcDbLine
 10
665.1617335
 20
-559.9517129999997
 30
0.0
 11
660.5413934999999
 21
-551.0658999999998
 31
0.0
  0
LINE
  5
7CE
330
17
100
AcDbEntity
  8
0
  6
Continuous
100
AcDbLine
 10
669.7296535
 20
-568.9793469999998
 30
0.0
 11
665.1617335
 21
-559.9517129999997
 31
0.0
  0
LINE
  5
7CF
330
17
100
AcDbEntity
  8
0
  6
Continuous
100
AcDbLine
 10
674.2413644999999
 20
-578.1534619999997
 30
0.0
 11
669.7296535
 21
-568.9793469999998
 31
0.0
  0
LINE
  5
7D0
330
17
100
AcDbEntity
  8
0
  6
Continuous
100
AcDbLine
 10
678.6948225000001
 20
-587.4781109999998
 30
0.0
 11
674.2413644999999
 21
-578.1534619999997
 31
0.0
  0
LINE
  5
7D1
330
17
100
AcDbEntity
  8
0
  6
Continuous
100
AcDbLine
 10
683.0848754999999
 20
-596.9561759999999
 30
0.0
 11
678.6948225000001
 21
-587.4781109999998
 31
0.0
  0
LINE
  5
7D2
330
17
100
AcDbEntity
  8
0
  6
Continuous
100
AcDbLine
 10
687.4090705000001
 20
-606.5907849999998
 30
0.0
 11
683.0848754999999
 21
-596.9561759999999
 31
0.0
  0
LINE
  5
7D3
330
17
100
AcDbEntity
  8
0
  6
Continuous
100
AcDbLine
 10
691.6634145
 20
-616.3830589999998
 30
0.0
 11
687.4090705000001
 21
-606.5907849999998
 31
0.0
  0
LINE
  5
7D4
330
17
100
AcDbEntity
  8
0
  6
Continuous
100
AcDbLine
 10
695.8445994999999
 20
-626.3353719999998
 30
0.0
 11
691.6634145
 21
-616.3830589999998
 31
0.0
  0
LINE
  5
7D5
330
17
100
AcDbEntity
  8
0
  6
Continuous
100
AcDbLine
 10
699.9493555000001
 20
-636.4470879999998
 30
0.0
 11
695.8445994999999
 21
-626.3353719999998
 31
0.0
  0
LINE
  5
7D6
330
17
100
AcDbEntity
  8
0
  6
Continuous
100
AcDbLine
 10
703.9757725000002
 20
-646.7204159999998
 30
0.0
 11
699.9493555000001
 21
-636.4470879999998
 31
0.0
  0
LINE
  5
7D7
330
17
100
AcDbEntity
  8
0
  6
Continuous
100
AcDbLine
 10
707.9199205000001
 20
-657.1545649999998
 30
0.0
 11
703.9757725000002
 21
-646.7204159999998
 31
0.0
  0
LINE
  5
7D8
330
17
100
AcDbEntity
  8
0
  6
Continuous
100
AcDbLine
 10
711.7786444999999
 20
-667.7501319999999
 30
0.0
 11
707.9199205000001
 21
-657.1545649999998
 31
0.0
  0
LINE
  5
7D9
330
17
100
AcDbEntity
  8
0
  6
Continuous
100
AcDbLine
 10
715.5485255000001
 20
-678.5049059999998
 30
0.0
 11
711.7786444999999
 21
-667.7501319999999
 31
0.0
  0
LINE
  5
7DA
330
17
100
AcDbEntity
  8
0
  6
Continuous
100
AcDbLine
 10
719.2289005
 20
-689.4176929999998
 30
0.0
 11
715.5485255000001
 21
-678.5049059999998
 31
0.0
  0
LINE
  5
7DB
330
17
100
AcDbEntity
  8
0
  6
Continuous
100
AcDbLine
 10
722.8148205
 20
-700.4876679999998
 30
0.0
 11
719.2289005
 21
-689.4176929999998
 31
0.0
  0
LINE
  5
7DC
330
17
100
AcDbEntity
  8
0
  6
Continuous
100
AcDbLine
 10
726.3049655000002
 20
-711.7126999999998
 30
0.0
 11
722.8148205
 21
-700.4876679999998
 31
0.0
  0
LINE
  5
7DD
330
17
100
AcDbEntity
  8
0
  6
Continuous
100
AcDbLine
 10
729.6966285
 20
-723.0896209999998
 30
0.0
 11
726.3049655000002
 21
-711.7126999999998
 31
0.0
  0
LINE
  5
7DE
330
17
100
AcDbEntity
  8
0
  6
Continuous
100
AcDbLine
 10
732.9867375
 20
-734.6171179999998
 30
0.0
 11
729.6966285
 21
-723.0896209999998
 31
0.0
  0
LINE
  5
7DF
330
17
100
AcDbEntity
  8
0
  6
Continuous
100
AcDbLine
 10
736.1732564999999
 20
-746.2909249999998
 30
0.0
 11
732.9867375
 21
-734.6171179999998
 31
0.0
  0
LINE
  5
7E0
330
17
100
AcDbEntity
  8
0
  6
Continuous
100
AcDbLine
 10
739.2531965
 20
-758.1069509999998
 30
0.0
 11
736.1732564999999
 21
-746.2909249999998
 31
0.0
  0
LINE
  5
7E1
330
17
100
AcDbEntity
  8
0
  6
Continuous
100
AcDbLine
 10
742.2256225
 20
-770.0632709999998
 30
0.0
 11
739.2531965
 21
-758.1069509999998
 31
0.0
  0
LINE
  5
7E2
330
17
100
AcDbEntity
  8
0
  6
Continuous
100
AcDbLine
 10
745.0876095
 20
-782.1560729999998
 30
0.0
 11
742.2256225
 21
-770.0632709999998
 31
0.0
  0
LINE
  5
7E3
330
17
100
AcDbEntity
  8
0
  6
Continuous
100
AcDbLine
 10
747.8370215000002
 20
-794.3796089999998
 30
0.0
 11
745.0876095
 21
-782.1560729999998
 31
0.0
  0
LINE
  5
7E4
330
17
100
AcDbEntity
  8
0
  6
Continuous
100
AcDbLine
 10
750.4731385
 20
-806.7299089999998
 30
0.0
 11
747.8370215000002
 21
-794.3796089999998
 31
0.0
  0
LINE
  5
7E5
330
17
100
AcDbEntity
  8
0
  6
Continuous
100
AcDbLine
 10
752.9919035
 20
-819.2036979999997
 30
0.0
 11
750.4731385
 21
-806.7299089999998
 31
0.0
  0
LINE
  5
7E6
330
17
100
AcDbEntity
  8
0
  6
Continuous
100
AcDbLine
 10
755.3932624999999
 20
-831.7954549999997
 30
0.0
 11
752.9919035
 21
-819.2036979999997
 31
0.0
  0
LINE
  5
7E7
330
17
100
AcDbEntity
  8
0
  6
Continuous
100
AcDbLine
 10
757.6743255000001
 20
-844.4996219999998
 30
0.0
 11
755.3932624999999
 21
-831.7954549999997
 31
0.0
  0
LINE
  5
7E8
330
17
100
AcDbEntity
  8
0
  6
Continuous
100
AcDbLine
 10
759.8341124999999
 20
-857.3101229999998
 30
0.0
 11
757.6743255000001
 21
-844.4996219999998
 31
0.0
  0
LINE
  5
7E9
330
17
100
AcDbEntity
  8
0
  6
Continuous
100
AcDbLine
 10
761.8706445
 20
-870.2239539999998
 30
0.0
 11
759.8341124999999
 21
-857.3101229999998
 31
0.0
  0
LINE
  5
7EA
330
17
100
AcDbEntity
  8
0
  6
Continuous
100
AcDbLine
 10
763.7829065
 20
-883.2327799999998
 30
0.0
 11
761.8706445
 21
-870.2239539999998
 31
0.0
  0
LINE
  5
7EB
330
17
100
AcDbEntity
  8
0
  6
Continuous
100
AcDbLine
 10
765.5700604999999
 20
-896.3335329999997
 30
0.0
 11
763.7829065
 21
-883.2327799999998
 31
0.0
  0
LINE
  5
7EC
330
17
100
AcDbEntity
  8
0
  6
Continuous
100
AcDbLine
 10
767.2290654999999
 20
-909.5188939999998
 30
0.0
 11
765.5700604999999
 21
-896.3335329999997
 31
0.0
  0
LINE
  5
7ED
330
17
100
AcDbEntity
  8
0
  6
Continuous
100
AcDbLine
 10
768.7598715000001
 20
-922.7831989999998
 30
0.0
 11
767.2290654999999
 21
-909.5188939999998
 31
0.0
  0
LINE
  5
7EE
330
17
100
AcDbEntity
  8
0
  6
Continuous
100
AcDbLine
 10
770.1615655
 20
-936.1189379999999
 30
0.0
 11
768.7598715000001
 21
-922.7831989999998
 31
0.0
  0
LINE
  5
7EF
330
17
100
AcDbEntity
  8
0
  6
Continuous
100
AcDbLine
 10
771.4332185
 20
-949.5216789999998
 30
0.0
 11
770.1615655
 21
-936.1189379999999
 31
0.0
  0
LINE
  5
7F0
330
17
100
AcDbEntity
  8
0
  6
Continuous
100
AcDbLine
 10
772.5728025000001
 20
-962.9850909999998
 30
0.0
 11
771.4332185
 21
-949.5216789999998
 31
0.0
  0
LINE
  5
7F1
330
17
100
AcDbEntity
  8
0
  6
Continuous
100
AcDbLine
 10
773.5803165
 20
-976.5018949999996
 30
0.0
 11
772.5728025000001
 21
-962.9850909999998
 31
0.0
  0
LINE
  5
7F2
330
17
100
AcDbEntity
  8
0
  6
Continuous
100
AcDbLine
 10
774.4547855000001
 20
-990.0652409999997
 30
0.0
 11
773.5803165
 21
-976.5018949999996
 31
0.0
  0
LINE
  5
7F3
330
17
100
AcDbEntity
  8
0
  6
Continuous
100
AcDbLine
 10
775.1962355
 20
-1003.669234999999
 30
0.0
 11
774.4547855000001
 21
-990.0652409999997
 31
0.0
  0
LINE
  5
7F4
330
17
100
AcDbEntity
  8
0
  6
Continuous
100
AcDbLine
 10
775.8036975000002
 20
-1017.306387999999
 30
0.0
 11
775.1962355
 21
-1003.669234999999
 31
0.0
  0
LINE
  5
7F5
330
17
100
AcDbEntity
  8
0
  6
Continuous
100
AcDbLine
 10
776.2761425000001
 20
-1030.972064999999
 30
0.0
 11
775.8036975000002
 21
-1017.306387999999
 31
0.0
  0
LINE
  5
7F6
330
17
100
AcDbEntity
  8
0
  6
Continuous
100
AcDbLine
 10
776.6146085
 20
-1044.656728999999
 30
0.0
 11
776.2761425000001
 21
-1030.972064999999
 31
0.0
  0
LINE
  5
7F7
330
17
100
AcDbEntity
  8
0
  6
Continuous
100
AcDbLine
 10
776.8170835000001
 20
-1058.355541999999
 30
0.0
 11
776.6146085
 21
-1044.656728999999
 31
0.0
  0
LINE
  5
7F8
330
17
100
AcDbEntity
  8
0
  6
Continuous
100
AcDbLine
 10
776.9338115
 20
-1082.061859999999
 30
0.0
 11
776.8170835000001
 21
-1058.355541999999
 31
0.0
  0
LINE
  5
7F9
330
17
100
AcDbEntity
  8
0
  6
Continuous
100
AcDbLine
 10
63.06618850000018
 20
-1082.061859999999
 30
0.0
 11
776.9338115
 21
-1082.061859999999
 31
0.0
  0
LINE
  5
7FA
330
17
100
AcDbEntity
  8
0
  6
Continuous
100
AcDbLine
 10
454.9070585000001
 20
-158.4999999999998
 30
0.0
 11
455.8761155
 21
-162.0552099999998
 31
0.0
  0
LINE
  5
7FB
330
17
100
AcDbEntity
  8
0
  6
Continuous
100
AcDbLine
 10
385.0929425000001
 20
-158.4999999999998
 30
0.0
 11
384.1238845
 21
-162.0552099999998
 31
0.0
  0
LINE
  5
7FC
330
17
100
AcDbEntity
  8
0
  6
Continuous
100
AcDbLine
 10
454.9070585000001
 20
-158.4999999999998
 30
0.0
 11
385.0929425000001
 21
-158.4999999999998
 31
0.0
  0
LINE
  5
7FD
330
17
100
AcDbEntity
  8
0
  6
Continuous
100
AcDbLine
 10
766.8174475
 20
-1058.454057999999
 30
0.0
 11
766.8844515
 21
-1072.061859999999
 31
0.0
  0
LINE
  5
7FE
330
17
100
AcDbEntity
  8
0
  6
Continuous
100
AcDbLine
 10
75.52769150000017
 20
-990.6590609999998
 30
0.0
 11
74.79164749999995
 21
-1004.163856999999
 31
0.0
  0
LINE
  5
7FF
330
17
100
AcDbEntity
  8
0
  6
Continuous
100
AcDbLine
 10
78.52686750000021
 20
-950.4156889999999
 30
0.0
 11
77.39580150000006
 21
-963.7784759999998
 31
0.0
  0
LINE
  5
800
330
17
100
AcDbEntity
  8
0
  6
Continuous
100
AcDbLine
 10
73.38356450000015
 20
-1044.854255999999
 30
0.0
 11
73.18255250000015
 21
-1058.454057999999
 31
0.0
  0
LINE
  5
801
330
17
100
AcDbEntity
  8
0
  6
Continuous
100
AcDbLine
 10
761.4731325
 20
-950.4156889999999
 30
0.0
 11
762.6041984999999
 21
-963.7784759999998
 31
0.0
  0
LINE
  5
802
330
17
100
AcDbEntity
  8
0
  6
Continuous
100
AcDbLine
 10
73.71958449999988
 20
-1031.268454999999
 30
0.0
 11
73.38356450000015
 21
-1044.854255999999
 31
0.0
  0
LINE
  5
803
330
17
100
AcDbEntity
  8
0
  6
Continuous
100
AcDbLine
 10
76.39574250000009
 20
-977.1952669999999
 30
0.0
 11
75.52769150000017
 21
-990.6590609999998
 31
0.0
  0
LINE
  5
804
330
17
100
AcDbEntity
  8
0
  6
Continuous
100
AcDbLine
 10
73.18255250000015
 20
-1058.454057999999
 30
0.0
 11
73.11554850000016
 21
-1072.061859999999
 31
0.0
  0
LINE
  5
805
330
17
100
AcDbEntity
  8
0
  6
Continuous
100
AcDbLine
 10
766.6164355000001
 20
-1044.854255999999
 30
0.0
 11
766.8174475
 21
-1058.454057999999
 31
0.0
  0
LINE
  5
806
330
17
100
AcDbEntity
  8
0
  6
Continuous
100
AcDbLine
 10
763.6042574999999
 20
-977.1952669999999
 30
0.0
 11
764.4723085
 21
-990.6590609999998
 31
0.0
  0
LINE
  5
807
330
17
100
AcDbEntity
  8
0
  6
Continuous
100
AcDbLine
 10
77.39580150000006
 20
-963.7784759999998
 30
0.0
 11
76.39574250000009
 21
-977.1952669999999
 31
0.0
  0
LINE
  5
808
330
17
100
AcDbEntity
  8
0
  6
Continuous
100
AcDbLine
 10
74.79164749999995
 20
-1004.163856999999
 30
0.0
 11
74.18861250000031
 21
-1017.701655999999
 31
0.0
  0
LINE
  5
809
330
17
100
AcDbEntity
  8
0
  6
Continuous
100
AcDbLine
 10
766.2804155000001
 20
-1031.268454999999
 30
0.0
 11
766.6164355000001
 21
-1044.854255999999
 31
0.0
  0
LINE
  5
80A
330
17
100
AcDbEntity
  8
0
  6
Continuous
100
AcDbLine
 10
766.8844515
 20
-1072.061859999999
 30
0.0
 11
73.11554850000016
 21
-1072.061859999999
 31
0.0
  0
LINE
  5
80B
330
17
100
AcDbEntity
  8
0
  6
Continuous
100
AcDbLine
 10
79.78894250000007
 20
-937.1139039999999
 30
0.0
 11
78.52686750000021
 21
-950.4156889999999
 31
0.0
  0
LINE
  5
80C
330
17
100
AcDbEntity
  8
0
  6
Continuous
100
AcDbLine
 10
765.2083525
 20
-1004.163856999999
 30
0.0
 11
765.8113875000001
 21
-1017.701655999999
 31
0.0
  0
LINE
  5
80D
330
17
100
AcDbEntity
  8
0
  6
Continuous
100
AcDbLine
 10
764.4723085
 20
-990.6590609999998
 30
0.0
 11
765.2083525
 21
-1004.163856999999
 31
0.0
  0
LINE
  5
80E
330
17
100
AcDbEntity
  8
0
  6
Continuous
100
AcDbLine
 10
74.18861250000031
 20
-1017.701655999999
 30
0.0
 11
73.71958449999988
 21
-1031.268454999999
 31
0.0
  0
LINE
  5
80F
330
17
100
AcDbEntity
  8
0
  6
Continuous
100
AcDbLine
 10
765.8113875000001
 20
-1017.701655999999
 30
0.0
 11
766.2804155000001
 21
-1031.268454999999
 31
0.0
  0
LINE
  5
810
330
17
100
AcDbEntity
  8
0
  6
Continuous
100
AcDbLine
 10
762.6041984999999
 20
-963.7784759999998
 30
0.0
 11
763.6042574999999
 21
-977.1952669999999
 31
0.0
  0
LINE
  5
811
330
17
100
AcDbEntity
  8
0
  6
Continuous
100
AcDbLine
 10
709.7340814999999
 20
-692.5564859999998
 30
0.0
 11
713.2832905
 21
-703.5131319999997
 31
0.0
  0
LINE
  5
812
330
17
100
AcDbEntity
  8
0
  6
Continuous
100
AcDbLine
 10
678.2612265
 20
-610.6306559999998
 30
0.0
 11
682.4674745
 21
-620.3122269999998
 31
0.0
  0
LINE
  5
813
330
17
100
AcDbEntity
  8
0
  6
Continuous
100
AcDbLine
 10
86.1183155000001
 20
-884.6358099999998
 30
0.0
 11
84.3452104999999
 21
-897.6335769999998
 31
0.0
  0
LINE
  5
814
330
17
100
AcDbEntity
  8
0
  6
Continuous
100
AcDbLine
 10
137.6383525000003
 20
-671.1152219999998
 30
0.0
 11
133.9081335
 21
-681.7568489999999
 31
0.0
  0
LINE
  5
815
330
17
100
AcDbEntity
  8
0
  6
Continuous
100
AcDbLine
 10
757.3008864999999
 20
-910.7163479999998
 30
0.0
 11
758.8199755
 21
-923.8791239999997
 31
0.0
  0
LINE
  5
816
330
17
100
AcDbEntity
  8
0
  6
Continuous
100
AcDbLine
 10
747.8223275
 20
-846.2145449999997
 30
0.0
 11
749.9644534999999
 21
-858.9202939999998
 31
0.0
  0
LINE
  5
817
330
17
100
AcDbEntity
  8
0
  6
Continuous
100
AcDbLine
 10
729.5622504999998
 20
-760.5744959999998
 30
0.0
 11
732.5074245
 21
-772.4211949999999
 31
0.0
  0
LINE
  5
818
330
17
100
AcDbEntity
  8
0
  6
Continuous
100
AcDbLine
 10
706.0918665000001
 20
-681.7568489999999
 30
0.0
 11
709.7340814999999
 21
-692.5564859999998
 31
0.0
  0
LINE
  5
819
330
17
100
AcDbEntity
  8
0
  6
Continuous
100
AcDbLine
 10
755.6547895000001
 20
-897.6335769999998
 30
0.0
 11
757.3008864999999
 21
-910.7163479999998
 31
0.0
  0
LINE
  5
81A
330
17
100
AcDbEntity
  8
0
  6
Continuous
100
AcDbLine
 10
753.8816845000001
 20
-884.6358099999998
 30
0.0
 11
755.6547895000001
 21
-897.6335769999998
 31
0.0
  0
LINE
  5
81B
330
17
100
AcDbEntity
  8
0
  6
Continuous
100
AcDbLine
 10
749.9644534999999
 20
-858.9202939999998
 30
0.0
 11
751.9845725000002
 21
-871.7300499999998
 31
0.0
  0
LINE
  5
81C
330
17
100
AcDbEntity
  8
0
  6
Continuous
100
AcDbLine
 10
720.0966925
 20
-725.8904509999998
 30
0.0
 11
723.3548845
 21
-737.3061239999998
 31
0.0
  0
LINE
  5
81D
330
17
100
AcDbEntity
  8
0
  6
Continuous
100
AcDbLine
 10
682.4674745
 20
-620.3122269999998
 30
0.0
 11
686.6017174999999
 21
-630.1528069999998
 31
0.0
  0
LINE
  5
81E
330
17
100
AcDbEntity
  8
0
  6
Continuous
100
AcDbLine
 10
110.4377495000001
 20
-760.5744959999998
 30
0.0
 11
107.4925755000001
 21
-772.4211949999999
 31
0.0
  0
LINE
  5
81F
330
17
100
AcDbEntity
  8
0
  6
Continuous
100
AcDbLine
 10
119.9033075000002
 20
-725.8904509999998
 30
0.0
 11
116.6451155000002
 21
-737.3061239999998
 31
0.0
  0
LINE
  5
820
330
17
100
AcDbEntity
  8
0
  6
Continuous
100
AcDbLine
 10
88.01542750000022
 20
-871.7300499999998
 30
0.0
 11
86.1183155000001
 21
-884.6358099999998
 31
0.0
  0
LINE
  5
821
330
17
100
AcDbEntity
  8
0
  6
Continuous
100
AcDbLine
 10
745.5601935000002
 20
-833.6158019999997
 30
0.0
 11
747.8223275
 21
-846.2145449999997
 31
0.0
  0
LINE
  5
822
330
17
100
AcDbEntity
  8
0
  6
Continuous
100
AcDbLine
 10
96.82094650000022
 20
-821.1300659999999
 30
0.0
 11
94.43980650000003
 21
-833.6158019999997
 31
0.0
  0
LINE
  5
823
330
17
100
AcDbEntity
  8
0
  6
Continuous
100
AcDbLine
 10
740.6819065000002
 20
-808.7633369999998
 30
0.0
 11
743.1790535
 21
-821.1300659999999
 31
0.0
  0
LINE
  5
824
330
17
100
AcDbEntity
  8
0
  6
Continuous
100
AcDbLine
 10
145.3568075
 20
-650.3129959999998
 30
0.0
 11
141.4555775000001
 21
-660.6336039999998
 31
0.0
  0
LINE
  5
825
330
17
100
AcDbEntity
  8
0
  6
Continuous
100
AcDbLine
 10
107.4925755000001
 20
-772.4211949999999
 30
0.0
 11
104.6564085000002
 21
-784.4049009999999
 31
0.0
  0
LINE
  5
826
330
17
100
AcDbEntity
  8
0
  6
Continuous
100
AcDbLine
 10
133.9081335
 20
-681.7568489999999
 30
0.0
 11
130.2659184999999
 21
-692.5564859999998
 31
0.0
  0
LINE
  5
827
330
17
100
AcDbEntity
  8
0
  6
Continuous
100
AcDbLine
 10
161.7387734999999
 20
-610.6306559999998
 30
0.0
 11
157.5325255
 21
-620.3122269999998
 31
0.0
  0
LINE
  5
828
330
17
100
AcDbEntity
  8
0
  6
Continuous
100
AcDbLine
 10
673.9859745000001
 20
-601.1050939999997
 30
0.0
 11
678.2612265
 21
-610.6306559999998
 31
0.0
  0
LINE
  5
829
330
17
100
AcDbEntity
  8
0
  6
Continuous
100
AcDbLine
 10
723.3548845
 20
-737.3061239999998
 30
0.0
 11
726.5110704999999
 21
-748.8688059999998
 31
0.0
  0
LINE
  5
82A
330
17
100
AcDbEntity
  8
0
  6
Continuous
100
AcDbLine
 10
123.2615055000003
 20
-714.6257869999998
 30
0.0
 11
119.9033075000002
 21
-725.8904509999998
 31
0.0
  0
LINE
  5
82B
330
17
100
AcDbEntity
  8
0
  6
Continuous
100
AcDbLine
 10
157.5325255
 20
-620.3122269999998
 30
0.0
 11
153.3982825
 21
-630.1528069999998
 31
0.0
  0
LINE
  5
82C
330
17
100
AcDbEntity
  8
0
  6
Continuous
100
AcDbLine
 10
669.6457185000001
 20
-591.7345419999999
 30
0.0
 11
673.9859745000001
 21
-601.1050939999997
 31
0.0
  0
LINE
  5
82D
330
17
100
AcDbEntity
  8
0
  6
Continuous
100
AcDbLine
 10
174.7575415000001
 20
-582.5149979999999
 30
0.0
 11
170.3542815
 21
-591.7345419999999
 31
0.0
  0
LINE
  5
82E
330
17
100
AcDbEntity
  8
0
  6
Continuous
100
AcDbLine
 10
713.2832905
 20
-703.5131319999997
 30
0.0
 11
716.7384945000001
 21
-714.6257869999998
 31
0.0
  0
LINE
  5
82F
330
17
100
AcDbEntity
  8
0
  6
Continuous
100
AcDbLine
 10
726.5110704999999
 20
-748.8688059999998
 30
0.0
 11
729.5622504999998
 21
-760.5744959999998
 31
0.0
  0
LINE
  5
830
330
17
100
AcDbEntity
  8
0
  6
Continuous
100
AcDbLine
 10
99.31809350000003
 20
-808.7633369999998
 30
0.0
 11
96.82094650000022
 21
-821.1300659999999
 31
0.0
  0
LINE
  5
831
330
17
100
AcDbEntity
  8
0
  6
Continuous
100
AcDbLine
 10
716.7384945000001
 20
-714.6257869999998
 30
0.0
 11
720.0966925
 21
-725.8904509999998
 31
0.0
  0
LINE
  5
832
330
17
100
AcDbEntity
  8
0
  6
Continuous
100
AcDbLine
 10
694.6431924999999
 20
-650.3129959999998
 30
0.0
 11
698.5444225000001
 21
-660.6336039999998
 31
0.0
  0
LINE
  5
833
330
17
100
AcDbEntity
  8
0
  6
Continuous
100
AcDbLine
 10
690.6609575
 20
-640.1523969999998
 30
0.0
 11
694.6431924999999
 21
-650.3129959999998
 31
0.0
  0
LINE
  5
834
330
17
100
AcDbEntity
  8
0
  6
Continuous
100
AcDbLine
 10
149.3390425000002
 20
-640.1523969999998
 30
0.0
 11
145.3568075
 21
-650.3129959999998
 31
0.0
  0
LINE
  5
835
330
17
100
AcDbEntity
  8
0
  6
Continuous
100
AcDbLine
 10
732.5074245
 20
-772.4211949999999
 30
0.0
 11
735.3435915
 21
-784.4049009999999
 31
0.0
  0
LINE
  5
836
330
17
100
AcDbEntity
  8
0
  6
Continuous
100
AcDbLine
 10
141.4555775000001
 20
-660.6336039999998
 30
0.0
 11
137.6383525000003
 21
-671.1152219999998
 31
0.0
  0
LINE
  5
837
330
17
100
AcDbEntity
  8
0
  6
Continuous
100
AcDbLine
 10
166.0140255000001
 20
-601.1050939999997
 30
0.0
 11
161.7387734999999
 21
-610.6306559999998
 31
0.0
  0
LINE
  5
838
330
17
100
AcDbEntity
  8
0
  6
Continuous
100
AcDbLine
 10
104.6564085000002
 20
-784.4049009999999
 30
0.0
 11
101.9312474999999
 21
-796.5206149999999
 31
0.0
  0
LINE
  5
839
330
17
100
AcDbEntity
  8
0
  6
Continuous
100
AcDbLine
 10
760.2110574999999
 20
-937.1139039999999
 30
0.0
 11
761.4731325
 21
-950.4156889999999
 31
0.0
  0
LINE
  5
83A
330
17
100
AcDbEntity
  8
0
  6
Continuous
100
AcDbLine
 10
81.18002450000018
 20
-923.8791239999997
 30
0.0
 11
79.78894250000007
 21
-937.1139039999999
 31
0.0
  0
LINE
  5
83B
330
17
100
AcDbEntity
  8
0
  6
Continuous
100
AcDbLine
 10
698.5444225000001
 20
-660.6336039999998
 30
0.0
 11
702.3616475000001
 21
-671.1152219999998
 31
0.0
  0
LINE
  5
83C
330
17
100
AcDbEntity
  8
0
  6
Continuous
100
AcDbLine
 10
84.3452104999999
 20
-897.6335769999998
 30
0.0
 11
82.69911350000006
 21
-910.7163479999998
 31
0.0
  0
LINE
  5
83D
330
17
100
AcDbEntity
  8
0
  6
Continuous
100
AcDbLine
 10
113.4889295
 20
-748.8688059999998
 30
0.0
 11
110.4377495000001
 21
-760.5744959999998
 31
0.0
  0
LINE
  5
83E
330
17
100
AcDbEntity
  8
0
  6
Continuous
100
AcDbLine
 10
702.3616475000001
 20
-671.1152219999998
 30
0.0
 11
706.0918665000001
 21
-681.7568489999999
 31
0.0
  0
LINE
  5
83F
330
17
100
AcDbEntity
  8
0
  6
Continuous
100
AcDbLine
 10
153.3982825
 20
-630.1528069999998
 30
0.0
 11
149.3390425000002
 21
-640.1523969999998
 31
0.0
  0
LINE
  5
840
330
17
100
AcDbEntity
  8
0
  6
Continuous
100
AcDbLine
 10
758.8199755
 20
-923.8791239999997
 30
0.0
 11
760.2110574999999
 21
-937.1139039999999
 31
0.0
  0
LINE
  5
841
330
17
100
AcDbEntity
  8
0
  6
Continuous
100
AcDbLine
 10
82.69911350000006
 20
-910.7163479999998
 30
0.0
 11
81.18002450000018
 21
-923.8791239999997
 31
0.0
  0
LINE
  5
842
330
17
100
AcDbEntity
  8
0
  6
Continuous
100
AcDbLine
 10
751.9845725000002
 20
-871.7300499999998
 30
0.0
 11
753.8816845000001
 21
-884.6358099999998
 31
0.0
  0
LINE
  5
843
330
17
100
AcDbEntity
  8
0
  6
Continuous
100
AcDbLine
 10
101.9312474999999
 20
-796.5206149999999
 30
0.0
 11
99.31809350000003
 21
-808.7633369999998
 31
0.0
  0
LINE
  5
844
330
17
100
AcDbEntity
  8
0
  6
Continuous
100
AcDbLine
 10
90.03554650000001
 20
-858.9202939999998
 30
0.0
 11
88.01542750000022
 21
-871.7300499999998
 31
0.0
  0
LINE
  5
845
330
17
100
AcDbEntity
  8
0
  6
Continuous
100
AcDbLine
 10
92.1776725000002
 20
-846.2145449999997
 30
0.0
 11
90.03554650000001
 21
-858.9202939999998
 31
0.0
  0
LINE
  5
846
330
17
100
AcDbEntity
  8
0
  6
Continuous
100
AcDbLine
 10
735.3435915
 20
-784.4049009999999
 30
0.0
 11
738.0687525
 21
-796.5206149999999
 31
0.0
  0
LINE
  5
847
330
17
100
AcDbEntity
  8
0
  6
Continuous
100
AcDbLine
 10
179.2188045000002
 20
-573.4434639999998
 30
0.0
 11
174.7575415000001
 21
-582.5149979999999
 31
0.0
  0
LINE
  5
848
330
17
100
AcDbEntity
  8
0
  6
Continuous
100
AcDbLine
 10
94.43980650000003
 20
-833.6158019999997
 30
0.0
 11
92.1776725000002
 21
-846.2145449999997
 31
0.0
  0
LINE
  5
849
330
17
100
AcDbEntity
  8
0
  6
Continuous
100
AcDbLine
 10
743.1790535
 20
-821.1300659999999
 30
0.0
 11
745.5601935000002
 21
-833.6158019999997
 31
0.0
  0
LINE
  5
84A
330
17
100
AcDbEntity
  8
0
  6
Continuous
100
AcDbLine
 10
126.7167095000002
 20
-703.5131319999997
 30
0.0
 11
123.2615055000003
 21
-714.6257869999998
 31
0.0
  0
LINE
  5
84B
330
17
100
AcDbEntity
  8
0
  6
Continuous
100
AcDbLine
 10
686.6017174999999
 20
-630.1528069999998
 30
0.0
 11
690.6609575
 21
-640.1523969999998
 31
0.0
  0
LINE
  5
84C
330
17
100
AcDbEntity
  8
0
  6
Continuous
100
AcDbLine
 10
116.6451155000002
 20
-737.3061239999998
 30
0.0
 11
113.4889295
 21
-748.8688059999998
 31
0.0
  0
LINE
  5
84D
330
17
100
AcDbEntity
  8
0
  6
Continuous
100
AcDbLine
 10
130.2659184999999
 20
-692.5564859999998
 30
0.0
 11
126.7167095000002
 21
-703.5131319999997
 31
0.0
  0
LINE
  5
84E
330
17
100
AcDbEntity
  8
0
  6
Continuous
100
AcDbLine
 10
170.3542815
 20
-591.7345419999999
 30
0.0
 11
166.0140255000001
 21
-601.1050939999997
 31
0.0
  0
LINE
  5
84F
330
17
100
AcDbEntity
  8
0
  6
Continuous
100
AcDbLine
 10
665.2424585000001
 20
-582.5149979999999
 30
0.0
 11
669.6457185000001
 21
-591.7345419999999
 31
0.0
  0
LINE
  5
850
330
17
100
AcDbEntity
  8
0
  6
Continuous
100
AcDbLine
 10
738.0687525
 20
-796.5206149999999
 30
0.0
 11
740.6819065000002
 21
-808.7633369999998
 31
0.0
  0
LINE
  5
851
330
17
100
AcDbEntity
  8
0
  6
Continuous
100
AcDbLine
 10
280.4147705
 20
-404.0304759999998
 30
0.0
 11
275.5224825
 21
-411.9599429999998
 31
0.0
  0
LINE
  5
852
330
17
100
AcDbEntity
  8
0
  6
Continuous
100
AcDbLine
 10
554.7109425000001
 20
-395.9990019999998
 30
0.0
 11
559.5852295000002
 21
-404.0304759999998
 31
0.0
  0
LINE
  5
853
330
17
100
AcDbEntity
  8
0
  6
Continuous
100
AcDbLine
 10
290.1393435000002
 20
-387.8485219999998
 30
0.0
 11
285.2890575000001
 21
-395.9990019999998
 31
0.0
  0
LINE
  5
854
330
17
100
AcDbEntity
  8
0
  6
Continuous
100
AcDbLine
 10
294.9636284999998
 20
-379.5660329999998
 30
0.0
 11
290.1393435000002
 21
-387.8485219999998
 31
0.0
  0
LINE
  5
855
330
17
100
AcDbEntity
  8
0
  6
Continuous
100
AcDbLine
 10
299.7579105000001
 20
-371.1355359999998
 30
0.0
 11
294.9636284999998
 21
-379.5660329999998
 31
0.0
  0
LINE
  5
856
330
17
100
AcDbEntity
  8
0
  6
Continuous
100
AcDbLine
 10
313.9257465
 20
-344.8469859999998
 30
0.0
 11
309.2424705
 21
-353.7865129999998
 31
0.0
  0
LINE
  5
857
330
17
100
AcDbEntity
  8
0
  6
Continuous
100
AcDbLine
 10
535.4808085000001
 20
-362.5460299999998
 30
0.0
 11
540.2420895
 21
-371.1355359999998
 31
0.0
  0
LINE
  5
858
330
17
100
AcDbEntity
  8
0
  6
Continuous
100
AcDbLine
 10
309.2424705
 20
-353.7865129999998
 30
0.0
 11
304.5191915
 21
-362.5460299999998
 31
0.0
  0
LINE
  5
859
330
17
100
AcDbEntity
  8
0
  6
Continuous
100
AcDbLine
 10
526.0742535000002
 20
-344.8469859999998
 30
0.0
 11
530.7575294999999
 21
-353.7865129999998
 31
0.0
  0
LINE
  5
85A
330
17
100
AcDbEntity
  8
0
  6
Continuous
100
AcDbLine
 10
660.7811954999999
 20
-573.4434639999998
 30
0.0
 11
665.2424585000001
 21
-582.5149979999999
 31
0.0
  0
LINE
  5
85B
330
17
100
AcDbEntity
  8
0
  6
Continuous
100
AcDbLine
 10
183.7360705
 20
-564.5159369999999
 30
0.0
 11
179.2188045000002
 21
-573.4434639999998
 31
0.0
  0
LINE
  5
85C
330
17
100
AcDbEntity
  8
0
  6
Continuous
100
AcDbLine
 10
656.2639295000001
 20
-564.5159369999999
 30
0.0
 11
660.7811954999999
 21
-573.4434639999998
 31
0.0
  0
LINE
  5
85D
330
17
100
AcDbEntity
  8
0
  6
Continuous
100
AcDbLine
 10
207.0404445000001
 20
-521.8384209999998
 30
0.0
 11
202.2951645
 21
-530.1339099999998
 31
0.0
  0
LINE
  5
85E
330
17
100
AcDbEntity
  8
0
  6
Continuous
100
AcDbLine
 10
540.2420895
 20
-371.1355359999998
 30
0.0
 11
545.0363715
 21
-379.5660329999998
 31
0.0
  0
LINE
  5
85F
330
17
100
AcDbEntity
  8
0
  6
Continuous
100
AcDbLine
 10
221.4722955000002
 20
-497.5459889999998
 30
0.0
 11
216.6320105000002
 21
-505.5534609999998
 31
0.0
  0
LINE
  5
860
330
17
100
AcDbEntity
  8
0
  6
Continuous
100
AcDbLine
 10
188.3063405000002
 20
-555.7264189999998
 30
0.0
 11
183.7360705
 21
-564.5159369999999
 31
0.0
  0
LINE
  5
861
330
17
100
AcDbEntity
  8
0
  6
Continuous
100
AcDbLine
 10
651.6936594999999
 20
-555.7264189999998
 30
0.0
 11
656.2639295000001
 21
-564.5159369999999
 31
0.0
  0
LINE
  5
862
330
17
100
AcDbEntity
  8
0
  6
Continuous
100
AcDbLine
 10
192.9246125000002
 20
-547.0709089999997
 30
0.0
 11
188.3063405000002
 21
-555.7264189999998
 31
0.0
  0
LINE
  5
863
330
17
100
AcDbEntity
  8
0
  6
Continuous
100
AcDbLine
 10
647.0753875
 20
-547.0709089999997
 30
0.0
 11
651.6936594999999
 21
-555.7264189999998
 31
0.0
  0
LINE
  5
864
330
17
100
AcDbEntity
  8
0
  6
Continuous
100
AcDbLine
 10
197.5888875
 20
-538.5424059999998
 30
0.0
 11
192.9246125000002
 21
-547.0709089999997
 31
0.0
  0
LINE
  5
865
330
17
100
AcDbEntity
  8
0
  6
Continuous
100
AcDbLine
 10
275.5224825
 20
-411.9599429999998
 30
0.0
 11
270.6131925000001
 21
-419.8064059999998
 31
0.0
  0
LINE
  5
866
330
17
100
AcDbEntity
  8
0
  6
Continuous
100
AcDbLine
 10
642.4111125000002
 20
-538.5424059999998
 30
0.0
 11
647.0753875
 21
-547.0709089999997
 31
0.0
  0
LINE
  5
867
330
17
100
AcDbEntity
  8
0
  6
Continuous
100
AcDbLine
 10
202.2951645
 20
-530.1339099999998
 30
0.0
 11
197.5888875
 21
-538.5424059999998
 31
0.0
  0
LINE
  5
868
330
17
100
AcDbEntity
  8
0
  6
Continuous
100
AcDbLine
 10
623.3679895
 20
-505.5534609999998
 30
0.0
 11
628.1792735000001
 21
-513.6479379999998
 31
0.0
  0
LINE
  5
869
330
17
100
AcDbEntity
  8
0
  6
Continuous
100
AcDbLine
 10
236.1231595000001
 20
-473.9415969999998
 30
0.0
 11
231.2208705000002
 21
-481.7510579999998
 31
0.0
  0
LINE
  5
86A
330
17
100
AcDbEntity
  8
0
  6
Continuous
100
AcDbLine
 10
285.2890575000001
 20
-395.9990019999998
 30
0.0
 11
280.4147705
 21
-404.0304759999998
 31
0.0
  0
LINE
  5
86B
330
17
100
AcDbEntity
  8
0
  6
Continuous
100
AcDbLine
 10
332.1838224999999
 20
-307.1437629999998
 30
0.0
 11
327.6965585
 21
-316.8723369999998
 31
0.0
  0
LINE
  5
86C
330
17
100
AcDbEntity
  8
0
  6
Continuous
100
AcDbLine
 10
545.0363715
 20
-379.5660329999998
 30
0.0
 11
549.8606565000001
 21
-387.8485219999998
 31
0.0
  0
LINE
  5
86D
330
17
100
AcDbEntity
  8
0
  6
Continuous
100
AcDbLine
 10
512.3034414999999
 20
-316.8723369999998
 30
0.0
 11
516.8437095000001
 21
-326.3958989999999
 31
0.0
  0
LINE
  5
86E
330
17
100
AcDbEntity
  8
0
  6
Continuous
100
AcDbLine
 10
628.1792735000001
 20
-513.6479379999998
 30
0.0
 11
632.9595555
 21
-521.8384209999998
 31
0.0
  0
LINE
  5
86F
330
17
100
AcDbEntity
  8
0
  6
Continuous
100
AcDbLine
 10
594.0352605
 20
-458.4446839999998
 30
0.0
 11
598.9615504999999
 21
-466.1771399999998
 31
0.0
  0
LINE
  5
870
330
17
100
AcDbEntity
  8
0
  6
Continuous
100
AcDbLine
 10
589.1039695000001
 20
-450.7332289999998
 30
0.0
 11
594.0352605
 21
-458.4446839999998
 31
0.0
  0
LINE
  5
871
330
17
100
AcDbEntity
  8
0
  6
Continuous
100
AcDbLine
 10
530.7575294999999
 20
-353.7865129999998
 30
0.0
 11
535.4808085000001
 21
-362.5460299999998
 31
0.0
  0
LINE
  5
872
330
17
100
AcDbEntity
  8
0
  6
Continuous
100
AcDbLine
 10
637.7048354999999
 20
-530.1339099999998
 30
0.0
 11
642.4111125000002
 21
-538.5424059999998
 31
0.0
  0
LINE
  5
873
330
17
100
AcDbEntity
  8
0
  6
Continuous
100
AcDbLine
 10
632.9595555
 20
-521.8384209999998
 30
0.0
 11
637.7048354999999
 21
-530.1339099999998
 31
0.0
  0
LINE
  5
874
330
17
100
AcDbEntity
  8
0
  6
Continuous
100
AcDbLine
 10
618.5277045
 20
-497.5459889999998
 30
0.0
 11
623.3679895
 21
-505.5534609999998
 31
0.0
  0
LINE
  5
875
330
17
100
AcDbEntity
  8
0
  6
Continuous
100
AcDbLine
 10
304.5191915
 20
-362.5460299999998
 30
0.0
 11
299.7579105000001
 21
-371.1355359999998
 31
0.0
  0
LINE
  5
876
330
17
100
AcDbEntity
  8
0
  6
Continuous
100
AcDbLine
 10
564.4775175000002
 20
-411.9599429999998
 30
0.0
 11
569.3868075
 21
-419.8064059999998
 31
0.0
  0
LINE
  5
877
330
17
100
AcDbEntity
  8
0
  6
Continuous
100
AcDbLine
 10
211.8207265000003
 20
-513.6479379999998
 30
0.0
 11
207.0404445000001
 21
-521.8384209999998
 31
0.0
  0
LINE
  5
878
330
17
100
AcDbEntity
  8
0
  6
Continuous
100
AcDbLine
 10
216.6320105000002
 20
-505.5534609999998
 30
0.0
 11
211.8207265000003
 21
-513.6479379999998
 31
0.0
  0
LINE
  5
879
330
17
100
AcDbEntity
  8
0
  6
Continuous
100
AcDbLine
 10
226.3355825
 20
-489.6155209999998
 30
0.0
 11
221.4722955000002
 21
-497.5459889999998
 31
0.0
  0
LINE
  5
87A
330
17
100
AcDbEntity
  8
0
  6
Continuous
100
AcDbLine
 10
613.6644174999998
 20
-489.6155209999998
 30
0.0
 11
618.5277045
 21
-497.5459889999998
 31
0.0
  0
LINE
  5
87B
330
17
100
AcDbEntity
  8
0
  6
Continuous
100
AcDbLine
 10
260.7646125000001
 20
-435.3223199999998
 30
0.0
 11
255.8313215
 21
-443.0307749999998
 31
0.0
  0
LINE
  5
87C
330
17
100
AcDbEntity
  8
0
  6
Continuous
100
AcDbLine
 10
231.2208705000002
 20
-481.7510579999998
 30
0.0
 11
226.3355825
 21
-489.6155209999998
 31
0.0
  0
LINE
  5
87D
330
17
100
AcDbEntity
  8
0
  6
Continuous
100
AcDbLine
 10
603.8768405
 20
-473.9415969999998
 30
0.0
 11
608.7791294999999
 21
-481.7510579999998
 31
0.0
  0
LINE
  5
87E
330
17
100
AcDbEntity
  8
0
  6
Continuous
100
AcDbLine
 10
574.3070975000001
 20
-427.5868639999997
 30
0.0
 11
579.2353875000001
 21
-435.3223199999998
 31
0.0
  0
LINE
  5
87F
330
17
100
AcDbEntity
  8
0
  6
Continuous
100
AcDbLine
 10
521.4349804999999
 20
-335.7184479999998
 30
0.0
 11
526.0742535000002
 21
-344.8469859999998
 31
0.0
  0
LINE
  5
880
330
17
100
AcDbEntity
  8
0
  6
Continuous
100
AcDbLine
 10
569.3868075
 20
-419.8064059999998
 30
0.0
 11
574.3070975000001
 21
-427.5868639999997
 31
0.0
  0
LINE
  5
881
330
17
100
AcDbEntity
  8
0
  6
Continuous
100
AcDbLine
 10
549.8606565000001
 20
-387.8485219999998
 30
0.0
 11
554.7109425000001
 21
-395.9990019999998
 31
0.0
  0
LINE
  5
882
330
17
100
AcDbEntity
  8
0
  6
Continuous
100
AcDbLine
 10
323.1562905
 20
-326.3958989999999
 30
0.0
 11
318.5650195
 21
-335.7184479999998
 31
0.0
  0
LINE
  5
883
330
17
100
AcDbEntity
  8
0
  6
Continuous
100
AcDbLine
 10
516.8437095000001
 20
-326.3958989999999
 30
0.0
 11
521.4349804999999
 21
-335.7184479999998
 31
0.0
  0
LINE
  5
884
330
17
100
AcDbEntity
  8
0
  6
Continuous
100
AcDbLine
 10
255.8313215
 20
-443.0307749999998
 30
0.0
 11
250.8960305
 21
-450.7332289999998
 31
0.0
  0
LINE
  5
885
330
17
100
AcDbEntity
  8
0
  6
Continuous
100
AcDbLine
 10
608.7791294999999
 20
-481.7510579999998
 30
0.0
 11
613.6644174999998
 21
-489.6155209999998
 31
0.0
  0
LINE
  5
886
330
17
100
AcDbEntity
  8
0
  6
Continuous
100
AcDbLine
 10
241.0384495000002
 20
-466.1771399999998
 30
0.0
 11
236.1231595000001
 21
-473.9415969999998
 31
0.0
  0
LINE
  5
887
330
17
100
AcDbEntity
  8
0
  6
Continuous
100
AcDbLine
 10
318.5650195
 20
-335.7184479999998
 30
0.0
 11
313.9257465
 21
-344.8469859999998
 31
0.0
  0
LINE
  5
888
330
17
100
AcDbEntity
  8
0
  6
Continuous
100
AcDbLine
 10
598.9615504999999
 20
-466.1771399999998
 30
0.0
 11
603.8768405
 21
-473.9415969999998
 31
0.0
  0
LINE
  5
889
330
17
100
AcDbEntity
  8
0
  6
Continuous
100
AcDbLine
 10
250.8960305
 20
-450.7332289999998
 30
0.0
 11
245.9647394999999
 21
-458.4446839999998
 31
0.0
  0
LINE
  5
88A
330
17
100
AcDbEntity
  8
0
  6
Continuous
100
AcDbLine
 10
559.5852295000002
 20
-404.0304759999998
 30
0.0
 11
564.4775175000002
 21
-411.9599429999998
 31
0.0
  0
LINE
  5
88B
330
17
100
AcDbEntity
  8
0
  6
Continuous
100
AcDbLine
 10
245.9647394999999
 20
-458.4446839999998
 30
0.0
 11
241.0384495000002
 21
-466.1771399999998
 31
0.0
  0
LINE
  5
88C
330
17
100
AcDbEntity
  8
0
  6
Continuous
100
AcDbLine
 10
584.1686784999999
 20
-443.0307749999998
 30
0.0
 11
589.1039695000001
 21
-450.7332289999998
 31
0.0
  0
LINE
  5
88D
330
17
100
AcDbEntity
  8
0
  6
Continuous
100
AcDbLine
 10
579.2353875000001
 20
-435.3223199999998
 30
0.0
 11
584.1686784999999
 21
-443.0307749999998
 31
0.0
  0
LINE
  5
88E
330
17
100
AcDbEntity
  8
0
  6
Continuous
100
AcDbLine
 10
327.6965585
 20
-316.8723369999998
 30
0.0
 11
323.1562905
 21
-326.3958989999999
 31
0.0
  0
LINE
  5
88F
330
17
100
AcDbEntity
  8
0
  6
Continuous
100
AcDbLine
 10
265.6929025000001
 20
-427.5868639999997
 30
0.0
 11
260.7646125000001
 21
-435.3223199999998
 31
0.0
  0
LINE
  5
890
330
17
100
AcDbEntity
  8
0
  6
Continuous
100
AcDbLine
 10
270.6131925000001
 20
-419.8064059999998
 30
0.0
 11
265.6929025000001
 21
-427.5868639999997
 31
0.0
  0
LINE
  5
891
330
17
100
AcDbEntity
  8
0
  6
Continuous
100
AcDbLine
 10
455.8761155
 20
-162.0552099999998
 30
0.0
 11
459.3733214999999
 21
-174.366935
 31
0.0
  0
LINE
  5
892
330
17
100
AcDbEntity
  8
0
  6
Continuous
100
AcDbLine
 10
490.4791554999999
 20
-266.1433459999998
 30
0.0
 11
494.7154044999999
 21
-276.7079689999998
 31
0.0
  0
LINE
  5
893
330
17
100
AcDbEntity
  8
0
  6
Continuous
100
AcDbLine
 10
357.7793315000001
 20
-244.3880639999998
 30
0.0
 11
353.6870905
 21
-255.3697109999998
 31
0.0
  0
LINE
  5
894
330
17
100
AcDbEntity
  8
0
  6
Continuous
100
AcDbLine
 10
466.6437495
 20
-198.4643559999998
 30
0.0
 11
470.4129725
 21
-210.2370499999998
 31
0.0
  0
LINE
  5
895
330
17
100
AcDbEntity
  8
0
  6
Continuous
100
AcDbLine
 10
380.6266785
 20
-174.366935
 30
0.0
 11
377.0364675
 21
-186.5056509999998
 31
0.0
  0
LINE
  5
896
330
17
100
AcDbEntity
  8
0
  6
Continuous
100
AcDbLine
 10
353.6870905
 20
-255.3697109999998
 30
0.0
 11
349.5208445
 21
-266.1433459999998
 31
0.0
  0
LINE
  5
897
330
17
100
AcDbEntity
  8
0
  6
Continuous
100
AcDbLine
 10
482.2206685000001
 20
-244.3880639999998
 30
0.0
 11
486.3129095000001
 21
-255.3697109999998
 31
0.0
  0
LINE
  5
898
330
17
100
AcDbEntity
  8
0
  6
Continuous
100
AcDbLine
 10
507.8161775
 20
-307.1437629999998
 30
0.0
 11
512.3034414999999
 21
-316.8723369999998
 31
0.0
  0
LINE
  5
899
330
17
100
AcDbEntity
  8
0
  6
Continuous
100
AcDbLine
 10
494.7154044999999
 20
-276.7079689999998
 30
0.0
 11
499.0196585000001
 21
-287.0635799999998
 31
0.0
  0
LINE
  5
89A
330
17
100
AcDbEntity
  8
0
  6
Continuous
100
AcDbLine
 10
336.6120835000001
 20
-297.2081779999998
 30
0.0
 11
332.1838224999999
 21
-307.1437629999998
 31
0.0
  0
LINE
  5
89B
330
17
100
AcDbEntity
  8
0
  6
Continuous
100
AcDbLine
 10
503.3879165
 20
-297.2081779999998
 30
0.0
 11
507.8161775
 21
-307.1437629999998
 31
0.0
  0
LINE
  5
89C
330
17
100
AcDbEntity
  8
0
  6
Continuous
100
AcDbLine
 10
340.9803415000001
 20
-287.0635799999998
 30
0.0
 11
336.6120835000001
 21
-297.2081779999998
 31
0.0
  0
LINE
  5
89D
330
17
100
AcDbEntity
  8
0
  6
Continuous
100
AcDbLine
 10
369.5870274999999
 20
-210.2370499999998
 30
0.0
 11
365.7328005000001
 21
-221.8187329999998
 31
0.0
  0
LINE
  5
89E
330
17
100
AcDbEntity
  8
0
  6
Continuous
100
AcDbLine
 10
499.0196585000001
 20
-287.0635799999998
 30
0.0
 11
503.3879165
 21
-297.2081779999998
 31
0.0
  0
LINE
  5
89F
330
17
100
AcDbEntity
  8
0
  6
Continuous
100
AcDbLine
 10
373.3562505
 20
-198.4643559999998
 30
0.0
 11
369.5870274999999
 21
-210.2370499999998
 31
0.0
  0
LINE
  5
8A0
330
17
100
AcDbEntity
  8
0
  6
Continuous
100
AcDbLine
 10
349.5208445
 20
-266.1433459999998
 30
0.0
 11
345.2845955
 21
-276.7079689999998
 31
0.0
  0
LINE
  5
8A1
330
17
100
AcDbEntity
  8
0
  6
Continuous
100
AcDbLine
 10
486.3129095000001
 20
-255.3697109999998
 30
0.0
 11
490.4791554999999
 21
-266.1433459999998
 31
0.0
  0
LINE
  5
8A2
330
17
100
AcDbEntity
  8
0
  6
Continuous
100
AcDbLine
 10
361.7955684999999
 20
-233.2034039999998
 30
0.0
 11
357.7793315000001
 21
-244.3880639999998
 31
0.0
  0
LINE
  5
8A3
330
17
100
AcDbEntity
  8
0
  6
Continuous
100
AcDbLine
 10
462.9635325000001
 20
-186.5056509999998
 30
0.0
 11
466.6437495
 21
-198.4643559999998
 31
0.0
  0
LINE
  5
8A4
330
17
100
AcDbEntity
  8
0
  6
Continuous
100
AcDbLine
 10
478.2044315
 20
-233.2034039999998
 30
0.0
 11
482.2206685000001
 21
-244.3880639999998
 31
0.0
  0
LINE
  5
8A5
330
17
100
AcDbEntity
  8
0
  6
Continuous
100
AcDbLine
 10
365.7328005000001
 20
-221.8187329999998
 30
0.0
 11
361.7955684999999
 21
-233.2034039999998
 31
0.0
  0
LINE
  5
8A6
330
17
100
AcDbEntity
  8
0
  6
Continuous
100
AcDbLine
 10
459.3733214999999
 20
-174.366935
 30
0.0
 11
462.9635325000001
 21
-186.5056509999998
 31
0.0
  0
LINE
  5
8A7
330
17
100
AcDbEntity
  8
0
  6
Continuous
100
AcDbLine
 10
384.1238845
 20
-162.0552099999998
 30
0.0
 11
380.6266785
 21
-174.366935
 31
0.0
  0
LINE
  5
8A8
330
17
100
AcDbEntity
  8
0
  6
Continuous
100
AcDbLine
 10
474.2671995000001
 20
-221.8187329999998
 30
0.0
 11
478.2044315
 21
-233.2034039999998
 31
0.0
  0
LINE
  5
8A9
330
17
100
AcDbEntity
  8
0
  6
Continuous
100
AcDbLine
 10
470.4129725
 20
-210.2370499999998
 30
0.0
 11
474.2671995000001
 21
-221.8187329999998
 31
0.0
  0
LINE
  5
8AA
330
17
100
AcDbEntity
  8
0
  6
Continuous
100
AcDbLine
 10
377.0364675
 20
-186.5056509999998
 30
0.0
 11
373.3562505
 21
-198.4643559999998
 31
0.0
  0
LINE
  5
8AB
330
17
100
AcDbEntity
  8
0
  6
Continuous
100
AcDbLine
 10
345.2845955
 20
-276.7079689999998
 30
0.0
 11
340.9803415000001
 21
-287.0635799999998
 31
0.0
  0
VIEWPORT
  5
BE
330
1B
100
AcDbEntity
 67
     1
  8
VIEWPORTS
100
AcDbViewport
 10
115.9068387433537
 20
109.2557704800452
 30
0.0
 40
299.7064068004529
 41
373.9327598865463
 68
     1
 69
     1
 12
115.9068387433537
 22
109.2557704800452
 13
0.0
 23
0.0
 14
10.0
 24
10.0
 15
10.0
 25
10.0
 16
0.0
 26
0.0
 36
0.0
 17
0.0
 27
0.0
 37
0.0
 42
50.0
 43
0.0
 44
0.0
 45
373.9327598865463
 50
0.0
 51
0.0
 72
   100
 90
    32800
  1

281
     0
 71
     0
 74
     0
110
0.0
120
0.0
130
0.0
111
1.0
121
0.0
131
0.0
112
0.0
122
1.0
132
0.0
 79
     0
146
0.0
  0
VIEWPORT
  5
BF
330
1B
100
AcDbEntity
 67
     1
  8
VIEWPORTS
100
AcDbViewport
 10
105.0
 20
148.5
 30
0.0
 40
210.0
 41
297.0
 68
     2
 69
     2
 12
420.0
 22
-594.0
 13
0.0
 23
0.0
 14
10.0
 24
10.0
 15
10.0
 25
10.0
 16
0.0
 26
0.0
 36
0.0
 17
0.0
 27
0.0
 37
0.0
 42
50.0
 43
0.0
 44
0.0
 45
1188.0
 50
0.0
 51
0.0
 72
   100
 90
        0
  1

281
     0
 71
     0
 74
     0
110
0.0
120
0.0
130
0.0
111
1.0
121
0.0
131
0.0
112
0.0
122
1.0
132
0.0
 79
     0
146
0.0
  0
ENDSEC
  0
SECTION
  2
OBJECTS
  0
DICTIONARY
  5
A
330
0
100
AcDbDictionary
281
     1
  3
ACAD_COLOR
350
B
  3
ACAD_GROUP
350
C
  3
ACAD_LAYOUT
350
D
  3
ACAD_MATERIAL
350
E
  3
ACAD_MLEADERSTYLE
350
F
  3
ACAD_MLINESTYLE
350
10
  3
ACAD_PLOTSETTINGS
350
11
  3
ACAD_PLOTSTYLENAME
350
12
  3
ACAD_SCALELIST
350
14
  3
ACAD_TABLESTYLE
350
15
  3
ACAD_VISUALSTYLE
350
16
  3
AcDbVariableDictionary
350
8B2
  3
ADE_QUERY_LIBRARY
350
8B0
  3
ASE_INDEX_DICTIONARY
350
8AD
1001
ADE
1000
ADE02C004
1000
[Query]
1000
CaseSensitiveMatch=0
1000
SaveCurrQueryInSession=1
1000
MkSelSetWithQryObj=0
1000
ShowBlockAsInsPt=0
1000
CreateAssociativeHatchObjects=0
1000
ReferenceBoundaryForAreaLocation=1
1000
ShowImageAsBoundary=1
1000
DefaultJoinOperator=2
1000
ColorForAdd=red
1000
ColorForRemove=red
1000
BlockLocnForQuery=1
1000
TextLocnForQuery=1
1000
[Save Back]
1000
RedefineBlockDefinitions=1
1000
RedefineLayerDefinitions=1
1000
RedefineTextStyleDefinitions=1
1000
RemoveUnusedGroups=1
1000
EraseSavedBackObjects=1
1000
RemoveLockAfterSave=1
1000
CreateHistoryFileOfChanges=0
1000
CreateBackupFileOfSourceDwg=1
1000
DontAddObjectsToSaveSet=0
1000
MarkObjectsForEditingWithoutPrompting=0
1000
[Coordinate Transformation]
1000
RestoreLastActiveDwgsOnStartup=1
1000
ActivateDwgsOnAttach=1
1000
AdjustSizesAndScalesForChangesInUnits=1
1000
AdjustRotationsForMapDistortions=1
1000
AdjustSizesAndScalesForMapDistortions=1
1000
AdjustElevations=1
1000
AdjustZeroRotationObjects=1
1000
ReconnectDbOnWSOpen=1
1000
NoOfSQLConditionsInHistory=10
  0
DICTIONARY
  5
B
330
A
100
AcDbDictionary
281
     1
  0
DICTIONARY
  5
C
330
A
100
AcDbDictionary
281
     1
  0
DICTIONARY
  5
D
330
A
100
AcDbDictionary
281
     1
  3
Layout1
350
1E
  3
Model
350
1A
  3
Plan 1-1
350
C3
  3
Plan 1-2
350
C9
  3
Plan 1-3
350
CF
  3
Plan 1-4
350
D5
  3
Plan 2-1
350
DB
  3
Plan 2-2
350
E1
  3
Plan 2-3
350
E7
  3
Plan 2-4
350
ED
  3
Plan 3-1
350
F3
  3
Plan 3-2
350
F9
  3
Plan 3-3
350
FF
  3
Plan 3-4
350
105
  3
Plan 4-1
350
10B
  3
Plan 4-2
350
111
  3
Plan 4-3
350
117
  3
Plan 4-4
350
11D
  0
DICTIONARY
  5
E
330
A
100
AcDbDictionary
281
     1
  3
ByBlock
350
1F
  3
ByLayer
350
20
  3
Global
350
21
  0
DICTIONARY
  5
F
330
A
100
AcDbDictionary
281
     1
  3
Standard
350
2C
  0
DICTIONARY
  5
10
330
A
100
AcDbDictionary
281
     1
  3
Standard
350
22
  0
DICTIONARY
  5
11
330
A
100
AcDbDictionary
281
     1
  0
ACDBDICTIONARYWDFLT
  5
12
330
A
100
AcDbDictionary
281
     1
  3
Normal
350
13
100
AcDbDictionaryWithDefault
340
13
  0
DICTIONARY
  5
14
330
A
100
AcDbDictionary
281
     1
  0
DICTIONARY
  5
15
330
A
100
AcDbDictionary
281
     1
  0
DICTIONARY
  5
16
330
A
100
AcDbDictionary
281
     1
  0
DICTIONARY
  5
8B2
102
{ACAD_REACTORS
330
A
102
}
330
A
100
AcDbDictionary
281
     1
  3
DIMASSOC
350
8B3
  0
DICTIONARY
  5
8B0
102
{ACAD_REACTORS
330
A
102
}
330
A
100
AcDbDictionary
281
     1
  3
_CurrQry
350
8F9
  0
DICTIONARY
  5
8AD
102
{ACAD_REACTORS
330
A
102
}
330
A
100
AcDbDictionary
281
     1
  3
ASEBlockHierarchyIndexRecord
350
8AF
1001
DCO15
1040
2077450052.253
  0
LAYOUT
  5
1E
330
D
100
AcDbPlotSettings
  1

  2
DWG to PDF.pc3
  4
ezdxf_(210.00_x_297.00_MM)
  6

 40
0.0
 41
0.0
 42
0.0
 43
0.0
 44
210.0
 45
297.0
 46
0.0
 47
0.0
 48
0.0
 49
0.0
140
0.0
141
0.0
142
1.0
143
1.0
 70
     0
 72
     1
 73
     0
 74
     5
  7

 75
    16
147
1.0
148
0.0
149
0.0
100
AcDbLayout
  1
Layout1
 70
     1
 71
     1
 10
0.0
 20
0.0
 11
420.0
 21
297.0
 12
0.0
 22
0.0
 32
0.0
 14
0.0
 24
0.0
 34
0.0
 15
210.0
 25
297.0
 35
0.0
146
0.0
 13
0.0
 23
0.0
 33
0.0
 16
1.0
 26
0.0
 36
0.0
 17
0.0
 27
1.0
 37
0.0
 76
     0
330
1B
331
BE
  0
LAYOUT
  5
1A
330
D
100
AcDbPlotSettings
  1

  2
Adobe PDF
  4
A4
  6

 40
3.174999999999999
 41
3.174999999999999
 42
3.174999999999999
 43
3.174999999999999
 44
209.9099999999999
 45
297.0299999999999
 46
0.0
 47
0.0
 48
0.0
 49
0.0
140
0.0
141
0.0
142
1.0
143
1.0
 70
  1024
 72
     0
 73
     1
 74
     5
  7

 75
    16
147
1.0
148
0.0
149
0.0
100
AcDbLayout
  1
Model
 70
     1
 71
     0
 10
-3.174999999999999
 20
-3.174999999999999
 11
293.857
 21
206.735
 12
0.0
 22
0.0
 32
0.0
 14
29.068
 24
20.356
 34
0.0
 15
261.614
 25
183.204
 35
0.0
146
0.0
 13
0.0
 23
0.0
 33
0.0
 16
1.0
 26
0.0
 36
0.0
 17
0.0
 27
1.0
 37
0.0
 76
     1
330
17
  0
LAYOUT
  5
C3
330
D
100
AcDbPlotSettings
  1

  2
DWG to PDF.pc3
  4
ezdxf_(210.00_x_297.00_MM)
  6

 40
0.0
 41
0.0
 42
0.0
 43
0.0
 44
210.0
 45
297.0
 46
0.0
 47
0.0
 48
0.0
 49
0.0
140
0.0
141
0.0
142
1.0
143
1.0
 70
     0
 72
     1
 73
     0
 74
     5
  7

 75
    16
147
1.0
148
0.0
149
0.0
100
AcDbLayout
  1
Plan 1-1
 70
     1
 71
     2
 10
0.0
 20
0.0
 11
210.0
 21
297.0
 12
0.0
 22
0.0
 32
0.0
 14
0.0
 24
0.0
 34
0.0
 15
210.0
 25
297.0
 35
0.0
146
0.0
 13
0.0
 23
0.0
 33
0.0
 16
1.0
 26
0.0
 36
0.0
 17
0.0
 27
1.0
 37
0.0
 76
     0
330
C0
331
C4
  0
LAYOUT
  5
C9
330
D
100
AcDbPlotSettings
  1

  2
DWG to PDF.pc3
  4
ezdxf_(210.00_x_297.00_MM)
  6

 40
0.0
 41
0.0
 42
0.0
 43
0.0
 44
210.0
 45
297.0
 46
0.0
 47
0.0
 48
0.0
 49
0.0
140
0.0
141
0.0
142
1.0
143
1.0
 70
     0
 72
     1
 73
     0
 74
     5
  7

 75
    16
147
1.0
148
0.0
149
0.0
100
AcDbLayout
  1
Plan 1-2
 70
     1
 71
     3
 10
0.0
 20
0.0
 11
210.0
 21
297.0
 12
0.0
 22
0.0
 32
0.0
 14
0.0
 24
0.0
 34
0.0
 15
210.0
 25
297.0
 35
0.0
146
0.0
 13
0.0
 23
0.0
 33
0.0
 16
1.0
 26
0.0
 36
0.0
 17
0.0
 27
1.0
 37
0.0
 76
     0
330
C6
331
CA
  0
LAYOUT
  5
CF
330
D
100
AcDbPlotSettings
  1

  2
DWG to PDF.pc3
  4
ezdxf_(210.00_x_297.00_MM)
  6

 40
0.0
 41
0.0
 42
0.0
 43
0.0
 44
210.0
 45
297.0
 46
0.0
 47
0.0
 48
0.0
 49
0.0
140
0.0
141
0.0
142
1.0
143
1.0
 70
     0
 72
     1
 73
     0
 74
     5
  7

 75
    16
147
1.0
148
0.0
149
0.0
100
AcDbLayout
  1
Plan 1-3
 70
     1
 71
     4
 10
0.0
 20
0.0
 11
210.0
 21
297.0
 12
0.0
 22
0.0
 32
0.0
 14
0.0
 24
0.0
 34
0.0
 15
210.0
 25
297.0
 35
0.0
146
0.0
 13
0.0
 23
0.0
 33
0.0
 16
1.0
 26
0.0
 36
0.0
 17
0.0
 27
1.0
 37
0.0
 76
     0
330
CC
331
D0
  0
LAYOUT
  5
D5
330
D
100
AcDbPlotSettings
  1

  2
DWG to PDF.pc3
  4
ezdxf_(210.00_x_297.00_MM)
  6

 40
0.0
 41
0.0
 42
0.0
 43
0.0
 44
210.0
 45
297.0
 46
0.0
 47
0.0
 48
0.0
 49
0.0
140
0.0
141
0.0
142
1.0
143
1.0
 70
     0
 72
     1
 73
     0
 74
     5
  7

 75
    16
147
1.0
148
0.0
149
0.0
100
AcDbLayout
  1
Plan 1-4
 70
     1
 71
     5
 10
0.0
 20
0.0
 11
210.0
 21
297.0
 12
0.0
 22
0.0
 32
0.0
 14
0.0
 24
0.0
 34
0.0
 15
210.0
 25
297.0
 35
0.0
146
0.0
 13
0.0
 23
0.0
 33
0.0
 16
1.0
 26
0.0
 36
0.0
 17
0.0
 27
1.0
 37
0.0
 76
     0
330
D2
331
D6
  0
LAYOUT
  5
DB
330
D
100
AcDbPlotSettings
  1

  2
DWG to PDF.pc3
  4
ezdxf_(210.00_x_297.00_MM)
  6

 40
0.0
 41
0.0
 42
0.0
 43
0.0
 44
210.0
 45
297.0
 46
0.0
 47
0.0
 48
0.0
 49
0.0
140
0.0
141
0.0
142
1.0
143
1.0
 70
     0
 72
     1
 73
     0
 74
     5
  7

 75
    16
147
1.0
148
0.0
149
0.0
100
AcDbLayout
  1
Plan 2-1
 70
     1
 71
     6
 10
0.0
 20
0.0
 11
210.0
 21
297.0
 12
0.0
 22
0.0
 32
0.0
 14
0.0
 24
0.0
 34
0.0
 15
210.0
 25
297.0
 35
0.0
146
0.0
 13
0.0
 23
0.0
 33
0.0
 16
1.0
 26
0.0
 36
0.0
 17
0.0
 27
1.0
 37
0.0
 76
     0
330
D8
331
DC
  0
LAYOUT
  5
E1
330
D
100
AcDbPlotSettings
  1

  2
DWG to PDF.pc3
  4
ezdxf_(210.00_x_297.00_MM)
  6

 40
0.0
 41
0.0
 42
0.0
 43
0.0
 44
210.0
 45
297.0
 46
0.0
 47
0.0
 48
0.0
 49
0.0
140
0.0
141
0.0
142
1.0
143
1.0
 70
     0
 72
     1
 73
     0
 74
     5
  7

 75
    16
147
1.0
148
0.0
149
0.0
100
AcDbLayout
  1
Plan 2-2
 70
     1
 71
     7
 10
0.0
 20
0.0
 11
210.0
 21
297.0
 12
0.0
 22
0.0
 32
0.0
 14
0.0
 24
0.0
 34
0.0
 15
210.0
 25
297.0
 35
0.0
146
0.0
 13
0.0
 23
0.0
 33
0.0
 16
1.0
 26
0.0
 36
0.0
 17
0.0
 27
1.0
 37
0.0
 76
     0
330
DE
331
E2
  0
LAYOUT
  5
E7
330
D
100
AcDbPlotSettings
  1

  2
DWG to PDF.pc3
  4
ezdxf_(210.00_x_297.00_MM)
  6

 40
0.0
 41
0.0
 42
0.0
 43
0.0
 44
210.0
 45
297.0
 46
0.0
 47
0.0
 48
0.0
 49
0.0
140
0.0
141
0.0
142
1.0
143
1.0
 70
     0
 72
     1
 73
     0
 74
     5
  7

 75
    16
147
1.0
148
0.0
149
0.0
100
AcDbLayout
  1
Plan 2-3
 70
     1
 71
     8
 10
0.0
 20
0.0
 11
210.0
 21
297.0
 12
0.0
 22
0.0
 32
0.0
 14
0.0
 24
0.0
 34
0.0
 15
210.0
 25
297.0
 35
0.0
146
0.0
 13
0.0
 23
0.0
 33
0.0
 16
1.0
 26
0.0
 36
0.0
 17
0.0
 27
1.0
 37
0.0
 76
     0
330
E4
331
E8
  0
LAYOUT
  5
ED
330
D
100
AcDbPlotSettings
  1

  2
DWG to PDF.pc3
  4
ezdxf_(210.00_x_297.00_MM)
  6

 40
0.0
 41
0.0
 42
0.0
 43
0.0
 44
210.0
 45
297.0
 46
0.0
 47
0.0
 48
0.0
 49
0.0
140
0.0
141
0.0
142
1.0
143
1.0
 70
     0
 72
     1
 73
     0
 74
     5
  7

 75
    16
147
1.0
148
0.0
149
0.0
100
AcDbLayout
  1
Plan 2-4
 70
     1
 71
     9
 10
0.0
 20
0.0
 11
210.0
 21
297.0
 12
0.0
 22
0.0
 32
0.0
 14
0.0
 24
0.0
 34
0.0
 15
210.0
 25
297.0
 35
0.0
146
0.0
 13
0.0
 23
0.0
 33
0.0
 16
1.0
 26
0.0
 36
0.0
 17
0.0
 27
1.0
 37
0.0
 76
     0
330
EA
331
EE
  0
LAYOUT
  5
F3
330
D
100
AcDbPlotSettings
  1

  2
DWG to PDF.pc3
  4
ezdxf_(210.00_x_297.00_MM)
  6

 40
0.0
 41
0.0
 42
0.0
 43
0.0
 44
210.0
 45
297.0
 46
0.0
 47
0.0
 48
0.0
 49
0.0
140
0.0
141
0.0
142
1.0
143
1.0
 70
     0
 72
     1
 73
     0
 74
     5
  7

 75
    16
147
1.0
148
0.0
149
0.0
100
AcDbLayout
  1
Plan 3-1
 70
     1
 71
    10
 10
0.0
 20
0.0
 11
210.0
 21
297.0
 12
0.0
 22
0.0
 32
0.0
 14
0.0
 24
0.0
 34
0.0
 15
210.0
 25
297.0
 35
0.0
146
0.0
 13
0.0
 23
0.0
 33
0.0
 16
1.0
 26
0.0
 36
0.0
 17
0.0
 27
1.0
 37
0.0
 76
     0
330
F0
331
F4
  0
LAYOUT
  5
F9
330
D
100
AcDbPlotSettings
  1

  2
DWG to PDF.pc3
  4
ezdxf_(210.00_x_297.00_MM)
  6

 40
0.0
 41
0.0
 42
0.0
 43
0.0
 44
210.0
 45
297.0
 46
0.0
 47
0.0
 48
0.0
 49
0.0
140
0.0
141
0.0
142
1.0
143
1.0
 70
     0
 72
     1
 73
     0
 74
     5
  7

 75
    16
147
1.0
148
0.0
149
0.0
100
AcDbLayout
  1
Plan 3-2
 70
     1
 71
    11
 10
0.0
 20
0.0
 11
210.0
 21
297.0
 12
0.0
 22
0.0
 32
0.0
 14
0.0
 24
0.0
 34
0.0
 15
210.0
 25
297.0
 35
0.0
146
0.0
 13
0.0
 23
0.0
 33
0.0
 16
1.0
 26
0.0
 36
0.0
 17
0.0
 27
1.0
 37
0.0
 76
     0
330
F6
331
FA
  0
LAYOUT
  5
FF
330
D
100
AcDbPlotSettings
  1

  2
DWG to PDF.pc3
  4
ezdxf_(210.00_x_297.00_MM)
  6

 40
0.0
 41
0.0
 42
0.0
 43
0.0
 44
210.0
 45
297.0
 46
0.0
 47
0.0
 48
0.0
 49
0.0
140
0.0
141
0.0
142
1.0
143
1.0
 70
     0
 72
     1
 73
     0
 74
     5
  7

 75
    16
147
1.0
148
0.0
149
0.0
100
AcDbLayout
  1
Plan 3-3
 70
     1
 71
    12
 10
0.0
 20
0.0
 11
210.0
 21
297.0
 12
0.0
 22
0.0
 32
0.0
 14
0.0
 24
0.0
 34
0.0
 15
210.0
 25
297.0
 35
0.0
146
0.0
 13
0.0
 23
0.0
 33
0.0
 16
1.0
 26
0.0
 36
0.0
 17
0.0
 27
1.0
 37
0.0
 76
     0
330
FC
331
100
  0
LAYOUT
  5
105
330
D
100
AcDbPlotSettings
  1

  2
DWG to PDF.pc3
  4
ezdxf_(210.00_x_297.00_MM)
  6

 40
0.0
 41
0.0
 42
0.0
 43
0.0
 44
210.0
 45
297.0
 46
0.0
 47
0.0
 48
0.0
 49
0.0
140
0.0
141
0.0
142
1.0
143
1.0
 70
     0
 72
     1
 73
     0
 74
     5
  7

 75
    16
147
1.0
148
0.0
149
0.0
100
AcDbLayout
  1
Plan 3-4
 70
     1
 71
    13
 10
0.0
 20
0.0
 11
210.0
 21
297.0
 12
0.0
 22
0.0
 32
0.0
 14
0.0
 24
0.0
 34
0.0
 15
210.0
 25
297.0
 35
0.0
146
0.0
 13
0.0
 23
0.0
 33
0.0
 16
1.0
 26
0.0
 36
0.0
 17
0.0
 27
1.0
 37
0.0
 76
     0
330
102
331
106
  0
LAYOUT
  5
10B
330
D
100
AcDbPlotSettings
  1

  2
DWG to PDF.pc3
  4
ezdxf_(210.00_x_297.00_MM)
  6

 40
0.0
 41
0.0
 42
0.0
 43
0.0
 44
210.0
 45
297.0
 46
0.0
 47
0.0
 48
0.0
 49
0.0
140
0.0
141
0.0
142
1.0
143
1.0
 70
     0
 72
     1
 73
     0
 74
     5
  7

 75
    16
147
1.0
148
0.0
149
0.0
100
AcDbLayout
  1
Plan 4-1
 70
     1
 71
    14
 10
0.0
 20
0.0
 11
210.0
 21
297.0
 12
0.0
 22
0.0
 32
0.0
 14
0.0
 24
0.0
 34
0.0
 15
210.0
 25
297.0
 35
0.0
146
0.0
 13
0.0
 23
0.0
 33
0.0
 16
1.0
 26
0.0
 36
0.0
 17
0.0
 27
1.0
 37
0.0
 76
     0
330
108
331
10C
  0
LAYOUT
  5
111
330
D
100
AcDbPlotSettings
  1

  2
DWG to PDF.pc3
  4
ezdxf_(210.00_x_297.00_MM)
  6

 40
0.0
 41
0.0
 42
0.0
 43
0.0
 44
210.0
 45
297.0
 46
0.0
 47
0.0
 48
0.0
 49
0.0
140
0.0
141
0.0
142
1.0
143
1.0
 70
     0
 72
     1
 73
     0
 74
     5
  7

 75
    16
147
1.0
148
0.0
149
0.0
100
AcDbLayout
  1
Plan 4-2
 70
     1
 71
    15
 10
0.0
 20
0.0
 11
210.0
 21
297.0
 12
0.0
 22
0.0
 32
0.0
 14
0.0
 24
0.0
 34
0.0
 15
210.0
 25
297.0
 35
0.0
146
0.0
 13
0.0
 23
0.0
 33
0.0
 16
1.0
 26
0.0
 36
0.0
 17
0.0
 27
1.0
 37
0.0
 76
     0
330
10E
331
112
  0
LAYOUT
  5
117
330
D
100
AcDbPlotSettings
  1

  2
DWG to PDF.pc3
  4
ezdxf_(210.00_x_297.00_MM)
  6

 40
0.0
 41
0.0
 42
0.0
 43
0.0
 44
210.0
 45
297.0
 46
0.0
 47
0.0
 48
0.0
 49
0.0
140
0.0
141
0.0
142
1.0
143
1.0
 70
     0
 72
     1
 73
     0
 74
     5
  7

 75
    16
147
1.0
148
0.0
149
0.0
100
AcDbLayout
  1
Plan 4-3
 70
     1
 71
    16
 10
0.0
 20
0.0
 11
210.0
 21
297.0
 12
0.0
 22
0.0
 32
0.0
 14
0.0
 24
0.0
 34
0.0
 15
210.0
 25
297.0
 35
0.0
146
0.0
 13
0.0
 23
0.0
 33
0.0
 16
1.0
 26
0.0
 36
0.0
 17
0.0
 27
1.0
 37
0.0
 76
     0
330
114
331
118
  0
LAYOUT
  5
11D
330
D
100
AcDbPlotSettings
  1

  2
DWG to PDF.pc3
  4
ezdxf_(210.00_x_297.00_MM)
  6

 40
0.0
 41
0.0
 42
0.0
 43
0.0
 44
210.0
 45
297.0
 46
0.0
 47
0.0
 48
0.0
 49
0.0
140
0.0
141
0.0
142
1.0
143
1.0
 70
     0
 72
     1
 73
     0
 74
     5
  7

 75
    16
147
1.0
148
0.0
149
0.0
100
AcDbLayout
  1
Plan 4-4
 70
     1
 71
    17
 10
0.0
 20
0.0
 11
210.0
 21
297.0
 12
0.0
 22
0.0
 32
0.0
 14
0.0
 24
0.0
 34
0.0
 15
210.0
 25
297.0
 35
0.0
146
0.0
 13
0.0
 23
0.0
 33
0.0
 16
1.0
 26
0.0
 36
0.0
 17
0.0
 27
1.0
 37
0.0
 76
     0
330
11A
331
11E
  0
MATERIAL
  5
1F
102
{ACAD_REACTORS
330
E
102
}
330
E
100
AcDbMaterial
  1
ByBlock
  2

 70
     0
 40
1.0
 71
     1
 41
1.0
 91
-1023410177
 42
1.0
 72
     1
  3

 73
     1
 74
     1
 75
     1
 44
0.5
 73
     0
 45
1.0
 46
1.0
 77
     1
  4

 78
     1
 79
     1
170
     1
 48
1.0
171
     1
  6

172
     1
173
     1
174
     1
140
1.0
141
1.0
175
     1
  7

176
     1
177
     1
178
     1
143
1.0
179
     1
  8

270
     1
271
     1
272
     1
145
1.0
146
1.0
273
     1
  9

274
     1
275
     1
276
     1
 42
1.0
 72
     1
  3

 73
     1
 74
     1
 75
     1
 94
       63
  0
MATERIAL
  5
20
102
{ACAD_REACTORS
330
E
102
}
330
E
100
AcDbMaterial
  1
ByLayer
  2

 70
     0
 40
1.0
 71
     1
 41
1.0
 91
-1023410177
 42
1.0
 72
     1
  3

 73
     1
 74
     1
 75
     1
 44
0.5
 73
     0
 45
1.0
 46
1.0
 77
     1
  4

 78
     1
 79
     1
170
     1
 48
1.0
171
     1
  6

172
     1
173
     1
174
     1
140
1.0
141
1.0
175
     1
  7

176
     1
177
     1
178
     1
143
1.0
179
     1
  8

270
     1
271
     1
272
     1
145
1.0
146
1.0
273
     1
  9

274
     1
275
     1
276
     1
 42
1.0
 72
     1
  3

 73
     1
 74
     1
 75
     1
 94
       63
  0
MATERIAL
  5
21
102
{ACAD_REACTORS
330
E
102
}
330
E
100
AcDbMaterial
  1
Global
  2

 70
     0
 40
1.0
 71
     1
 41
1.0
 91
-1023410177
 42
1.0
 72
     1
  3

 73
     1
 74
     1
 75
     1
 44
0.5
 73
     0
 45
1.0
 46
1.0
 77
     1
  4

 78
     1
 79
     1
170
     1
 48
1.0
171
     1
  6

172
     1
173
     1
174
     1
140
1.0
141
1.0
175
     1
  7

176
     1
177
     1
178
     1
143
1.0
179
     1
  8

270
     1
271
     1
272
     1
145
1.0
146
1.0
273
     1
  9

274
     1
275
     1
276
     1
 42
1.0
 72
     1
  3

 73
     1
 74
     1
 75
     1
 94
       63
  0
MLEADERSTYLE
  5
2C
102
{ACAD_REACTORS
330
F
102
}
330
F
100
AcDbMLeaderStyle
179
     2
170
     2
171
     1
172
     0
 90
        2
 40
0.0
 41
0.0
173
     1
 91
-1056964608
 92
       -2
290
     1
 42
2.0
291
     1
 43
8.0
  3
Standard
 44
4.0
300

342
29
174
     1
175
     1
176
     0
178
     1
 93
-1056964608
 45
4.0
292
     0
297
     0
 46
4.0
 94
-1056964608
 47
1.0
 49
0.0
140
1.0
294
     1
141
0.0
177
     0
142
1.0
295
     0
296
     0
143
3.75
271
     0
272
     9
272
     9
  0
MLINESTYLE
  5
22
102
{ACAD_REACTORS
330
10
102
}
330
10
100
AcDbMlineStyle
  2
STANDARD
 70
     0
  3

 62
   256
 51
90.0
 52
90.0
 71
     2
 49
0.5
 62
   256
  6
BYLAYER
 49
-0.5
 62
   256
  6
BYLAYER
  0
ACDBPLACEHOLDER
  5
13
330
12
  0
DICTIONARYVAR
  5
8B3
102
{ACAD_REACTORS
330
8B2
102
}
330
8B2
100
DictionaryVariables
280
     0
  1
1
  0
XRECORD
  5
8F9
102
{ACAD_REACTORS
330
8B0
102
}
330
8B0
100
AcDbXrecord
280
     1
1000
ADE02C001
1070
     1
1070
     0
1002
{
1002
}
1002
{
1002
}
1002
{
1002
}
1000

  0
XRECORD
  5
8AF
102
{ACAD_REACTORS
330
8AD
102
}
330
8AD
100
AcDbXrecord
280
     1
  0
ENDSEC
  0
EOF
