0
SECTION
2
HEADER
9
$EXTMAX
10
    -670.000
20
   -3630.000
9
$EXTMIN
10
    7000.000
20
     120.000
0
ENDSEC
0
SECTION
2
ENTITIES
0
LINE
8
default
6
CONTINUOUS
10
         0.000
20
         0.000
30
        16.000
11
         0.486
21
         0.201
31
        17.344
39
 0
62
 3
 0
LINE
8
default
6
CONTINUOUS
10
         0.486
20
         0.201
30
        17.344
11
         1.000
21
         0.414
31
        18.677
39
 0
62
 3
 0
LINE
8
default
6
CONTINUOUS
10
         1.000
20
         0.414
30
        18.677
11
         1.543
21
         0.639
31
        19.998
39
 0
62
 3
 0
LINE
8
default
6
CONTINUOUS
10
         1.543
20
         0.639
30
        19.998
11
         2.113
21
         0.875
31
        21.305
39
 0
62
 3
 0
LINE
8
default
6
CONTINUOUS
10
         2.113
20
         0.875
30
        21.305
11
         2.710
21
         1.123
31
        22.597
39
 0
62
 3
 0
LINE
8
default
6
CONTINUOUS
10
         2.710
20
         1.123
30
        22.597
11
         3.334
21
         1.381
31
        23.873
39
 0
62
 3
 0
LINE
8
default
6
CONTINUOUS
10
         3.334
20
         1.381
30
        23.873
11
         3.984
21
         1.650
31
        25.131
39
 0
62
 3
 0
LINE
8
default
6
CONTINUOUS
10
         3.984
20
         1.650
30
        25.131
11
         4.660
21
         1.930
31
        26.371
39
 0
62
 3
 0
LINE
8
default
6
CONTINUOUS
10
         4.660
20
         1.930
30
        26.371
11
         5.361
21
         2.221
31
        27.592
39
 0
62
 3
 0
LINE
8
default
6
CONTINUOUS
10
         5.361
20
         2.221
30
        27.592
11
         6.087
21
         2.521
31
        28.791
39
 0
62
 3
 0
LINE
8
default
6
CONTINUOUS
10
         6.087
20
         2.521
30
        28.791
11
         6.838
21
         2.832
31
        29.968
39
 0
62
 3
 0
LINE
8
default
6
CONTINUOUS
10
         6.838
20
         2.832
30
        29.968
11
         7.612
21
         3.153
31
        31.122
39
 0
62
 3
 0
LINE
8
default
6
CONTINUOUS
10
         7.612
20
         3.153
30
        31.122
11
         8.409
21
         3.483
31
        32.251
39
 0
62
 3
 0
LINE
8
default
6
CONTINUOUS
10
         8.409
20
         3.483
30
        32.251
11
         9.228
21
         3.822
31
        33.355
39
 0
62
 3
 0
LINE
8
default
6
CONTINUOUS
10
         9.228
20
         3.822
30
        33.355
11
        10.070
21
         4.171
31
        34.431
39
 0
62
 3
 0
LINE
8
default
6
CONTINUOUS
10
        10.070
20
         4.171
30
        34.431
11
        10.932
21
         4.528
31
        35.480
39
 0
62
 3
 0
LINE
8
default
6
CONTINUOUS
10
        10.932
20
         4.528
30
        35.480
11
        11.816
21
         4.894
31
        36.500
39
 0
62
 3
 0
LINE
8
default
6
CONTINUOUS
10
        11.816
20
         4.894
30
        36.500
11
        12.719
21
         5.268
31
        37.489
39
 0
62
 3
 0
LINE
8
default
6
CONTINUOUS
10
        12.719
20
         5.268
30
        37.489
11
        13.642
21
         5.651
31
        38.448
39
 0
62
 3
 0
LINE
8
default
6
CONTINUOUS
10
        13.642
20
         5.651
30
        38.448
11
        14.583
21
         6.040
31
        39.374
39
 0
62
 3
 0
LINE
8
default
6
CONTINUOUS
10
        14.583
20
         6.040
30
        39.374
11
        15.542
21
         6.438
31
        40.267
39
 0
62
 3
 0
LINE
8
default
6
CONTINUOUS
10
        15.542
20
         6.438
30
        40.267
11
        16.519
21
         6.842
31
        41.126
39
 0
62
 3
 0
LINE
8
default
6
CONTINUOUS
10
        16.519
20
         6.842
30
        41.126
11
        17.512
21
         7.254
31
        41.950
39
 0
62
 3
 0
LINE
8
default
6
CONTINUOUS
10
        17.512
20
         7.254
30
        41.950
11
        18.520
21
         7.671
31
        42.738
39
 0
62
 3
 0
LINE
8
default
6
CONTINUOUS
10
        18.520
20
         7.671
30
        42.738
11
        19.544
21
         8.095
31
        43.489
39
 0
62
 3
 0
LINE
8
default
6
CONTINUOUS
10
        19.544
20
         8.095
30
        43.489
11
        20.582
21
         8.525
31
        44.203
39
 0
62
 3
 0
LINE
8
default
6
CONTINUOUS
10
        20.582
20
         8.525
30
        44.203
11
        21.634
21
         8.961
31
        44.878
39
 0
62
 3
 0
LINE
8
default
6
CONTINUOUS
10
        21.634
20
         8.961
30
        44.878
11
        22.698
21
         9.402
31
        45.514
39
 0
62
 3
 0
LINE
8
default
6
CONTINUOUS
10
        22.698
20
         9.402
30
        45.514
11
        23.774
21
         9.847
31
        46.110
39
 0
62
 3
 0
LINE
8
default
6
CONTINUOUS
10
        23.774
20
         9.847
30
        46.110
11
        24.861
21
        10.298
31
        46.666
39
 0
62
 3
 0
LINE
8
default
6
CONTINUOUS
10
        24.861
20
        10.298
30
        46.666
11
        25.959
21
        10.753
31
        47.180
39
 0
62
 3
 0
LINE
8
default
6
CONTINUOUS
10
        25.959
20
        10.753
30
        47.180
11
        27.066
21
        11.211
31
        47.653
39
 0
62
 3
 0
LINE
8
default
6
CONTINUOUS
10
        27.066
20
        11.211
30
        47.653
11
        28.182
21
        11.673
31
        48.084
39
 0
62
 3
 0
LINE
8
default
6
CONTINUOUS
10
        28.182
20
        11.673
30
        48.084
11
        29.305
21
        12.139
31
        48.472
39
 0
62
 3
 0
LINE
8
default
6
CONTINUOUS
10
        29.305
20
        12.139
30
        48.472
11
        30.436
21
        12.607
31
        48.817
39
 0
62
 3
 0
LINE
8
default
6
CONTINUOUS
10
        30.436
20
        12.607
30
        48.817
11
        31.573
21
        13.078
31
        49.119
39
 0
62
 3
 0
LINE
8
default
6
CONTINUOUS
10
        31.573
20
        13.078
30
        49.119
11
        32.715
21
        13.551
31
        49.376
39
 0
62
 3
 0
LINE
8
default
6
CONTINUOUS
10
        32.715
20
        13.551
30
        49.376
11
        33.862
21
        14.026
31
        49.590
39
 0
62
 3
 0
LINE
8
default
6
CONTINUOUS
10
        33.862
20
        14.026
30
        49.590
11
        35.013
21
        14.503
31
        49.759
39
 0
62
 3
 0
LINE
8
default
6
CONTINUOUS
10
        35.013
20
        14.503
30
        49.759
11
        36.166
21
        14.980
31
        49.883
39
 0
62
 3
 0
LINE
8
default
6
CONTINUOUS
10
        36.166
20
        14.980
30
        49.883
11
        37.321
21
        15.459
31
        49.963
39
 0
62
 3
 0
LINE
8
default
6
CONTINUOUS
10
        37.321
20
        15.459
30
        49.963
11
        38.477
21
        15.938
31
        49.998
39
 0
62
 3
 0
LINE
8
default
6
CONTINUOUS
10
        38.477
20
        15.938
30
        49.998
11
        39.634
21
        16.417
31
        49.990
39
 0
62
 3
 0
LINE
8
default
6
CONTINUOUS
10
        39.634
20
        16.417
30
        49.990
11
        40.790
21
        16.896
31
        49.945
39
 0
62
 3
 0
LINE
8
default
6
CONTINUOUS
10
        40.790
20
        16.896
30
        49.945
11
        41.944
21
        17.374
31
        49.863
39
 0
62
 3
 0
LINE
8
default
6
CONTINUOUS
10
        41.944
20
        17.374
30
        49.863
11
        43.096
21
        17.851
31
        49.744
39
 0
62
 3
 0
LINE
8
default
6
CONTINUOUS
10
        43.096
20
        17.851
30
        49.744
11
        44.245
21
        18.327
31
        49.588
39
 0
62
 3
 0
LINE
8
default
6
CONTINUOUS
10
        44.245
20
        18.327
30
        49.588
11
        45.390
21
        18.801
31
        49.396
39
 0
62
 3
 0
LINE
8
default
6
CONTINUOUS
10
        45.390
20
        18.801
30
        49.396
11
        46.530
21
        19.273
31
        49.167
39
 0
62
 3
 0
LINE
8
default
6
CONTINUOUS
10
        46.530
20
        19.273
30
        49.167
11
        47.664
21
        19.743
31
        48.901
39
 0
62
 3
 0
LINE
8
default
6
CONTINUOUS
10
        47.664
20
        19.743
30
        48.901
11
        48.792
21
        20.210
31
        48.599
39
 0
62
 3
 0
LINE
8
default
6
CONTINUOUS
10
        48.792
20
        20.210
30
        48.599
11
        49.913
21
        20.674
31
        48.261
39
 0
62
 3
 0
LINE
8
default
6
CONTINUOUS
10
        49.913
20
        20.674
30
        48.261
11
        51.025
21
        21.135
31
        47.888
39
 0
62
 3
 0
LINE
8
default
6
CONTINUOUS
10
        51.025
20
        21.135
30
        47.888
11
        52.128
21
        21.592
31
        47.479
39
 0
62
 3
 0
LINE
8
default
6
CONTINUOUS
10
        52.128
20
        21.592
30
        47.479
11
        53.221
21
        22.045
31
        47.035
39
 0
62
 3
 0
LINE
8
default
6
CONTINUOUS
10
        53.221
20
        22.045
30
        47.035
11
        54.303
21
        22.493
31
        46.556
39
 0
62
 3
 0
LINE
8
default
6
CONTINUOUS
10
        54.303
20
        22.493
30
        46.556
11
        55.375
21
        22.937
31
        46.042
39
 0
62
 3
 0
LINE
8
default
6
CONTINUOUS
10
        55.375
20
        22.937
30
        46.042
11
        56.433
21
        23.375
31
        45.495
39
 0
62
 3
 0
LINE
8
default
6
CONTINUOUS
10
        56.433
20
        23.375
30
        45.495
11
        57.479
21
        23.809
31
        44.913
39
 0
62
 3
 0
LINE
8
default
6
CONTINUOUS
10
        57.479
20
        23.809
30
        44.913
11
        58.511
21
        24.236
31
        44.299
39
 0
62
 3
 0
LINE
8
default
6
CONTINUOUS
10
        58.511
20
        24.236
30
        44.299
11
        59.528
21
        24.657
31
        43.651
39
 0
62
 3
 0
LINE
8
default
6
CONTINUOUS
10
        59.528
20
        24.657
30
        43.651
11
        60.530
21
        25.072
31
        42.972
39
 0
62
 3
 0
LINE
8
default
6
CONTINUOUS
10
        60.530
20
        25.072
30
        42.972
11
        61.516
21
        25.481
31
        42.260
39
 0
62
 3
 0
LINE
8
default
6
CONTINUOUS
10
        61.516
20
        25.481
30
        42.260
11
        62.485
21
        25.882
31
        41.517
39
 0
62
 3
 0
LINE
8
default
6
CONTINUOUS
10
        62.485
20
        25.882
30
        41.517
11
        63.436
21
        26.276
31
        40.744
39
 0
62
 3
 0
LINE
8
default
6
CONTINUOUS
10
        63.436
20
        26.276
30
        40.744
11
        64.370
21
        26.663
31
        39.940
39
 0
62
 3
 0
LINE
8
default
6
CONTINUOUS
10
        64.370
20
        26.663
30
        39.940
11
        65.284
21
        27.042
31
        39.107
39
 0
62
 3
 0
LINE
8
default
6
CONTINUOUS
10
        65.284
20
        27.042
30
        39.107
11
        66.179
21
        27.412
31
        38.245
39
 0
62
 3
 0
LINE
8
default
6
CONTINUOUS
10
        66.179
20
        27.412
30
        38.245
11
        67.053
21
        27.774
31
        37.354
39
 0
62
 3
 0
LINE
8
default
6
CONTINUOUS
10
        67.053
20
        27.774
30
        37.354
11
        67.907
21
        28.128
31
        36.436
39
 0
62
 3
 0
LINE
8
default
6
CONTINUOUS
10
        67.907
20
        28.128
30
        36.436
11
        68.739
21
        28.472
31
        35.491
39
 0
62
 3
 0
LINE
8
default
6
CONTINUOUS
10
        68.739
20
        28.472
30
        35.491
11
        69.548
21
        28.808
31
        34.519
39
 0
62
 3
 0
LINE
8
default
6
CONTINUOUS
10
        69.548
20
        28.808
30
        34.519
11
        70.335
21
        29.134
31
        33.522
39
 0
62
 3
 0
LINE
8
default
6
CONTINUOUS
10
        70.335
20
        29.134
30
        33.522
11
        71.099
21
        29.450
31
        32.500
39
 0
62
 3
 0
LINE
8
default
6
CONTINUOUS
10
        71.099
20
        29.450
30
        32.500
11
        71.839
21
        29.757
31
        31.454
39
 0
62
 3
 0
LINE
8
default
6
CONTINUOUS
10
        71.839
20
        29.757
30
        31.454
11
        72.554
21
        30.053
31
        30.385
39
 0
62
 3
 0
LINE
8
default
6
CONTINUOUS
10
        72.554
20
        30.053
30
        30.385
11
        73.244
21
        30.339
31
        29.293
39
 0
62
 3
 0
LINE
8
default
6
CONTINUOUS
10
        73.244
20
        30.339
30
        29.293
11
        73.909
21
        30.614
31
        28.180
39
 0
62
 3
 0
LINE
8
default
6
CONTINUOUS
10
        73.909
20
        30.614
30
        28.180
11
        74.548
21
        30.879
31
        27.045
39
 0
62
 3
 0
LINE
8
default
6
CONTINUOUS
10
        74.548
20
        30.879
30
        27.045
11
        75.160
21
        31.132
31
        25.891
39
 0
62
 3
 0
LINE
8
default
6
CONTINUOUS
10
        75.160
20
        31.132
30
        25.891
11
        75.745
21
        31.375
31
        24.717
39
 0
62
 3
 0
LINE
8
default
6
CONTINUOUS
10
        75.745
20
        31.375
30
        24.717
11
        76.303
21
        31.606
31
        23.525
39
 0
62
 3
 0
LINE
8
default
6
CONTINUOUS
10
        76.303
20
        31.606
30
        23.525
11
        76.834
21
        31.826
31
        22.316
39
 0
62
 3
 0
LINE
8
default
6
CONTINUOUS
10
        76.834
20
        31.826
30
        22.316
11
        77.336
21
        32.033
31
        21.090
39
 0
62
 3
 0
LINE
8
default
6
CONTINUOUS
10
        77.336
20
        32.033
30
        21.090
11
        77.809
21
        32.230
31
        19.849
39
 0
62
 3
 0
LINE
8
default
6
CONTINUOUS
10
        77.809
20
        32.230
30
        19.849
11
        78.254
21
        32.414
31
        18.593
39
 0
62
 3
 0
LINE
8
default
6
CONTINUOUS
10
        78.254
20
        32.414
30
        18.593
11
        78.669
21
        32.586
31
        17.323
39
 0
62
 3
 0
LINE
8
default
6
CONTINUOUS
10
        78.669
20
        32.586
30
        17.323
11
        79.055
21
        32.746
31
        16.040
39
 0
62
 3
 0
LINE
8
default
6
CONTINUOUS
10
        79.055
20
        32.746
30
        16.040
11
        79.411
21
        32.893
31
        14.746
39
 0
62
 3
 0
LINE
8
default
6
CONTINUOUS
10
        79.411
20
        32.893
30
        14.746
11
        79.737
21
        33.028
31
        13.440
39
 0
62
 3
 0
LINE
8
default
6
CONTINUOUS
10
        79.737
20
        33.028
30
        13.440
11
        80.033
21
        33.151
31
        12.125
39
 0
62
 3
 0
LINE
8
default
6
CONTINUOUS
10
        80.033
20
        33.151
30
        12.125
11
        80.298
21
        33.261
31
        10.800
39
 0
62
 3
 0
LINE
8
default
6
CONTINUOUS
10
        80.298
20
        33.261
30
        10.800
11
        80.533
21
        33.358
31
         9.468
39
 0
62
 3
 0
LINE
8
default
6
CONTINUOUS
10
        80.533
20
        33.358
30
         9.468
11
        80.736
21
        33.442
31
         8.128
39
 0
62
 3
 0
LINE
8
default
6
CONTINUOUS
10
        80.736
20
        33.442
30
         8.128
11
        80.909
21
        33.513
31
         6.783
39
 0
62
 3
 0
LINE
8
default
6
CONTINUOUS
10
        80.909
20
        33.513
30
         6.783
11
        81.050
21
        33.572
31
         5.432
39
 0
62
 3
 0
LINE
8
default
6
CONTINUOUS
10
        81.050
20
        33.572
30
         5.432
11
        81.160
21
        33.618
31
         4.078
39
 0
62
 3
 0
LINE
8
default
6
CONTINUOUS
10
        81.160
20
        33.618
30
         4.078
11
        81.238
21
        33.650
31
         2.720
39
 0
62
 3
 0
LINE
8
default
6
CONTINUOUS
10
        81.238
20
        33.650
30
         2.720
11
        81.286
21
        33.670
31
         1.361
39
 0
62
 3
 0
LINE
8
default
6
CONTINUOUS
10
        81.286
20
        33.670
30
         1.361
11
        81.301
21
        33.676
31
        -0.000
39
 0
62
 3
 0
LINE
8
default
6
CONTINUOUS
10
         0.000
20
         0.000
30
        16.000
11
         0.201
21
         0.486
31
        17.344
39
 0
62
 3
 0
LINE
8
default
6
CONTINUOUS
10
         0.201
20
         0.486
30
        17.344
11
         0.414
21
         1.000
31
        18.677
39
 0
62
 3
 0
LINE
8
default
6
CONTINUOUS
10
         0.414
20
         1.000
30
        18.677
11
         0.639
21
         1.543
31
        19.998
39
 0
62
 3
 0
LINE
8
default
6
CONTINUOUS
10
         0.639
20
         1.543
30
        19.998
11
         0.875
21
         2.113
31
        21.305
39
 0
62
 3
 0
LINE
8
default
6
CONTINUOUS
10
         0.875
20
         2.113
30
        21.305
11
         1.123
21
         2.710
31
        22.597
39
 0
62
 3
 0
LINE
8
default
6
CONTINUOUS
10
         1.123
20
         2.710
30
        22.597
11
         1.381
21
         3.334
31
        23.873
39
 0
62
 3
 0
LINE
8
default
6
CONTINUOUS
10
         1.381
20
         3.334
30
        23.873
11
         1.650
21
         3.984
31
        25.131
39
 0
62
 3
 0
LINE
8
default
6
CONTINUOUS
10
         1.650
20
         3.984
30
        25.131
11
         1.930
21
         4.660
31
        26.371
39
 0
62
 3
 0
LINE
8
default
6
CONTINUOUS
10
         1.930
20
         4.660
30
        26.371
11
         2.221
21
         5.361
31
        27.592
39
 0
62
 3
 0
LINE
8
default
6
CONTINUOUS
10
         2.221
20
         5.361
30
        27.592
11
         2.521
21
         6.087
31
        28.791
39
 0
62
 3
 0
LINE
8
default
6
CONTINUOUS
10
         2.521
20
         6.087
30
        28.791
11
         2.832
21
         6.838
31
        29.968
39
 0
62
 3
 0
LINE
8
default
6
CONTINUOUS
10
         2.832
20
         6.838
30
        29.968
11
         3.153
21
         7.612
31
        31.122
39
 0
62
 3
 0
LINE
8
default
6
CONTINUOUS
10
         3.153
20
         7.612
30
        31.122
11
         3.483
21
         8.409
31
        32.251
39
 0
62
 3
 0
LINE
8
default
6
CONTINUOUS
10
         3.483
20
         8.409
30
        32.251
11
         3.822
21
         9.228
31
        33.355
39
 0
62
 3
 0
LINE
8
default
6
CONTINUOUS
10
         3.822
20
         9.228
30
        33.355
11
         4.171
21
        10.070
31
        34.431
39
 0
62
 3
 0
LINE
8
default
6
CONTINUOUS
10
         4.171
20
        10.070
30
        34.431
11
         4.528
21
        10.932
31
        35.480
39
 0
62
 3
 0
LINE
8
default
6
CONTINUOUS
10
         4.528
20
        10.932
30
        35.480
11
         4.894
21
        11.816
31
        36.500
39
 0
62
 3
 0
LINE
8
default
6
CONTINUOUS
10
         4.894
20
        11.816
30
        36.500
11
         5.268
21
        12.719
31
        37.489
39
 0
62
 3
 0
LINE
8
default
6
CONTINUOUS
10
         5.268
20
        12.719
30
        37.489
11
         5.651
21
        13.642
31
        38.448
39
 0
62
 3
 0
LINE
8
default
6
CONTINUOUS
10
         5.651
20
        13.642
30
        38.448
11
         6.040
21
        14.583
31
        39.374
39
 0
62
 3
 0
LINE
8
default
6
CONTINUOUS
10
         6.040
20
        14.583
30
        39.374
11
         6.438
21
        15.542
31
        40.267
39
 0
62
 3
 0
LINE
8
default
6
CONTINUOUS
10
         6.438
20
        15.542
30
        40.267
11
         6.842
21
        16.519
31
        41.126
39
 0
62
 3
 0
LINE
8
default
6
CONTINUOUS
10
         6.842
20
        16.519
30
        41.126
11
         7.254
21
        17.512
31
        41.950
39
 0
62
 3
 0
LINE
8
default
6
CONTINUOUS
10
         7.254
20
        17.512
30
        41.950
11
         7.671
21
        18.520
31
        42.738
39
 0
62
 3
 0
LINE
8
default
6
CONTINUOUS
10
         7.671
20
        18.520
30
        42.738
11
         8.095
21
        19.544
31
        43.489
39
 0
62
 3
 0
LINE
8
default
6
CONTINUOUS
10
         8.095
20
        19.544
30
        43.489
11
         8.525
21
        20.582
31
        44.203
39
 0
62
 3
 0
LINE
8
default
6
CONTINUOUS
10
         8.525
20
        20.582
30
        44.203
11
         8.961
21
        21.634
31
        44.878
39
 0
62
 3
 0
LINE
8
default
6
CONTINUOUS
10
         8.961
20
        21.634
30
        44.878
11
         9.402
21
        22.698
31
        45.514
39
 0
62
 3
 0
LINE
8
default
6
CONTINUOUS
10
         9.402
20
        22.698
30
        45.514
11
         9.847
21
        23.774
31
        46.110
39
 0
62
 3
 0
LINE
8
default
6
CONTINUOUS
10
         9.847
20
        23.774
30
        46.110
11
        10.298
21
        24.861
31
        46.666
39
 0
62
 3
 0
LINE
8
default
6
CONTINUOUS
10
        10.298
20
        24.861
30
        46.666
11
        10.753
21
        25.959
31
        47.180
39
 0
62
 3
 0
LINE
8
default
6
CONTINUOUS
10
        10.753
20
        25.959
30
        47.180
11
        11.211
21
        27.066
31
        47.653
39
 0
62
 3
 0
LINE
8
default
6
CONTINUOUS
10
        11.211
20
        27.066
30
        47.653
11
        11.673
21
        28.182
31
        48.084
39
 0
62
 3
 0
LINE
8
default
6
CONTINUOUS
10
        11.673
20
        28.182
30
        48.084
11
        12.139
21
        29.305
31
        48.472
39
 0
62
 3
 0
LINE
8
default
6
CONTINUOUS
10
        12.139
20
        29.305
30
        48.472
11
        12.607
21
        30.436
31
        48.817
39
 0
62
 3
 0
LINE
8
default
6
CONTINUOUS
10
        12.607
20
        30.436
30
        48.817
11
        13.078
21
        31.573
31
        49.119
39
 0
62
 3
 0
LINE
8
default
6
CONTINUOUS
10
        13.078
20
        31.573
30
        49.119
11
        13.551
21
        32.715
31
        49.376
39
 0
62
 3
 0
LINE
8
default
6
CONTINUOUS
10
        13.551
20
        32.715
30
        49.376
11
        14.026
21
        33.862
31
        49.590
39
 0
62
 3
 0
LINE
8
default
6
CONTINUOUS
10
        14.026
20
        33.862
30
        49.590
11
        14.503
21
        35.013
31
        49.759
39
 0
62
 3
 0
LINE
8
default
6
CONTINUOUS
10
        14.503
20
        35.013
30
        49.759
11
        14.980
21
        36.166
31
        49.883
39
 0
62
 3
 0
LINE
8
default
6
CONTINUOUS
10
        14.980
20
        36.166
30
        49.883
11
        15.459
21
        37.321
31
        49.963
39
 0
62
 3
 0
LINE
8
default
6
CONTINUOUS
10
        15.459
20
        37.321
30
        49.963
11
        15.938
21
        38.477
31
        49.998
39
 0
62
 3
 0
LINE
8
default
6
CONTINUOUS
10
        15.938
20
        38.477
30
        49.998
11
        16.417
21
        39.634
31
        49.990
39
 0
62
 3
 0
LINE
8
default
6
CONTINUOUS
10
        16.417
20
        39.634
30
        49.990
11
        16.896
21
        40.790
31
        49.945
39
 0
62
 3
 0
LINE
8
default
6
CONTINUOUS
10
        16.896
20
        40.790
30
        49.945
11
        17.374
21
        41.944
31
        49.863
39
 0
62
 3
 0
LINE
8
default
6
CONTINUOUS
10
        17.374
20
        41.944
30
        49.863
11
        17.851
21
        43.096
31
        49.744
39
 0
62
 3
 0
LINE
8
default
6
CONTINUOUS
10
        17.851
20
        43.096
30
        49.744
11
        18.327
21
        44.245
31
        49.588
39
 0
62
 3
 0
LINE
8
default
6
CONTINUOUS
10
        18.327
20
        44.245
30
        49.588
11
        18.801
21
        45.390
31
        49.396
39
 0
62
 3
 0
LINE
8
default
6
CONTINUOUS
10
        18.801
20
        45.390
30
        49.396
11
        19.273
21
        46.530
31
        49.167
39
 0
62
 3
 0
LINE
8
default
6
CONTINUOUS
10
        19.273
20
        46.530
30
        49.167
11
        19.743
21
        47.664
31
        48.901
39
 0
62
 3
 0
LINE
8
default
6
CONTINUOUS
10
        19.743
20
        47.664
30
        48.901
11
        20.210
21
        48.792
31
        48.599
39
 0
62
 3
 0
LINE
8
default
6
CONTINUOUS
10
        20.210
20
        48.792
30
        48.599
11
        20.674
21
        49.913
31
        48.261
39
 0
62
 3
 0
LINE
8
default
6
CONTINUOUS
10
        20.674
20
        49.913
30
        48.261
11
        21.135
21
        51.025
31
        47.888
39
 0
62
 3
 0
LINE
8
default
6
CONTINUOUS
10
        21.135
20
        51.025
30
        47.888
11
        21.592
21
        52.128
31
        47.479
39
 0
62
 3
 0
LINE
8
default
6
CONTINUOUS
10
        21.592
20
        52.128
30
        47.479
11
        22.045
21
        53.221
31
        47.035
39
 0
62
 3
 0
LINE
8
default
6
CONTINUOUS
10
        22.045
20
        53.221
30
        47.035
11
        22.493
21
        54.303
31
        46.556
39
 0
62
 3
 0
LINE
8
default
6
CONTINUOUS
10
        22.493
20
        54.303
30
        46.556
11
        22.937
21
        55.375
31
        46.042
39
 0
62
 3
 0
LINE
8
default
6
CONTINUOUS
10
        22.937
20
        55.375
30
        46.042
11
        23.375
21
        56.433
31
        45.495
39
 0
62
 3
 0
LINE
8
default
6
CONTINUOUS
10
        23.375
20
        56.433
30
        45.495
11
        23.809
21
        57.479
31
        44.913
39
 0
62
 3
 0
LINE
8
default
6
CONTINUOUS
10
        23.809
20
        57.479
30
        44.913
11
        24.236
21
        58.511
31
        44.299
39
 0
62
 3
 0
LINE
8
default
6
CONTINUOUS
10
        24.236
20
        58.511
30
        44.299
11
        24.657
21
        59.528
31
        43.651
39
 0
62
 3
 0
LINE
8
default
6
CONTINUOUS
10
        24.657
20
        59.528
30
        43.651
11
        25.072
21
        60.530
31
        42.972
39
 0
62
 3
 0
LINE
8
default
6
CONTINUOUS
10
        25.072
20
        60.530
30
        42.972
11
        25.481
21
        61.516
31
        42.260
39
 0
62
 3
 0
LINE
8
default
6
CONTINUOUS
10
        25.481
20
        61.516
30
        42.260
11
        25.882
21
        62.485
31
        41.517
39
 0
62
 3
 0
LINE
8
default
6
CONTINUOUS
10
        25.882
20
        62.485
30
        41.517
11
        26.276
21
        63.436
31
        40.744
39
 0
62
 3
 0
LINE
8
default
6
CONTINUOUS
10
        26.276
20
        63.436
30
        40.744
11
        26.663
21
        64.370
31
        39.940
39
 0
62
 3
 0
LINE
8
default
6
CONTINUOUS
10
        26.663
20
        64.370
30
        39.940
11
        27.042
21
        65.284
31
        39.107
39
 0
62
 3
 0
LINE
8
default
6
CONTINUOUS
10
        27.042
20
        65.284
30
        39.107
11
        27.412
21
        66.179
31
        38.245
39
 0
62
 3
 0
LINE
8
default
6
CONTINUOUS
10
        27.412
20
        66.179
30
        38.245
11
        27.774
21
        67.053
31
        37.354
39
 0
62
 3
 0
LINE
8
default
6
CONTINUOUS
10
        27.774
20
        67.053
30
        37.354
11
        28.128
21
        67.907
31
        36.436
39
 0
62
 3
 0
LINE
8
default
6
CONTINUOUS
10
        28.128
20
        67.907
30
        36.436
11
        28.472
21
        68.739
31
        35.491
39
 0
62
 3
 0
LINE
8
default
6
CONTINUOUS
10
        28.472
20
        68.739
30
        35.491
11
        28.808
21
        69.548
31
        34.519
39
 0
62
 3
 0
LINE
8
default
6
CONTINUOUS
10
        28.808
20
        69.548
30
        34.519
11
        29.134
21
        70.335
31
        33.522
39
 0
62
 3
 0
LINE
8
default
6
CONTINUOUS
10
        29.134
20
        70.335
30
        33.522
11
        29.450
21
        71.099
31
        32.500
39
 0
62
 3
 0
LINE
8
default
6
CONTINUOUS
10
        29.450
20
        71.099
30
        32.500
11
        29.757
21
        71.839
31
        31.454
39
 0
62
 3
 0
LINE
8
default
6
CONTINUOUS
10
        29.757
20
        71.839
30
        31.454
11
        30.053
21
        72.554
31
        30.385
39
 0
62
 3
 0
LINE
8
default
6
CONTINUOUS
10
        30.053
20
        72.554
30
        30.385
11
        30.339
21
        73.244
31
        29.293
39
 0
62
 3
 0
LINE
8
default
6
CONTINUOUS
10
        30.339
20
        73.244
30
        29.293
11
        30.614
21
        73.909
31
        28.180
39
 0
62
 3
 0
LINE
8
default
6
CONTINUOUS
10
        30.614
20
        73.909
30
        28.180
11
        30.879
21
        74.548
31
        27.045
39
 0
62
 3
 0
LINE
8
default
6
CONTINUOUS
10
        30.879
20
        74.548
30
        27.045
11
        31.132
21
        75.160
31
        25.891
39
 0
62
 3
 0
LINE
8
default
6
CONTINUOUS
10
        31.132
20
        75.160
30
        25.891
11
        31.375
21
        75.745
31
        24.717
39
 0
62
 3
 0
LINE
8
default
6
CONTINUOUS
10
        31.375
20
        75.745
30
        24.717
11
        31.606
21
        76.303
31
        23.525
39
 0
62
 3
 0
LINE
8
default
6
CONTINUOUS
10
        31.606
20
        76.303
30
        23.525
11
        31.826
21
        76.834
31
        22.316
39
 0
62
 3
 0
LINE
8
default
6
CONTINUOUS
10
        31.826
20
        76.834
30
        22.316
11
        32.033
21
        77.336
31
        21.090
39
 0
62
 3
 0
LINE
8
default
6
CONTINUOUS
10
        32.033
20
        77.336
30
        21.090
11
        32.230
21
        77.809
31
        19.849
39
 0
62
 3
 0
LINE
8
default
6
CONTINUOUS
10
        32.230
20
        77.809
30
        19.849
11
        32.414
21
        78.254
31
        18.593
39
 0
62
 3
 0
LINE
8
default
6
CONTINUOUS
10
        32.414
20
        78.254
30
        18.593
11
        32.586
21
        78.669
31
        17.323
39
 0
62
 3
 0
LINE
8
default
6
CONTINUOUS
10
        32.586
20
        78.669
30
        17.323
11
        32.746
21
        79.055
31
        16.040
39
 0
62
 3
 0
LINE
8
default
6
CONTINUOUS
10
        32.746
20
        79.055
30
        16.040
11
        32.893
21
        79.411
31
        14.746
39
 0
62
 3
 0
LINE
8
default
6
CONTINUOUS
10
        32.893
20
        79.411
30
        14.746
11
        33.028
21
        79.737
31
        13.440
39
 0
62
 3
 0
LINE
8
default
6
CONTINUOUS
10
        33.028
20
        79.737
30
        13.440
11
        33.151
21
        80.033
31
        12.125
39
 0
62
 3
 0
LINE
8
default
6
CONTINUOUS
10
        33.151
20
        80.033
30
        12.125
11
        33.261
21
        80.298
31
        10.800
39
 0
62
 3
 0
LINE
8
default
6
CONTINUOUS
10
        33.261
20
        80.298
30
        10.800
11
        33.358
21
        80.533
31
         9.468
39
 0
62
 3
 0
LINE
8
default
6
CONTINUOUS
10
        33.358
20
        80.533
30
         9.468
11
        33.442
21
        80.736
31
         8.128
39
 0
62
 3
 0
LINE
8
default
6
CONTINUOUS
10
        33.442
20
        80.736
30
         8.128
11
        33.513
21
        80.909
31
         6.783
39
 0
62
 3
 0
LINE
8
default
6
CONTINUOUS
10
        33.513
20
        80.909
30
         6.783
11
        33.572
21
        81.050
31
         5.432
39
 0
62
 3
 0
LINE
8
default
6
CONTINUOUS
10
        33.572
20
        81.050
30
         5.432
11
        33.618
21
        81.160
31
         4.078
39
 0
62
 3
 0
LINE
8
default
6
CONTINUOUS
10
        33.618
20
        81.160
30
         4.078
11
        33.650
21
        81.238
31
         2.720
39
 0
62
 3
 0
LINE
8
default
6
CONTINUOUS
10
        33.650
20
        81.238
30
         2.720
11
        33.670
21
        81.286
31
         1.361
39
 0
62
 3
 0
LINE
8
default
6
CONTINUOUS
10
        33.670
20
        81.286
30
         1.361
11
        33.676
21
        81.301
31
        -0.000
39
 0
62
 3
 0
LINE
8
default
6
CONTINUOUS
10
        -0.000
20
         0.000
30
        16.000
11
        -0.201
21
         0.486
31
        17.344
39
 0
62
 3
 0
LINE
8
default
6
CONTINUOUS
10
        -0.201
20
         0.486
30
        17.344
11
        -0.414
21
         1.000
31
        18.677
39
 0
62
 3
 0
LINE
8
default
6
CONTINUOUS
10
        -0.414
20
         1.000
30
        18.677
11
        -0.639
21
         1.543
31
        19.998
39
 0
62
 3
 0
LINE
8
default
6
CONTINUOUS
10
        -0.639
20
         1.543
30
        19.998
11
        -0.875
21
         2.113
31
        21.305
39
 0
62
 3
 0
LINE
8
default
6
CONTINUOUS
10
        -0.875
20
         2.113
30
        21.305
11
        -1.123
21
         2.710
31
        22.597
39
 0
62
 3
 0
LINE
8
default
6
CONTINUOUS
10
        -1.123
20
         2.710
30
        22.597
11
        -1.381
21
         3.334
31
        23.873
39
 0
62
 3
 0
LINE
8
default
6
CONTINUOUS
10
        -1.381
20
         3.334
30
        23.873
11
        -1.650
21
         3.984
31
        25.131
39
 0
62
 3
 0
LINE
8
default
6
CONTINUOUS
10
        -1.650
20
         3.984
30
        25.131
11
        -1.930
21
         4.660
31
        26.371
39
 0
62
 3
 0
LINE
8
default
6
CONTINUOUS
10
        -1.930
20
         4.660
30
        26.371
11
        -2.221
21
         5.361
31
        27.592
39
 0
62
 3
 0
LINE
8
default
6
CONTINUOUS
10
        -2.221
20
         5.361
30
        27.592
11
        -2.521
21
         6.087
31
        28.791
39
 0
62
 3
 0
LINE
8
default
6
CONTINUOUS
10
        -2.521
20
         6.087
30
        28.791
11
        -2.832
21
         6.838
31
        29.968
39
 0
62
 3
 0
LINE
8
default
6
CONTINUOUS
10
        -2.832
20
         6.838
30
        29.968
11
        -3.153
21
         7.612
31
        31.122
39
 0
62
 3
 0
LINE
8
default
6
CONTINUOUS
10
        -3.153
20
         7.612
30
        31.122
11
        -3.483
21
         8.409
31
        32.251
39
 0
62
 3
 0
LINE
8
default
6
CONTINUOUS
10
        -3.483
20
         8.409
30
        32.251
11
        -3.822
21
         9.228
31
        33.355
39
 0
62
 3
 0
LINE
8
default
6
CONTINUOUS
10
        -3.822
20
         9.228
30
        33.355
11
        -4.171
21
        10.070
31
        34.431
39
 0
62
 3
 0
LINE
8
default
6
CONTINUOUS
10
        -4.171
20
        10.070
30
        34.431
11
        -4.528
21
        10.932
31
        35.480
39
 0
62
 3
 0
LINE
8
default
6
CONTINUOUS
10
        -4.528
20
        10.932
30
        35.480
11
        -4.894
21
        11.816
31
        36.500
39
 0
62
 3
 0
LINE
8
default
6
CONTINUOUS
10
        -4.894
20
        11.816
30
        36.500
11
        -5.268
21
        12.719
31
        37.489
39
 0
62
 3
 0
LINE
8
default
6
CONTINUOUS
10
        -5.268
20
        12.719
30
        37.489
11
        -5.651
21
        13.642
31
        38.448
39
 0
62
 3
 0
LINE
8
default
6
CONTINUOUS
10
        -5.651
20
        13.642
30
        38.448
11
        -6.040
21
        14.583
31
        39.374
39
 0
62
 3
 0
LINE
8
default
6
CONTINUOUS
10
        -6.040
20
        14.583
30
        39.374
11
        -6.438
21
        15.542
31
        40.267
39
 0
62
 3
 0
LINE
8
default
6
CONTINUOUS
10
        -6.438
20
        15.542
30
        40.267
11
        -6.842
21
        16.519
31
        41.126
39
 0
62
 3
 0
LINE
8
default
6
CONTINUOUS
10
        -6.842
20
        16.519
30
        41.126
11
        -7.254
21
        17.512
31
        41.950
39
 0
62
 3
 0
LINE
8
default
6
CONTINUOUS
10
        -7.254
20
        17.512
30
        41.950
11
        -7.671
21
        18.520
31
        42.738
39
 0
62
 3
 0
LINE
8
default
6
CONTINUOUS
10
        -7.671
20
        18.520
30
        42.738
11
        -8.095
21
        19.544
31
        43.489
39
 0
62
 3
 0
LINE
8
default
6
CONTINUOUS
10
        -8.095
20
        19.544
30
        43.489
11
        -8.525
21
        20.582
31
        44.203
39
 0
62
 3
 0
LINE
8
default
6
CONTINUOUS
10
        -8.525
20
        20.582
30
        44.203
11
        -8.961
21
        21.634
31
        44.878
39
 0
62
 3
 0
LINE
8
default
6
CONTINUOUS
10
        -8.961
20
        21.634
30
        44.878
11
        -9.402
21
        22.698
31
        45.514
39
 0
62
 3
 0
LINE
8
default
6
CONTINUOUS
10
        -9.402
20
        22.698
30
        45.514
11
        -9.847
21
        23.774
31
        46.110
39
 0
62
 3
 0
LINE
8
default
6
CONTINUOUS
10
        -9.847
20
        23.774
30
        46.110
11
       -10.298
21
        24.861
31
        46.666
39
 0
62
 3
 0
LINE
8
default
6
CONTINUOUS
10
       -10.298
20
        24.861
30
        46.666
11
       -10.753
21
        25.959
31
        47.180
39
 0
62
 3
 0
LINE
8
default
6
CONTINUOUS
10
       -10.753
20
        25.959
30
        47.180
11
       -11.211
21
        27.066
31
        47.653
39
 0
62
 3
 0
LINE
8
default
6
CONTINUOUS
10
       -11.211
20
        27.066
30
        47.653
11
       -11.673
21
        28.182
31
        48.084
39
 0
62
 3
 0
LINE
8
default
6
CONTINUOUS
10
       -11.673
20
        28.182
30
        48.084
11
       -12.139
21
        29.305
31
        48.472
39
 0
62
 3
 0
LINE
8
default
6
CONTINUOUS
10
       -12.139
20
        29.305
30
        48.472
11
       -12.607
21
        30.436
31
        48.817
39
 0
62
 3
 0
LINE
8
default
6
CONTINUOUS
10
       -12.607
20
        30.436
30
        48.817
11
       -13.078
21
        31.573
31
        49.119
39
 0
62
 3
 0
LINE
8
default
6
CONTINUOUS
10
       -13.078
20
        31.573
30
        49.119
11
       -13.551
21
        32.715
31
        49.376
39
 0
62
 3
 0
LINE
8
default
6
CONTINUOUS
10
       -13.551
20
        32.715
30
        49.376
11
       -14.026
21
        33.862
31
        49.590
39
 0
62
 3
 0
LINE
8
default
6
CONTINUOUS
10
       -14.026
20
        33.862
30
        49.590
11
       -14.503
21
        35.013
31
        49.759
39
 0
62
 3
 0
LINE
8
default
6
CONTINUOUS
10
       -14.503
20
        35.013
30
        49.759
11
       -14.980
21
        36.166
31
        49.883
39
 0
62
 3
 0
LINE
8
default
6
CONTINUOUS
10
       -14.980
20
        36.166
30
        49.883
11
       -15.459
21
        37.321
31
        49.963
39
 0
62
 3
 0
LINE
8
default
6
CONTINUOUS
10
       -15.459
20
        37.321
30
        49.963
11
       -15.938
21
        38.477
31
        49.998
39
 0
62
 3
 0
LINE
8
default
6
CONTINUOUS
10
       -15.938
20
        38.477
30
        49.998
11
       -16.417
21
        39.634
31
        49.990
39
 0
62
 3
 0
LINE
8
default
6
CONTINUOUS
10
       -16.417
20
        39.634
30
        49.990
11
       -16.896
21
        40.790
31
        49.945
39
 0
62
 3
 0
LINE
8
default
6
CONTINUOUS
10
       -16.896
20
        40.790
30
        49.945
11
       -17.374
21
        41.944
31
        49.863
39
 0
62
 3
 0
LINE
8
default
6
CONTINUOUS
10
       -17.374
20
        41.944
30
        49.863
11
       -17.851
21
        43.096
31
        49.744
39
 0
62
 3
 0
LINE
8
default
6
CONTINUOUS
10
       -17.851
20
        43.096
30
        49.744
11
       -18.327
21
        44.245
31
        49.588
39
 0
62
 3
 0
LINE
8
default
6
CONTINUOUS
10
       -18.327
20
        44.245
30
        49.588
11
       -18.801
21
        45.390
31
        49.396
39
 0
62
 3
 0
LINE
8
default
6
CONTINUOUS
10
       -18.801
20
        45.390
30
        49.396
11
       -19.273
21
        46.530
31
        49.167
39
 0
62
 3
 0
LINE
8
default
6
CONTINUOUS
10
       -19.273
20
        46.530
30
        49.167
11
       -19.743
21
        47.664
31
        48.901
39
 0
62
 3
 0
LINE
8
default
6
CONTINUOUS
10
       -19.743
20
        47.664
30
        48.901
11
       -20.210
21
        48.792
31
        48.599
39
 0
62
 3
 0
LINE
8
default
6
CONTINUOUS
10
       -20.210
20
        48.792
30
        48.599
11
       -20.674
21
        49.913
31
        48.261
39
 0
62
 3
 0
LINE
8
default
6
CONTINUOUS
10
       -20.674
20
        49.913
30
        48.261
11
       -21.135
21
        51.025
31
        47.888
39
 0
62
 3
 0
LINE
8
default
6
CONTINUOUS
10
       -21.135
20
        51.025
30
        47.888
11
       -21.592
21
        52.128
31
        47.479
39
 0
62
 3
 0
LINE
8
default
6
CONTINUOUS
10
       -21.592
20
        52.128
30
        47.479
11
       -22.045
21
        53.221
31
        47.035
39
 0
62
 3
 0
LINE
8
default
6
CONTINUOUS
10
       -22.045
20
        53.221
30
        47.035
11
       -22.493
21
        54.303
31
        46.556
39
 0
62
 3
 0
LINE
8
default
6
CONTINUOUS
10
       -22.493
20
        54.303
30
        46.556
11
       -22.937
21
        55.375
31
        46.042
39
 0
62
 3
 0
LINE
8
default
6
CONTINUOUS
10
       -22.937
20
        55.375
30
        46.042
11
       -23.375
21
        56.433
31
        45.495
39
 0
62
 3
 0
LINE
8
default
6
CONTINUOUS
10
       -23.375
20
        56.433
30
        45.495
11
       -23.809
21
        57.479
31
        44.913
39
 0
62
 3
 0
LINE
8
default
6
CONTINUOUS
10
       -23.809
20
        57.479
30
        44.913
11
       -24.236
21
        58.511
31
        44.299
39
 0
62
 3
 0
LINE
8
default
6
CONTINUOUS
10
       -24.236
20
        58.511
30
        44.299
11
       -24.657
21
        59.528
31
        43.651
39
 0
62
 3
 0
LINE
8
default
6
CONTINUOUS
10
       -24.657
20
        59.528
30
        43.651
11
       -25.072
21
        60.530
31
        42.972
39
 0
62
 3
 0
LINE
8
default
6
CONTINUOUS
10
       -25.072
20
        60.530
30
        42.972
11
       -25.481
21
        61.516
31
        42.260
39
 0
62
 3
 0
LINE
8
default
6
CONTINUOUS
10
       -25.481
20
        61.516
30
        42.260
11
       -25.882
21
        62.485
31
        41.517
39
 0
62
 3
 0
LINE
8
default
6
CONTINUOUS
10
       -25.882
20
        62.485
30
        41.517
11
       -26.276
21
        63.436
31
        40.744
39
 0
62
 3
 0
LINE
8
default
6
CONTINUOUS
10
       -26.276
20
        63.436
30
        40.744
11
       -26.663
21
        64.370
31
        39.940
39
 0
62
 3
 0
LINE
8
default
6
CONTINUOUS
10
       -26.663
20
        64.370
30
        39.940
11
       -27.042
21
        65.284
31
        39.107
39
 0
62
 3
 0
LINE
8
default
6
CONTINUOUS
10
       -27.042
20
        65.284
30
        39.107
11
       -27.412
21
        66.179
31
        38.245
39
 0
62
 3
 0
LINE
8
default
6
CONTINUOUS
10
       -27.412
20
        66.179
30
        38.245
11
       -27.774
21
        67.053
31
        37.354
39
 0
62
 3
 0
LINE
8
default
6
CONTINUOUS
10
       -27.774
20
        67.053
30
        37.354
11
       -28.128
21
        67.907
31
        36.436
39
 0
62
 3
 0
LINE
8
default
6
CONTINUOUS
10
       -28.128
20
        67.907
30
        36.436
11
       -28.472
21
        68.739
31
        35.491
39
 0
62
 3
 0
LINE
8
default
6
CONTINUOUS
10
       -28.472
20
        68.739
30
        35.491
11
       -28.808
21
        69.548
31
        34.519
39
 0
62
 3
 0
LINE
8
default
6
CONTINUOUS
10
       -28.808
20
        69.548
30
        34.519
11
       -29.134
21
        70.335
31
        33.522
39
 0
62
 3
 0
LINE
8
default
6
CONTINUOUS
10
       -29.134
20
        70.335
30
        33.522
11
       -29.450
21
        71.099
31
        32.500
39
 0
62
 3
 0
LINE
8
default
6
CONTINUOUS
10
       -29.450
20
        71.099
30
        32.500
11
       -29.757
21
        71.839
31
        31.454
39
 0
62
 3
 0
LINE
8
default
6
CONTINUOUS
10
       -29.757
20
        71.839
30
        31.454
11
       -30.053
21
        72.554
31
        30.385
39
 0
62
 3
 0
LINE
8
default
6
CONTINUOUS
10
       -30.053
20
        72.554
30
        30.385
11
       -30.339
21
        73.244
31
        29.293
39
 0
62
 3
 0
LINE
8
default
6
CONTINUOUS
10
       -30.339
20
        73.244
30
        29.293
11
       -30.614
21
        73.909
31
        28.180
39
 0
62
 3
 0
LINE
8
default
6
CONTINUOUS
10
       -30.614
20
        73.909
30
        28.180
11
       -30.879
21
        74.548
31
        27.045
39
 0
62
 3
 0
LINE
8
default
6
CONTINUOUS
10
       -30.879
20
        74.548
30
        27.045
11
       -31.132
21
        75.160
31
        25.891
39
 0
62
 3
 0
LINE
8
default
6
CONTINUOUS
10
       -31.132
20
        75.160
30
        25.891
11
       -31.375
21
        75.745
31
        24.717
39
 0
62
 3
 0
LINE
8
default
6
CONTINUOUS
10
       -31.375
20
        75.745
30
        24.717
11
       -31.606
21
        76.303
31
        23.525
39
 0
62
 3
 0
LINE
8
default
6
CONTINUOUS
10
       -31.606
20
        76.303
30
        23.525
11
       -31.826
21
        76.834
31
        22.316
39
 0
62
 3
 0
LINE
8
default
6
CONTINUOUS
10
       -31.826
20
        76.834
30
        22.316
11
       -32.033
21
        77.336
31
        21.090
39
 0
62
 3
 0
LINE
8
default
6
CONTINUOUS
10
       -32.033
20
        77.336
30
        21.090
11
       -32.230
21
        77.809
31
        19.849
39
 0
62
 3
 0
LINE
8
default
6
CONTINUOUS
10
       -32.230
20
        77.809
30
        19.849
11
       -32.414
21
        78.254
31
        18.593
39
 0
62
 3
 0
LINE
8
default
6
CONTINUOUS
10
       -32.414
20
        78.254
30
        18.593
11
       -32.586
21
        78.669
31
        17.323
39
 0
62
 3
 0
LINE
8
default
6
CONTINUOUS
10
       -32.586
20
        78.669
30
        17.323
11
       -32.746
21
        79.055
31
        16.040
39
 0
62
 3
 0
LINE
8
default
6
CONTINUOUS
10
       -32.746
20
        79.055
30
        16.040
11
       -32.893
21
        79.411
31
        14.746
39
 0
62
 3
 0
LINE
8
default
6
CONTINUOUS
10
       -32.893
20
        79.411
30
        14.746
11
       -33.028
21
        79.737
31
        13.440
39
 0
62
 3
 0
LINE
8
default
6
CONTINUOUS
10
       -33.028
20
        79.737
30
        13.440
11
       -33.151
21
        80.033
31
        12.125
39
 0
62
 3
 0
LINE
8
default
6
CONTINUOUS
10
       -33.151
20
        80.033
30
        12.125
11
       -33.261
21
        80.298
31
        10.800
39
 0
62
 3
 0
LINE
8
default
6
CONTINUOUS
10
       -33.261
20
        80.298
30
        10.800
11
       -33.358
21
        80.533
31
         9.468
39
 0
62
 3
 0
LINE
8
default
6
CONTINUOUS
10
       -33.358
20
        80.533
30
         9.468
11
       -33.442
21
        80.736
31
         8.128
39
 0
62
 3
 0
LINE
8
default
6
CONTINUOUS
10
       -33.442
20
        80.736
30
         8.128
11
       -33.513
21
        80.909
31
         6.783
39
 0
62
 3
 0
LINE
8
default
6
CONTINUOUS
10
       -33.513
20
        80.909
30
         6.783
11
       -33.572
21
        81.050
31
         5.432
39
 0
62
 3
 0
LINE
8
default
6
CONTINUOUS
10
       -33.572
20
        81.050
30
         5.432
11
       -33.618
21
        81.160
31
         4.078
39
 0
62
 3
 0
LINE
8
default
6
CONTINUOUS
10
       -33.618
20
        81.160
30
         4.078
11
       -33.650
21
        81.238
31
         2.720
39
 0
62
 3
 0
LINE
8
default
6
CONTINUOUS
10
       -33.650
20
        81.238
30
         2.720
11
       -33.670
21
        81.286
31
         1.361
39
 0
62
 3
 0
LINE
8
default
6
CONTINUOUS
10
       -33.670
20
        81.286
30
         1.361
11
       -33.676
21
        81.301
31
        -0.000
39
 0
62
 3
 0
LINE
8
default
6
CONTINUOUS
10
        -0.000
20
         0.000
30
        16.000
11
        -0.486
21
         0.201
31
        17.344
39
 0
62
 3
 0
LINE
8
default
6
CONTINUOUS
10
        -0.486
20
         0.201
30
        17.344
11
        -1.000
21
         0.414
31
        18.677
39
 0
62
 3
 0
LINE
8
default
6
CONTINUOUS
10
        -1.000
20
         0.414
30
        18.677
11
        -1.543
21
         0.639
31
        19.998
39
 0
62
 3
 0
LINE
8
default
6
CONTINUOUS
10
        -1.543
20
         0.639
30
        19.998
11
        -2.113
21
         0.875
31
        21.305
39
 0
62
 3
 0
LINE
8
default
6
CONTINUOUS
10
        -2.113
20
         0.875
30
        21.305
11
        -2.710
21
         1.123
31
        22.597
39
 0
62
 3
 0
LINE
8
default
6
CONTINUOUS
10
        -2.710
20
         1.123
30
        22.597
11
        -3.334
21
         1.381
31
        23.873
39
 0
62
 3
 0
LINE
8
default
6
CONTINUOUS
10
        -3.334
20
         1.381
30
        23.873
11
        -3.984
21
         1.650
31
        25.131
39
 0
62
 3
 0
LINE
8
default
6
CONTINUOUS
10
        -3.984
20
         1.650
30
        25.131
11
        -4.660
21
         1.930
31
        26.371
39
 0
62
 3
 0
LINE
8
default
6
CONTINUOUS
10
        -4.660
20
         1.930
30
        26.371
11
        -5.361
21
         2.221
31
        27.592
39
 0
62
 3
 0
LINE
8
default
6
CONTINUOUS
10
        -5.361
20
         2.221
30
        27.592
11
        -6.087
21
         2.521
31
        28.791
39
 0
62
 3
 0
LINE
8
default
6
CONTINUOUS
10
        -6.087
20
         2.521
30
        28.791
11
        -6.838
21
         2.832
31
        29.968
39
 0
62
 3
 0
LINE
8
default
6
CONTINUOUS
10
        -6.838
20
         2.832
30
        29.968
11
        -7.612
21
         3.153
31
        31.122
39
 0
62
 3
 0
LINE
8
default
6
CONTINUOUS
10
        -7.612
20
         3.153
30
        31.122
11
        -8.409
21
         3.483
31
        32.251
39
 0
62
 3
 0
LINE
8
default
6
CONTINUOUS
10
        -8.409
20
         3.483
30
        32.251
11
        -9.228
21
         3.822
31
        33.355
39
 0
62
 3
 0
LINE
8
default
6
CONTINUOUS
10
        -9.228
20
         3.822
30
        33.355
11
       -10.070
21
         4.171
31
        34.431
39
 0
62
 3
 0
LINE
8
default
6
CONTINUOUS
10
       -10.070
20
         4.171
30
        34.431
11
       -10.932
21
         4.528
31
        35.480
39
 0
62
 3
 0
LINE
8
default
6
CONTINUOUS
10
       -10.932
20
         4.528
30
        35.480
11
       -11.816
21
         4.894
31
        36.500
39
 0
62
 3
 0
LINE
8
default
6
CONTINUOUS
10
       -11.816
20
         4.894
30
        36.500
11
       -12.719
21
         5.268
31
        37.489
39
 0
62
 3
 0
LINE
8
default
6
CONTINUOUS
10
       -12.719
20
         5.268
30
        37.489
11
       -13.642
21
         5.651
31
        38.448
39
 0
62
 3
 0
LINE
8
default
6
CONTINUOUS
10
       -13.642
20
         5.651
30
        38.448
11
       -14.583
21
         6.040
31
        39.374
39
 0
62
 3
 0
LINE
8
default
6
CONTINUOUS
10
       -14.583
20
         6.040
30
        39.374
11
       -15.542
21
         6.438
31
        40.267
39
 0
62
 3
 0
LINE
8
default
6
CONTINUOUS
10
       -15.542
20
         6.438
30
        40.267
11
       -16.519
21
         6.842
31
        41.126
39
 0
62
 3
 0
LINE
8
default
6
CONTINUOUS
10
       -16.519
20
         6.842
30
        41.126
11
       -17.512
21
         7.254
31
        41.950
39
 0
62
 3
 0
LINE
8
default
6
CONTINUOUS
10
       -17.512
20
         7.254
30
        41.950
11
       -18.520
21
         7.671
31
        42.738
39
 0
62
 3
 0
LINE
8
default
6
CONTINUOUS
10
       -18.520
20
         7.671
30
        42.738
11
       -19.544
21
         8.095
31
        43.489
39
 0
62
 3
 0
LINE
8
default
6
CONTINUOUS
10
       -19.544
20
         8.095
30
        43.489
11
       -20.582
21
         8.525
31
        44.203
39
 0
62
 3
 0
LINE
8
default
6
CONTINUOUS
10
       -20.582
20
         8.525
30
        44.203
11
       -21.634
21
         8.961
31
        44.878
39
 0
62
 3
 0
LINE
8
default
6
CONTINUOUS
10
       -21.634
20
         8.961
30
        44.878
11
       -22.698
21
         9.402
31
        45.514
39
 0
62
 3
 0
LINE
8
default
6
CONTINUOUS
10
       -22.698
20
         9.402
30
        45.514
11
       -23.774
21
         9.847
31
        46.110
39
 0
62
 3
 0
LINE
8
default
6
CONTINUOUS
10
       -23.774
20
         9.847
30
        46.110
11
       -24.861
21
        10.298
31
        46.666
39
 0
62
 3
 0
LINE
8
default
6
CONTINUOUS
10
       -24.861
20
        10.298
30
        46.666
11
       -25.959
21
        10.753
31
        47.180
39
 0
62
 3
 0
LINE
8
default
6
CONTINUOUS
10
       -25.959
20
        10.753
30
        47.180
11
       -27.066
21
        11.211
31
        47.653
39
 0
62
 3
 0
LINE
8
default
6
CONTINUOUS
10
       -27.066
20
        11.211
30
        47.653
11
       -28.182
21
        11.673
31
        48.084
39
 0
62
 3
 0
LINE
8
default
6
CONTINUOUS
10
       -28.182
20
        11.673
30
        48.084
11
       -29.305
21
        12.139
31
        48.472
39
 0
62
 3
 0
LINE
8
default
6
CONTINUOUS
10
       -29.305
20
        12.139
30
        48.472
11
       -30.436
21
        12.607
31
        48.817
39
 0
62
 3
 0
LINE
8
default
6
CONTINUOUS
10
       -30.436
20
        12.607
30
        48.817
11
       -31.573
21
        13.078
31
        49.119
39
 0
62
 3
 0
LINE
8
default
6
CONTINUOUS
10
       -31.573
20
        13.078
30
        49.119
11
       -32.715
21
        13.551
31
        49.376
39
 0
62
 3
 0
LINE
8
default
6
CONTINUOUS
10
       -32.715
20
        13.551
30
        49.376
11
       -33.862
21
        14.026
31
        49.590
39
 0
62
 3
 0
LINE
8
default
6
CONTINUOUS
10
       -33.862
20
        14.026
30
        49.590
11
       -35.013
21
        14.503
31
        49.759
39
 0
62
 3
 0
LINE
8
default
6
CONTINUOUS
10
       -35.013
20
        14.503
30
        49.759
11
       -36.166
21
        14.980
31
        49.883
39
 0
62
 3
 0
LINE
8
default
6
CONTINUOUS
10
       -36.166
20
        14.980
30
        49.883
11
       -37.321
21
        15.459
31
        49.963
39
 0
62
 3
 0
LINE
8
default
6
CONTINUOUS
10
       -37.321
20
        15.459
30
        49.963
11
       -38.477
21
        15.938
31
        49.998
39
 0
62
 3
 0
LINE
8
default
6
CONTINUOUS
10
       -38.477
20
        15.938
30
        49.998
11
       -39.634
21
        16.417
31
        49.990
39
 0
62
 3
 0
LINE
8
default
6
CONTINUOUS
10
       -39.634
20
        16.417
30
        49.990
11
       -40.790
21
        16.896
31
        49.945
39
 0
62
 3
 0
LINE
8
default
6
CONTINUOUS
10
       -40.790
20
        16.896
30
        49.945
11
       -41.944
21
        17.374
31
        49.863
39
 0
62
 3
 0
LINE
8
default
6
CONTINUOUS
10
       -41.944
20
        17.374
30
        49.863
11
       -43.096
21
        17.851
31
        49.744
39
 0
62
 3
 0
LINE
8
default
6
CONTINUOUS
10
       -43.096
20
        17.851
30
        49.744
11
       -44.245
21
        18.327
31
        49.588
39
 0
62
 3
 0
LINE
8
default
6
CONTINUOUS
10
       -44.245
20
        18.327
30
        49.588
11
       -45.390
21
        18.801
31
        49.396
39
 0
62
 3
 0
LINE
8
default
6
CONTINUOUS
10
       -45.390
20
        18.801
30
        49.396
11
       -46.530
21
        19.273
31
        49.167
39
 0
62
 3
 0
LINE
8
default
6
CONTINUOUS
10
       -46.530
20
        19.273
30
        49.167
11
       -47.664
21
        19.743
31
        48.901
39
 0
62
 3
 0
LINE
8
default
6
CONTINUOUS
10
       -47.664
20
        19.743
30
        48.901
11
       -48.792
21
        20.210
31
        48.599
39
 0
62
 3
 0
LINE
8
default
6
CONTINUOUS
10
       -48.792
20
        20.210
30
        48.599
11
       -49.913
21
        20.674
31
        48.261
39
 0
62
 3
 0
LINE
8
default
6
CONTINUOUS
10
       -49.913
20
        20.674
30
        48.261
11
       -51.025
21
        21.135
31
        47.888
39
 0
62
 3
 0
LINE
8
default
6
CONTINUOUS
10
       -51.025
20
        21.135
30
        47.888
11
       -52.128
21
        21.592
31
        47.479
39
 0
62
 3
 0
LINE
8
default
6
CONTINUOUS
10
       -52.128
20
        21.592
30
        47.479
11
       -53.221
21
        22.045
31
        47.035
39
 0
62
 3
 0
LINE
8
default
6
CONTINUOUS
10
       -53.221
20
        22.045
30
        47.035
11
       -54.303
21
        22.493
31
        46.556
39
 0
62
 3
 0
LINE
8
default
6
CONTINUOUS
10
       -54.303
20
        22.493
30
        46.556
11
       -55.375
21
        22.937
31
        46.042
39
 0
62
 3
 0
LINE
8
default
6
CONTINUOUS
10
       -55.375
20
        22.937
30
        46.042
11
       -56.433
21
        23.375
31
        45.495
39
 0
62
 3
 0
LINE
8
default
6
CONTINUOUS
10
       -56.433
20
        23.375
30
        45.495
11
       -57.479
21
        23.809
31
        44.913
39
 0
62
 3
 0
LINE
8
default
6
CONTINUOUS
10
       -57.479
20
        23.809
30
        44.913
11
       -58.511
21
        24.236
31
        44.299
39
 0
62
 3
 0
LINE
8
default
6
CONTINUOUS
10
       -58.511
20
        24.236
30
        44.299
11
       -59.528
21
        24.657
31
        43.651
39
 0
62
 3
 0
LINE
8
default
6
CONTINUOUS
10
       -59.528
20
        24.657
30
        43.651
11
       -60.530
21
        25.072
31
        42.972
39
 0
62
 3
 0
LINE
8
default
6
CONTINUOUS
10
       -60.530
20
        25.072
30
        42.972
11
       -61.516
21
        25.481
31
        42.260
39
 0
62
 3
 0
LINE
8
default
6
CONTINUOUS
10
       -61.516
20
        25.481
30
        42.260
11
       -62.485
21
        25.882
31
        41.517
39
 0
62
 3
 0
LINE
8
default
6
CONTINUOUS
10
       -62.485
20
        25.882
30
        41.517
11
       -63.436
21
        26.276
31
        40.744
39
 0
62
 3
 0
LINE
8
default
6
CONTINUOUS
10
       -63.436
20
        26.276
30
        40.744
11
       -64.370
21
        26.663
31
        39.940
39
 0
62
 3
 0
LINE
8
default
6
CONTINUOUS
10
       -64.370
20
        26.663
30
        39.940
11
       -65.284
21
        27.042
31
        39.107
39
 0
62
 3
 0
LINE
8
default
6
CONTINUOUS
10
       -65.284
20
        27.042
30
        39.107
11
       -66.179
21
        27.412
31
        38.245
39
 0
62
 3
 0
LINE
8
default
6
CONTINUOUS
10
       -66.179
20
        27.412
30
        38.245
11
       -67.053
21
        27.774
31
        37.354
39
 0
62
 3
 0
LINE
8
default
6
CONTINUOUS
10
       -67.053
20
        27.774
30
        37.354
11
       -67.907
21
        28.128
31
        36.436
39
 0
62
 3
 0
LINE
8
default
6
CONTINUOUS
10
       -67.907
20
        28.128
30
        36.436
11
       -68.739
21
        28.472
31
        35.491
39
 0
62
 3
 0
LINE
8
default
6
CONTINUOUS
10
       -68.739
20
        28.472
30
        35.491
11
       -69.548
21
        28.808
31
        34.519
39
 0
62
 3
 0
LINE
8
default
6
CONTINUOUS
10
       -69.548
20
        28.808
30
        34.519
11
       -70.335
21
        29.134
31
        33.522
39
 0
62
 3
 0
LINE
8
default
6
CONTINUOUS
10
       -70.335
20
        29.134
30
        33.522
11
       -71.099
21
        29.450
31
        32.500
39
 0
62
 3
 0
LINE
8
default
6
CONTINUOUS
10
       -71.099
20
        29.450
30
        32.500
11
       -71.839
21
        29.757
31
        31.454
39
 0
62
 3
 0
LINE
8
default
6
CONTINUOUS
10
       -71.839
20
        29.757
30
        31.454
11
       -72.554
21
        30.053
31
        30.385
39
 0
62
 3
 0
LINE
8
default
6
CONTINUOUS
10
       -72.554
20
        30.053
30
        30.385
11
       -73.244
21
        30.339
31
        29.293
39
 0
62
 3
 0
LINE
8
default
6
CONTINUOUS
10
       -73.244
20
        30.339
30
        29.293
11
       -73.909
21
        30.614
31
        28.180
39
 0
62
 3
 0
LINE
8
default
6
CONTINUOUS
10
       -73.909
20
        30.614
30
        28.180
11
       -74.548
21
        30.879
31
        27.045
39
 0
62
 3
 0
LINE
8
default
6
CONTINUOUS
10
       -74.548
20
        30.879
30
        27.045
11
       -75.160
21
        31.132
31
        25.891
39
 0
62
 3
 0
LINE
8
default
6
CONTINUOUS
10
       -75.160
20
        31.132
30
        25.891
11
       -75.745
21
        31.375
31
        24.717
39
 0
62
 3
 0
LINE
8
default
6
CONTINUOUS
10
       -75.745
20
        31.375
30
        24.717
11
       -76.303
21
        31.606
31
        23.525
39
 0
62
 3
 0
LINE
8
default
6
CONTINUOUS
10
       -76.303
20
        31.606
30
        23.525
11
       -76.834
21
        31.826
31
        22.316
39
 0
62
 3
 0
LINE
8
default
6
CONTINUOUS
10
       -76.834
20
        31.826
30
        22.316
11
       -77.336
21
        32.033
31
        21.090
39
 0
62
 3
 0
LINE
8
default
6
CONTINUOUS
10
       -77.336
20
        32.033
30
        21.090
11
       -77.809
21
        32.230
31
        19.849
39
 0
62
 3
 0
LINE
8
default
6
CONTINUOUS
10
       -77.809
20
        32.230
30
        19.849
11
       -78.254
21
        32.414
31
        18.593
39
 0
62
 3
 0
LINE
8
default
6
CONTINUOUS
10
       -78.254
20
        32.414
30
        18.593
11
       -78.669
21
        32.586
31
        17.323
39
 0
62
 3
 0
LINE
8
default
6
CONTINUOUS
10
       -78.669
20
        32.586
30
        17.323
11
       -79.055
21
        32.746
31
        16.040
39
 0
62
 3
 0
LINE
8
default
6
CONTINUOUS
10
       -79.055
20
        32.746
30
        16.040
11
       -79.411
21
        32.893
31
        14.746
39
 0
62
 3
 0
LINE
8
default
6
CONTINUOUS
10
       -79.411
20
        32.893
30
        14.746
11
       -79.737
21
        33.028
31
        13.440
39
 0
62
 3
 0
LINE
8
default
6
CONTINUOUS
10
       -79.737
20
        33.028
30
        13.440
11
       -80.033
21
        33.151
31
        12.125
39
 0
62
 3
 0
LINE
8
default
6
CONTINUOUS
10
       -80.033
20
        33.151
30
        12.125
11
       -80.298
21
        33.261
31
        10.800
39
 0
62
 3
 0
LINE
8
default
6
CONTINUOUS
10
       -80.298
20
        33.261
30
        10.800
11
       -80.533
21
        33.358
31
         9.468
39
 0
62
 3
 0
LINE
8
default
6
CONTINUOUS
10
       -80.533
20
        33.358
30
         9.468
11
       -80.736
21
        33.442
31
         8.128
39
 0
62
 3
 0
LINE
8
default
6
CONTINUOUS
10
       -80.736
20
        33.442
30
         8.128
11
       -80.909
21
        33.513
31
         6.783
39
 0
62
 3
 0
LINE
8
default
6
CONTINUOUS
10
       -80.909
20
        33.513
30
         6.783
11
       -81.050
21
        33.572
31
         5.432
39
 0
62
 3
 0
LINE
8
default
6
CONTINUOUS
10
       -81.050
20
        33.572
30
         5.432
11
       -81.160
21
        33.618
31
         4.078
39
 0
62
 3
 0
LINE
8
default
6
CONTINUOUS
10
       -81.160
20
        33.618
30
         4.078
11
       -81.238
21
        33.650
31
         2.720
39
 0
62
 3
 0
LINE
8
default
6
CONTINUOUS
10
       -81.238
20
        33.650
30
         2.720
11
       -81.286
21
        33.670
31
         1.361
39
 0
62
 3
 0
LINE
8
default
6
CONTINUOUS
10
       -81.286
20
        33.670
30
         1.361
11
       -81.301
21
        33.676
31
        -0.000
39
 0
62
 3
 0
LINE
8
default
6
CONTINUOUS
10
        -0.000
20
        -0.000
30
        16.000
11
        -0.486
21
        -0.201
31
        17.344
39
 0
62
 3
 0
LINE
8
default
6
CONTINUOUS
10
        -0.486
20
        -0.201
30
        17.344
11
        -1.000
21
        -0.414
31
        18.677
39
 0
62
 3
 0
LINE
8
default
6
CONTINUOUS
10
        -1.000
20
        -0.414
30
        18.677
11
        -1.543
21
        -0.639
31
        19.998
39
 0
62
 3
 0
LINE
8
default
6
CONTINUOUS
10
        -1.543
20
        -0.639
30
        19.998
11
        -2.113
21
        -0.875
31
        21.305
39
 0
62
 3
 0
LINE
8
default
6
CONTINUOUS
10
        -2.113
20
        -0.875
30
        21.305
11
        -2.710
21
        -1.123
31
        22.597
39
 0
62
 3
 0
LINE
8
default
6
CONTINUOUS
10
        -2.710
20
        -1.123
30
        22.597
11
        -3.334
21
        -1.381
31
        23.873
39
 0
62
 3
 0
LINE
8
default
6
CONTINUOUS
10
        -3.334
20
        -1.381
30
        23.873
11
        -3.984
21
        -1.650
31
        25.131
39
 0
62
 3
 0
LINE
8
default
6
CONTINUOUS
10
        -3.984
20
        -1.650
30
        25.131
11
        -4.660
21
        -1.930
31
        26.371
39
 0
62
 3
 0
LINE
8
default
6
CONTINUOUS
10
        -4.660
20
        -1.930
30
        26.371
11
        -5.361
21
        -2.221
31
        27.592
39
 0
62
 3
 0
LINE
8
default
6
CONTINUOUS
10
        -5.361
20
        -2.221
30
        27.592
11
        -6.087
21
        -2.521
31
        28.791
39
 0
62
 3
 0
LINE
8
default
6
CONTINUOUS
10
        -6.087
20
        -2.521
30
        28.791
11
        -6.838
21
        -2.832
31
        29.968
39
 0
62
 3
 0
LINE
8
default
6
CONTINUOUS
10
        -6.838
20
        -2.832
30
        29.968
11
        -7.612
21
        -3.153
31
        31.122
39
 0
62
 3
 0
LINE
8
default
6
CONTINUOUS
10
        -7.612
20
        -3.153
30
        31.122
11
        -8.409
21
        -3.483
31
        32.251
39
 0
62
 3
 0
LINE
8
default
6
CONTINUOUS
10
        -8.409
20
        -3.483
30
        32.251
11
        -9.228
21
        -3.822
31
        33.355
39
 0
62
 3
 0
LINE
8
default
6
CONTINUOUS
10
        -9.228
20
        -3.822
30
        33.355
11
       -10.070
21
        -4.171
31
        34.431
39
 0
62
 3
 0
LINE
8
default
6
CONTINUOUS
10
       -10.070
20
        -4.171
30
        34.431
11
       -10.932
21
        -4.528
31
        35.480
39
 0
62
 3
 0
LINE
8
default
6
CONTINUOUS
10
       -10.932
20
        -4.528
30
        35.480
11
       -11.816
21
        -4.894
31
        36.500
39
 0
62
 3
 0
LINE
8
default
6
CONTINUOUS
10
       -11.816
20
        -4.894
30
        36.500
11
       -12.719
21
        -5.268
31
        37.489
39
 0
62
 3
 0
LINE
8
default
6
CONTINUOUS
10
       -12.719
20
        -5.268
30
        37.489
11
       -13.642
21
        -5.651
31
        38.448
39
 0
62
 3
 0
LINE
8
default
6
CONTINUOUS
10
       -13.642
20
        -5.651
30
        38.448
11
       -14.583
21
        -6.040
31
        39.374
39
 0
62
 3
 0
LINE
8
default
6
CONTINUOUS
10
       -14.583
20
        -6.040
30
        39.374
11
       -15.542
21
        -6.438
31
        40.267
39
 0
62
 3
 0
LINE
8
default
6
CONTINUOUS
10
       -15.542
20
        -6.438
30
        40.267
11
       -16.519
21
        -6.842
31
        41.126
39
 0
62
 3
 0
LINE
8
default
6
CONTINUOUS
10
       -16.519
20
        -6.842
30
        41.126
11
       -17.512
21
        -7.254
31
        41.950
39
 0
62
 3
 0
LINE
8
default
6
CONTINUOUS
10
       -17.512
20
        -7.254
30
        41.950
11
       -18.520
21
        -7.671
31
        42.738
39
 0
62
 3
 0
LINE
8
default
6
CONTINUOUS
10
       -18.520
20
        -7.671
30
        42.738
11
       -19.544
21
        -8.095
31
        43.489
39
 0
62
 3
 0
LINE
8
default
6
CONTINUOUS
10
       -19.544
20
        -8.095
30
        43.489
11
       -20.582
21
        -8.525
31
        44.203
39
 0
62
 3
 0
LINE
8
default
6
CONTINUOUS
10
       -20.582
20
        -8.525
30
        44.203
11
       -21.634
21
        -8.961
31
        44.878
39
 0
62
 3
 0
LINE
8
default
6
CONTINUOUS
10
       -21.634
20
        -8.961
30
        44.878
11
       -22.698
21
        -9.402
31
        45.514
39
 0
62
 3
 0
LINE
8
default
6
CONTINUOUS
10
       -22.698
20
        -9.402
30
        45.514
11
       -23.774
21
        -9.847
31
        46.110
39
 0
62
 3
 0
LINE
8
default
6
CONTINUOUS
10
       -23.774
20
        -9.847
30
        46.110
11
       -24.861
21
       -10.298
31
        46.666
39
 0
62
 3
 0
LINE
8
default
6
CONTINUOUS
10
       -24.861
20
       -10.298
30
        46.666
11
       -25.959
21
       -10.753
31
        47.180
39
 0
62
 3
 0
LINE
8
default
6
CONTINUOUS
10
       -25.959
20
       -10.753
30
        47.180
11
       -27.066
21
       -11.211
31
        47.653
39
 0
62
 3
 0
LINE
8
default
6
CONTINUOUS
10
       -27.066
20
       -11.211
30
        47.653
11
       -28.182
21
       -11.673
31
        48.084
39
 0
62
 3
 0
LINE
8
default
6
CONTINUOUS
10
       -28.182
20
       -11.673
30
        48.084
11
       -29.305
21
       -12.139
31
        48.472
39
 0
62
 3
 0
LINE
8
default
6
CONTINUOUS
10
       -29.305
20
       -12.139
30
        48.472
11
       -30.436
21
       -12.607
31
        48.817
39
 0
62
 3
 0
LINE
8
default
6
CONTINUOUS
10
       -30.436
20
       -12.607
30
        48.817
11
       -31.573
21
       -13.078
31
        49.119
39
 0
62
 3
 0
LINE
8
default
6
CONTINUOUS
10
       -31.573
20
       -13.078
30
        49.119
11
       -32.715
21
       -13.551
31
        49.376
39
 0
62
 3
 0
LINE
8
default
6
CONTINUOUS
10
       -32.715
20
       -13.551
30
        49.376
11
       -33.862
21
       -14.026
31
        49.590
39
 0
62
 3
 0
LINE
8
default
6
CONTINUOUS
10
       -33.862
20
       -14.026
30
        49.590
11
       -35.013
21
       -14.503
31
        49.759
39
 0
62
 3
 0
LINE
8
default
6
CONTINUOUS
10
       -35.013
20
       -14.503
30
        49.759
11
       -36.166
21
       -14.980
31
        49.883
39
 0
62
 3
 0
LINE
8
default
6
CONTINUOUS
10
       -36.166
20
       -14.980
30
        49.883
11
       -37.321
21
       -15.459
31
        49.963
39
 0
62
 3
 0
LINE
8
default
6
CONTINUOUS
10
       -37.321
20
       -15.459
30
        49.963
11
       -38.477
21
       -15.938
31
        49.998
39
 0
62
 3
 0
LINE
8
default
6
CONTINUOUS
10
       -38.477
20
       -15.938
30
        49.998
11
       -39.634
21
       -16.417
31
        49.990
39
 0
62
 3
 0
LINE
8
default
6
CONTINUOUS
10
       -39.634
20
       -16.417
30
        49.990
11
       -40.790
21
       -16.896
31
        49.945
39
 0
62
 3
 0
LINE
8
default
6
CONTINUOUS
10
       -40.790
20
       -16.896
30
        49.945
11
       -41.944
21
       -17.374
31
        49.863
39
 0
62
 3
 0
LINE
8
default
6
CONTINUOUS
10
       -41.944
20
       -17.374
30
        49.863
11
       -43.096
21
       -17.851
31
        49.744
39
 0
62
 3
 0
LINE
8
default
6
CONTINUOUS
10
       -43.096
20
       -17.851
30
        49.744
11
       -44.245
21
       -18.327
31
        49.588
39
 0
62
 3
 0
LINE
8
default
6
CONTINUOUS
10
       -44.245
20
       -18.327
30
        49.588
11
       -45.390
21
       -18.801
31
        49.396
39
 0
62
 3
 0
LINE
8
default
6
CONTINUOUS
10
       -45.390
20
       -18.801
30
        49.396
11
       -46.530
21
       -19.273
31
        49.167
39
 0
62
 3
 0
LINE
8
default
6
CONTINUOUS
10
       -46.530
20
       -19.273
30
        49.167
11
       -47.664
21
       -19.743
31
        48.901
39
 0
62
 3
 0
LINE
8
default
6
CONTINUOUS
10
       -47.664
20
       -19.743
30
        48.901
11
       -48.792
21
       -20.210
31
        48.599
39
 0
62
 3
 0
LINE
8
default
6
CONTINUOUS
10
       -48.792
20
       -20.210
30
        48.599
11
       -49.913
21
       -20.674
31
        48.261
39
 0
62
 3
 0
LINE
8
default
6
CONTINUOUS
10
       -49.913
20
       -20.674
30
        48.261
11
       -51.025
21
       -21.135
31
        47.888
39
 0
62
 3
 0
LINE
8
default
6
CONTINUOUS
10
       -51.025
20
       -21.135
30
        47.888
11
       -52.128
21
       -21.592
31
        47.479
39
 0
62
 3
 0
LINE
8
default
6
CONTINUOUS
10
       -52.128
20
       -21.592
30
        47.479
11
       -53.221
21
       -22.045
31
        47.035
39
 0
62
 3
 0
LINE
8
default
6
CONTINUOUS
10
       -53.221
20
       -22.045
30
        47.035
11
       -54.303
21
       -22.493
31
        46.556
39
 0
62
 3
 0
LINE
8
default
6
CONTINUOUS
10
       -54.303
20
       -22.493
30
        46.556
11
       -55.375
21
       -22.937
31
        46.042
39
 0
62
 3
 0
LINE
8
default
6
CONTINUOUS
10
       -55.375
20
       -22.937
30
        46.042
11
       -56.433
21
       -23.375
31
        45.495
39
 0
62
 3
 0
LINE
8
default
6
CONTINUOUS
10
       -56.433
20
       -23.375
30
        45.495
11
       -57.479
21
       -23.809
31
        44.913
39
 0
62
 3
 0
LINE
8
default
6
CONTINUOUS
10
       -57.479
20
       -23.809
30
        44.913
11
       -58.511
21
       -24.236
31
        44.299
39
 0
62
 3
 0
LINE
8
default
6
CONTINUOUS
10
       -58.511
20
       -24.236
30
        44.299
11
       -59.528
21
       -24.657
31
        43.651
39
 0
62
 3
 0
LINE
8
default
6
CONTINUOUS
10
       -59.528
20
       -24.657
30
        43.651
11
       -60.530
21
       -25.072
31
        42.972
39
 0
62
 3
 0
LINE
8
default
6
CONTINUOUS
10
       -60.530
20
       -25.072
30
        42.972
11
       -61.516
21
       -25.481
31
        42.260
39
 0
62
 3
 0
LINE
8
default
6
CONTINUOUS
10
       -61.516
20
       -25.481
30
        42.260
11
       -62.485
21
       -25.882
31
        41.517
39
 0
62
 3
 0
LINE
8
default
6
CONTINUOUS
10
       -62.485
20
       -25.882
30
        41.517
11
       -63.436
21
       -26.276
31
        40.744
39
 0
62
 3
 0
LINE
8
default
6
CONTINUOUS
10
       -63.436
20
       -26.276
30
        40.744
11
       -64.370
21
       -26.663
31
        39.940
39
 0
62
 3
 0
LINE
8
default
6
CONTINUOUS
10
       -64.370
20
       -26.663
30
        39.940
11
       -65.284
21
       -27.042
31
        39.107
39
 0
62
 3
 0
LINE
8
default
6
CONTINUOUS
10
       -65.284
20
       -27.042
30
        39.107
11
       -66.179
21
       -27.412
31
        38.245
39
 0
62
 3
 0
LINE
8
default
6
CONTINUOUS
10
       -66.179
20
       -27.412
30
        38.245
11
       -67.053
21
       -27.774
31
        37.354
39
 0
62
 3
 0
LINE
8
default
6
CONTINUOUS
10
       -67.053
20
       -27.774
30
        37.354
11
       -67.907
21
       -28.128
31
        36.436
39
 0
62
 3
 0
LINE
8
default
6
CONTINUOUS
10
       -67.907
20
       -28.128
30
        36.436
11
       -68.739
21
       -28.472
31
        35.491
39
 0
62
 3
 0
LINE
8
default
6
CONTINUOUS
10
       -68.739
20
       -28.472
30
        35.491
11
       -69.548
21
       -28.808
31
        34.519
39
 0
62
 3
 0
LINE
8
default
6
CONTINUOUS
10
       -69.548
20
       -28.808
30
        34.519
11
       -70.335
21
       -29.134
31
        33.522
39
 0
62
 3
 0
LINE
8
default
6
CONTINUOUS
10
       -70.335
20
       -29.134
30
        33.522
11
       -71.099
21
       -29.450
31
        32.500
39
 0
62
 3
 0
LINE
8
default
6
CONTINUOUS
10
       -71.099
20
       -29.450
30
        32.500
11
       -71.839
21
       -29.757
31
        31.454
39
 0
62
 3
 0
LINE
8
default
6
CONTINUOUS
10
       -71.839
20
       -29.757
30
        31.454
11
       -72.554
21
       -30.053
31
        30.385
39
 0
62
 3
 0
LINE
8
default
6
CONTINUOUS
10
       -72.554
20
       -30.053
30
        30.385
11
       -73.244
21
       -30.339
31
        29.293
39
 0
62
 3
 0
LINE
8
default
6
CONTINUOUS
10
       -73.244
20
       -30.339
30
        29.293
11
       -73.909
21
       -30.614
31
        28.180
39
 0
62
 3
 0
LINE
8
default
6
CONTINUOUS
10
       -73.909
20
       -30.614
30
        28.180
11
       -74.548
21
       -30.879
31
        27.045
39
 0
62
 3
 0
LINE
8
default
6
CONTINUOUS
10
       -74.548
20
       -30.879
30
        27.045
11
       -75.160
21
       -31.132
31
        25.891
39
 0
62
 3
 0
LINE
8
default
6
CONTINUOUS
10
       -75.160
20
       -31.132
30
        25.891
11
       -75.745
21
       -31.375
31
        24.717
39
 0
62
 3
 0
LINE
8
default
6
CONTINUOUS
10
       -75.745
20
       -31.375
30
        24.717
11
       -76.303
21
       -31.606
31
        23.525
39
 0
62
 3
 0
LINE
8
default
6
CONTINUOUS
10
       -76.303
20
       -31.606
30
        23.525
11
       -76.834
21
       -31.826
31
        22.316
39
 0
62
 3
 0
LINE
8
default
6
CONTINUOUS
10
       -76.834
20
       -31.826
30
        22.316
11
       -77.336
21
       -32.033
31
        21.090
39
 0
62
 3
 0
LINE
8
default
6
CONTINUOUS
10
       -77.336
20
       -32.033
30
        21.090
11
       -77.809
21
       -32.230
31
        19.849
39
 0
62
 3
 0
LINE
8
default
6
CONTINUOUS
10
       -77.809
20
       -32.230
30
        19.849
11
       -78.254
21
       -32.414
31
        18.593
39
 0
62
 3
 0
LINE
8
default
6
CONTINUOUS
10
       -78.254
20
       -32.414
30
        18.593
11
       -78.669
21
       -32.586
31
        17.323
39
 0
62
 3
 0
LINE
8
default
6
CONTINUOUS
10
       -78.669
20
       -32.586
30
        17.323
11
       -79.055
21
       -32.746
31
        16.040
39
 0
62
 3
 0
LINE
8
default
6
CONTINUOUS
10
       -79.055
20
       -32.746
30
        16.040
11
       -79.411
21
       -32.893
31
        14.746
39
 0
62
 3
 0
LINE
8
default
6
CONTINUOUS
10
       -79.411
20
       -32.893
30
        14.746
11
       -79.737
21
       -33.028
31
        13.440
39
 0
62
 3
 0
LINE
8
default
6
CONTINUOUS
10
       -79.737
20
       -33.028
30
        13.440
11
       -80.033
21
       -33.151
31
        12.125
39
 0
62
 3
 0
LINE
8
default
6
CONTINUOUS
10
       -80.033
20
       -33.151
30
        12.125
11
       -80.298
21
       -33.261
31
        10.800
39
 0
62
 3
 0
LINE
8
default
6
CONTINUOUS
10
       -80.298
20
       -33.261
30
        10.800
11
       -80.533
21
       -33.358
31
         9.468
39
 0
62
 3
 0
LINE
8
default
6
CONTINUOUS
10
       -80.533
20
       -33.358
30
         9.468
11
       -80.736
21
       -33.442
31
         8.128
39
 0
62
 3
 0
LINE
8
default
6
CONTINUOUS
10
       -80.736
20
       -33.442
30
         8.128
11
       -80.909
21
       -33.513
31
         6.783
39
 0
62
 3
 0
LINE
8
default
6
CONTINUOUS
10
       -80.909
20
       -33.513
30
         6.783
11
       -81.050
21
       -33.572
31
         5.432
39
 0
62
 3
 0
LINE
8
default
6
CONTINUOUS
10
       -81.050
20
       -33.572
30
         5.432
11
       -81.160
21
       -33.618
31
         4.078
39
 0
62
 3
 0
LINE
8
default
6
CONTINUOUS
10
       -81.160
20
       -33.618
30
         4.078
11
       -81.238
21
       -33.650
31
         2.720
39
 0
62
 3
 0
LINE
8
default
6
CONTINUOUS
10
       -81.238
20
       -33.650
30
         2.720
11
       -81.286
21
       -33.670
31
         1.361
39
 0
62
 3
 0
LINE
8
default
6
CONTINUOUS
10
       -81.286
20
       -33.670
30
         1.361
11
       -81.301
21
       -33.676
31
        -0.000
39
 0
62
 3
 0
LINE
8
default
6
CONTINUOUS
10
        -0.000
20
        -0.000
30
        16.000
11
        -0.201
21
        -0.486
31
        17.344
39
 0
62
 3
 0
LINE
8
default
6
CONTINUOUS
10
        -0.201
20
        -0.486
30
        17.344
11
        -0.414
21
        -1.000
31
        18.677
39
 0
62
 3
 0
LINE
8
default
6
CONTINUOUS
10
        -0.414
20
        -1.000
30
        18.677
11
        -0.639
21
        -1.543
31
        19.998
39
 0
62
 3
 0
LINE
8
default
6
CONTINUOUS
10
        -0.639
20
        -1.543
30
        19.998
11
        -0.875
21
        -2.113
31
        21.305
39
 0
62
 3
 0
LINE
8
default
6
CONTINUOUS
10
        -0.875
20
        -2.113
30
        21.305
11
        -1.123
21
        -2.710
31
        22.597
39
 0
62
 3
 0
LINE
8
default
6
CONTINUOUS
10
        -1.123
20
        -2.710
30
        22.597
11
        -1.381
21
        -3.334
31
        23.873
39
 0
62
 3
 0
LINE
8
default
6
CONTINUOUS
10
        -1.381
20
        -3.334
30
        23.873
11
        -1.650
21
        -3.984
31
        25.131
39
 0
62
 3
 0
LINE
8
default
6
CONTINUOUS
10
        -1.650
20
        -3.984
30
        25.131
11
        -1.930
21
        -4.660
31
        26.371
39
 0
62
 3
 0
LINE
8
default
6
CONTINUOUS
10
        -1.930
20
        -4.660
30
        26.371
11
        -2.221
21
        -5.361
31
        27.592
39
 0
62
 3
 0
LINE
8
default
6
CONTINUOUS
10
        -2.221
20
        -5.361
30
        27.592
11
        -2.521
21
        -6.087
31
        28.791
39
 0
62
 3
 0
LINE
8
default
6
CONTINUOUS
10
        -2.521
20
        -6.087
30
        28.791
11
        -2.832
21
        -6.838
31
        29.968
39
 0
62
 3
 0
LINE
8
default
6
CONTINUOUS
10
        -2.832
20
        -6.838
30
        29.968
11
        -3.153
21
        -7.612
31
        31.122
39
 0
62
 3
 0
LINE
8
default
6
CONTINUOUS
10
        -3.153
20
        -7.612
30
        31.122
11
        -3.483
21
        -8.409
31
        32.251
39
 0
62
 3
 0
LINE
8
default
6
CONTINUOUS
10
        -3.483
20
        -8.409
30
        32.251
11
        -3.822
21
        -9.228
31
        33.355
39
 0
62
 3
 0
LINE
8
default
6
CONTINUOUS
10
        -3.822
20
        -9.228
30
        33.355
11
        -4.171
21
       -10.070
31
        34.431
39
 0
62
 3
 0
LINE
8
default
6
CONTINUOUS
10
        -4.171
20
       -10.070
30
        34.431
11
        -4.528
21
       -10.932
31
        35.480
39
 0
62
 3
 0
LINE
8
default
6
CONTINUOUS
10
        -4.528
20
       -10.932
30
        35.480
11
        -4.894
21
       -11.816
31
        36.500
39
 0
62
 3
 0
LINE
8
default
6
CONTINUOUS
10
        -4.894
20
       -11.816
30
        36.500
11
        -5.268
21
       -12.719
31
        37.489
39
 0
62
 3
 0
LINE
8
default
6
CONTINUOUS
10
        -5.268
20
       -12.719
30
        37.489
11
        -5.651
21
       -13.642
31
        38.448
39
 0
62
 3
 0
LINE
8
default
6
CONTINUOUS
10
        -5.651
20
       -13.642
30
        38.448
11
        -6.040
21
       -14.583
31
        39.374
39
 0
62
 3
 0
LINE
8
default
6
CONTINUOUS
10
        -6.040
20
       -14.583
30
        39.374
11
        -6.438
21
       -15.542
31
        40.267
39
 0
62
 3
 0
LINE
8
default
6
CONTINUOUS
10
        -6.438
20
       -15.542
30
        40.267
11
        -6.842
21
       -16.519
31
        41.126
39
 0
62
 3
 0
LINE
8
default
6
CONTINUOUS
10
        -6.842
20
       -16.519
30
        41.126
11
        -7.254
21
       -17.512
31
        41.950
39
 0
62
 3
 0
LINE
8
default
6
CONTINUOUS
10
        -7.254
20
       -17.512
30
        41.950
11
        -7.671
21
       -18.520
31
        42.738
39
 0
62
 3
 0
LINE
8
default
6
CONTINUOUS
10
        -7.671
20
       -18.520
30
        42.738
11
        -8.095
21
       -19.544
31
        43.489
39
 0
62
 3
 0
LINE
8
default
6
CONTINUOUS
10
        -8.095
20
       -19.544
30
        43.489
11
        -8.525
21
       -20.582
31
        44.203
39
 0
62
 3
 0
LINE
8
default
6
CONTINUOUS
10
        -8.525
20
       -20.582
30
        44.203
11
        -8.961
21
       -21.634
31
        44.878
39
 0
62
 3
 0
LINE
8
default
6
CONTINUOUS
10
        -8.961
20
       -21.634
30
        44.878
11
        -9.402
21
       -22.698
31
        45.514
39
 0
62
 3
 0
LINE
8
default
6
CONTINUOUS
10
        -9.402
20
       -22.698
30
        45.514
11
        -9.847
21
       -23.774
31
        46.110
39
 0
62
 3
 0
LINE
8
default
6
CONTINUOUS
10
        -9.847
20
       -23.774
30
        46.110
11
       -10.298
21
       -24.861
31
        46.666
39
 0
62
 3
 0
LINE
8
default
6
CONTINUOUS
10
       -10.298
20
       -24.861
30
        46.666
11
       -10.753
21
       -25.959
31
        47.180
39
 0
62
 3
 0
LINE
8
default
6
CONTINUOUS
10
       -10.753
20
       -25.959
30
        47.180
11
       -11.211
21
       -27.066
31
        47.653
39
 0
62
 3
 0
LINE
8
default
6
CONTINUOUS
10
       -11.211
20
       -27.066
30
        47.653
11
       -11.673
21
       -28.182
31
        48.084
39
 0
62
 3
 0
LINE
8
default
6
CONTINUOUS
10
       -11.673
20
       -28.182
30
        48.084
11
       -12.139
21
       -29.305
31
        48.472
39
 0
62
 3
 0
LINE
8
default
6
CONTINUOUS
10
       -12.139
20
       -29.305
30
        48.472
11
       -12.607
21
       -30.436
31
        48.817
39
 0
62
 3
 0
LINE
8
default
6
CONTINUOUS
10
       -12.607
20
       -30.436
30
        48.817
11
       -13.078
21
       -31.573
31
        49.119
39
 0
62
 3
 0
LINE
8
default
6
CONTINUOUS
10
       -13.078
20
       -31.573
30
        49.119
11
       -13.551
21
       -32.715
31
        49.376
39
 0
62
 3
 0
LINE
8
default
6
CONTINUOUS
10
       -13.551
20
       -32.715
30
        49.376
11
       -14.026
21
       -33.862
31
        49.590
39
 0
62
 3
 0
LINE
8
default
6
CONTINUOUS
10
       -14.026
20
       -33.862
30
        49.590
11
       -14.503
21
       -35.013
31
        49.759
39
 0
62
 3
 0
LINE
8
default
6
CONTINUOUS
10
       -14.503
20
       -35.013
30
        49.759
11
       -14.980
21
       -36.166
31
        49.883
39
 0
62
 3
 0
LINE
8
default
6
CONTINUOUS
10
       -14.980
20
       -36.166
30
        49.883
11
       -15.459
21
       -37.321
31
        49.963
39
 0
62
 3
 0
LINE
8
default
6
CONTINUOUS
10
       -15.459
20
       -37.321
30
        49.963
11
       -15.938
21
       -38.477
31
        49.998
39
 0
62
 3
 0
LINE
8
default
6
CONTINUOUS
10
       -15.938
20
       -38.477
30
        49.998
11
       -16.417
21
       -39.634
31
        49.990
39
 0
62
 3
 0
LINE
8
default
6
CONTINUOUS
10
       -16.417
20
       -39.634
30
        49.990
11
       -16.896
21
       -40.790
31
        49.945
39
 0
62
 3
 0
LINE
8
default
6
CONTINUOUS
10
       -16.896
20
       -40.790
30
        49.945
11
       -17.374
21
       -41.944
31
        49.863
39
 0
62
 3
 0
LINE
8
default
6
CONTINUOUS
10
       -17.374
20
       -41.944
30
        49.863
11
       -17.851
21
       -43.096
31
        49.744
39
 0
62
 3
 0
LINE
8
default
6
CONTINUOUS
10
       -17.851
20
       -43.096
30
        49.744
11
       -18.327
21
       -44.245
31
        49.588
39
 0
62
 3
 0
LINE
8
default
6
CONTINUOUS
10
       -18.327
20
       -44.245
30
        49.588
11
       -18.801
21
       -45.390
31
        49.396
39
 0
62
 3
 0
LINE
8
default
6
CONTINUOUS
10
       -18.801
20
       -45.390
30
        49.396
11
       -19.273
21
       -46.530
31
        49.167
39
 0
62
 3
 0
LINE
8
default
6
CONTINUOUS
10
       -19.273
20
       -46.530
30
        49.167
11
       -19.743
21
       -47.664
31
        48.901
39
 0
62
 3
 0
LINE
8
default
6
CONTINUOUS
10
       -19.743
20
       -47.664
30
        48.901
11
       -20.210
21
       -48.792
31
        48.599
39
 0
62
 3
 0
LINE
8
default
6
CONTINUOUS
10
       -20.210
20
       -48.792
30
        48.599
11
       -20.674
21
       -49.913
31
        48.261
39
 0
62
 3
 0
LINE
8
default
6
CONTINUOUS
10
       -20.674
20
       -49.913
30
        48.261
11
       -21.135
21
       -51.025
31
        47.888
39
 0
62
 3
 0
LINE
8
default
6
CONTINUOUS
10
       -21.135
20
       -51.025
30
        47.888
11
       -21.592
21
       -52.128
31
        47.479
39
 0
62
 3
 0
LINE
8
default
6
CONTINUOUS
10
       -21.592
20
       -52.128
30
        47.479
11
       -22.045
21
       -53.221
31
        47.035
39
 0
62
 3
 0
LINE
8
default
6
CONTINUOUS
10
       -22.045
20
       -53.221
30
        47.035
11
       -22.493
21
       -54.303
31
        46.556
39
 0
62
 3
 0
LINE
8
default
6
CONTINUOUS
10
       -22.493
20
       -54.303
30
        46.556
11
       -22.937
21
       -55.375
31
        46.042
39
 0
62
 3
 0
LINE
8
default
6
CONTINUOUS
10
       -22.937
20
       -55.375
30
        46.042
11
       -23.375
21
       -56.433
31
        45.495
39
 0
62
 3
 0
LINE
8
default
6
CONTINUOUS
10
       -23.375
20
       -56.433
30
        45.495
11
       -23.809
21
       -57.479
31
        44.913
39
 0
62
 3
 0
LINE
8
default
6
CONTINUOUS
10
       -23.809
20
       -57.479
30
        44.913
11
       -24.236
21
       -58.511
31
        44.299
39
 0
62
 3
 0
LINE
8
default
6
CONTINUOUS
10
       -24.236
20
       -58.511
30
        44.299
11
       -24.657
21
       -59.528
31
        43.651
39
 0
62
 3
 0
LINE
8
default
6
CONTINUOUS
10
       -24.657
20
       -59.528
30
        43.651
11
       -25.072
21
       -60.530
31
        42.972
39
 0
62
 3
 0
LINE
8
default
6
CONTINUOUS
10
       -25.072
20
       -60.530
30
        42.972
11
       -25.481
21
       -61.516
31
        42.260
39
 0
62
 3
 0
LINE
8
default
6
CONTINUOUS
10
       -25.481
20
       -61.516
30
        42.260
11
       -25.882
21
       -62.485
31
        41.517
39
 0
62
 3
 0
LINE
8
default
6
CONTINUOUS
10
       -25.882
20
       -62.485
30
        41.517
11
       -26.276
21
       -63.436
31
        40.744
39
 0
62
 3
 0
LINE
8
default
6
CONTINUOUS
10
       -26.276
20
       -63.436
30
        40.744
11
       -26.663
21
       -64.370
31
        39.940
39
 0
62
 3
 0
LINE
8
default
6
CONTINUOUS
10
       -26.663
20
       -64.370
30
        39.940
11
       -27.042
21
       -65.284
31
        39.107
39
 0
62
 3
 0
LINE
8
default
6
CONTINUOUS
10
       -27.042
20
       -65.284
30
        39.107
11
       -27.412
21
       -66.179
31
        38.245
39
 0
62
 3
 0
LINE
8
default
6
CONTINUOUS
10
       -27.412
20
       -66.179
30
        38.245
11
       -27.774
21
       -67.053
31
        37.354
39
 0
62
 3
 0
LINE
8
default
6
CONTINUOUS
10
       -27.774
20
       -67.053
30
        37.354
11
       -28.128
21
       -67.907
31
        36.436
39
 0
62
 3
 0
LINE
8
default
6
CONTINUOUS
10
       -28.128
20
       -67.907
30
        36.436
11
       -28.472
21
       -68.739
31
        35.491
39
 0
62
 3
 0
LINE
8
default
6
CONTINUOUS
10
       -28.472
20
       -68.739
30
        35.491
11
       -28.808
21
       -69.548
31
        34.519
39
 0
62
 3
 0
LINE
8
default
6
CONTINUOUS
10
       -28.808
20
       -69.548
30
        34.519
11
       -29.134
21
       -70.335
31
        33.522
39
 0
62
 3
 0
LINE
8
default
6
CONTINUOUS
10
       -29.134
20
       -70.335
30
        33.522
11
       -29.450
21
       -71.099
31
        32.500
39
 0
62
 3
 0
LINE
8
default
6
CONTINUOUS
10
       -29.450
20
       -71.099
30
        32.500
11
       -29.757
21
       -71.839
31
        31.454
39
 0
62
 3
 0
LINE
8
default
6
CONTINUOUS
10
       -29.757
20
       -71.839
30
        31.454
11
       -30.053
21
       -72.554
31
        30.385
39
 0
62
 3
 0
LINE
8
default
6
CONTINUOUS
10
       -30.053
20
       -72.554
30
        30.385
11
       -30.339
21
       -73.244
31
        29.293
39
 0
62
 3
 0
LINE
8
default
6
CONTINUOUS
10
       -30.339
20
       -73.244
30
        29.293
11
       -30.614
21
       -73.909
31
        28.180
39
 0
62
 3
 0
LINE
8
default
6
CONTINUOUS
10
       -30.614
20
       -73.909
30
        28.180
11
       -30.879
21
       -74.548
31
        27.045
39
 0
62
 3
 0
LINE
8
default
6
CONTINUOUS
10
       -30.879
20
       -74.548
30
        27.045
11
       -31.132
21
       -75.160
31
        25.891
39
 0
62
 3
 0
LINE
8
default
6
CONTINUOUS
10
       -31.132
20
       -75.160
30
        25.891
11
       -31.375
21
       -75.745
31
        24.717
39
 0
62
 3
 0
LINE
8
default
6
CONTINUOUS
10
       -31.375
20
       -75.745
30
        24.717
11
       -31.606
21
       -76.303
31
        23.525
39
 0
62
 3
 0
LINE
8
default
6
CONTINUOUS
10
       -31.606
20
       -76.303
30
        23.525
11
       -31.826
21
       -76.834
31
        22.316
39
 0
62
 3
 0
LINE
8
default
6
CONTINUOUS
10
       -31.826
20
       -76.834
30
        22.316
11
       -32.033
21
       -77.336
31
        21.090
39
 0
62
 3
 0
LINE
8
default
6
CONTINUOUS
10
       -32.033
20
       -77.336
30
        21.090
11
       -32.230
21
       -77.809
31
        19.849
39
 0
62
 3
 0
LINE
8
default
6
CONTINUOUS
10
       -32.230
20
       -77.809
30
        19.849
11
       -32.414
21
       -78.254
31
        18.593
39
 0
62
 3
 0
LINE
8
default
6
CONTINUOUS
10
       -32.414
20
       -78.254
30
        18.593
11
       -32.586
21
       -78.669
31
        17.323
39
 0
62
 3
 0
LINE
8
default
6
CONTINUOUS
10
       -32.586
20
       -78.669
30
        17.323
11
       -32.746
21
       -79.055
31
        16.040
39
 0
62
 3
 0
LINE
8
default
6
CONTINUOUS
10
       -32.746
20
       -79.055
30
        16.040
11
       -32.893
21
       -79.411
31
        14.746
39
 0
62
 3
 0
LINE
8
default
6
CONTINUOUS
10
       -32.893
20
       -79.411
30
        14.746
11
       -33.028
21
       -79.737
31
        13.440
39
 0
62
 3
 0
LINE
8
default
6
CONTINUOUS
10
       -33.028
20
       -79.737
30
        13.440
11
       -33.151
21
       -80.033
31
        12.125
39
 0
62
 3
 0
LINE
8
default
6
CONTINUOUS
10
       -33.151
20
       -80.033
30
        12.125
11
       -33.261
21
       -80.298
31
        10.800
39
 0
62
 3
 0
LINE
8
default
6
CONTINUOUS
10
       -33.261
20
       -80.298
30
        10.800
11
       -33.358
21
       -80.533
31
         9.468
39
 0
62
 3
 0
LINE
8
default
6
CONTINUOUS
10
       -33.358
20
       -80.533
30
         9.468
11
       -33.442
21
       -80.736
31
         8.128
39
 0
62
 3
 0
LINE
8
default
6
CONTINUOUS
10
       -33.442
20
       -80.736
30
         8.128
11
       -33.513
21
       -80.909
31
         6.783
39
 0
62
 3
 0
LINE
8
default
6
CONTINUOUS
10
       -33.513
20
       -80.909
30
         6.783
11
       -33.572
21
       -81.050
31
         5.432
39
 0
62
 3
 0
LINE
8
default
6
CONTINUOUS
10
       -33.572
20
       -81.050
30
         5.432
11
       -33.618
21
       -81.160
31
         4.078
39
 0
62
 3
 0
LINE
8
default
6
CONTINUOUS
10
       -33.618
20
       -81.160
30
         4.078
11
       -33.650
21
       -81.238
31
         2.720
39
 0
62
 3
 0
LINE
8
default
6
CONTINUOUS
10
       -33.650
20
       -81.238
30
         2.720
11
       -33.670
21
       -81.286
31
         1.361
39
 0
62
 3
 0
LINE
8
default
6
CONTINUOUS
10
       -33.670
20
       -81.286
30
         1.361
11
       -33.676
21
       -81.301
31
        -0.000
39
 0
62
 3
 0
LINE
8
default
6
CONTINUOUS
10
         0.000
20
        -0.000
30
        16.000
11
         0.201
21
        -0.486
31
        17.344
39
 0
62
 3
 0
LINE
8
default
6
CONTINUOUS
10
         0.201
20
        -0.486
30
        17.344
11
         0.414
21
        -1.000
31
        18.677
39
 0
62
 3
 0
LINE
8
default
6
CONTINUOUS
10
         0.414
20
        -1.000
30
        18.677
11
         0.639
21
        -1.543
31
        19.998
39
 0
62
 3
 0
LINE
8
default
6
CONTINUOUS
10
         0.639
20
        -1.543
30
        19.998
11
         0.875
21
        -2.113
31
        21.305
39
 0
62
 3
 0
LINE
8
default
6
CONTINUOUS
10
         0.875
20
        -2.113
30
        21.305
11
         1.123
21
        -2.710
31
        22.597
39
 0
62
 3
 0
LINE
8
default
6
CONTINUOUS
10
         1.123
20
        -2.710
30
        22.597
11
         1.381
21
        -3.334
31
        23.873
39
 0
62
 3
 0
LINE
8
default
6
CONTINUOUS
10
         1.381
20
        -3.334
30
        23.873
11
         1.650
21
        -3.984
31
        25.131
39
 0
62
 3
 0
LINE
8
default
6
CONTINUOUS
10
         1.650
20
        -3.984
30
        25.131
11
         1.930
21
        -4.660
31
        26.371
39
 0
62
 3
 0
LINE
8
default
6
CONTINUOUS
10
         1.930
20
        -4.660
30
        26.371
11
         2.221
21
        -5.361
31
        27.592
39
 0
62
 3
 0
LINE
8
default
6
CONTINUOUS
10
         2.221
20
        -5.361
30
        27.592
11
         2.521
21
        -6.087
31
        28.791
39
 0
62
 3
 0
LINE
8
default
6
CONTINUOUS
10
         2.521
20
        -6.087
30
        28.791
11
         2.832
21
        -6.838
31
        29.968
39
 0
62
 3
 0
LINE
8
default
6
CONTINUOUS
10
         2.832
20
        -6.838
30
        29.968
11
         3.153
21
        -7.612
31
        31.122
39
 0
62
 3
 0
LINE
8
default
6
CONTINUOUS
10
         3.153
20
        -7.612
30
        31.122
11
         3.483
21
        -8.409
31
        32.251
39
 0
62
 3
 0
LINE
8
default
6
CONTINUOUS
10
         3.483
20
        -8.409
30
        32.251
11
         3.822
21
        -9.228
31
        33.355
39
 0
62
 3
 0
LINE
8
default
6
CONTINUOUS
10
         3.822
20
        -9.228
30
        33.355
11
         4.171
21
       -10.070
31
        34.431
39
 0
62
 3
 0
LINE
8
default
6
CONTINUOUS
10
         4.171
20
       -10.070
30
        34.431
11
         4.528
21
       -10.932
31
        35.480
39
 0
62
 3
 0
LINE
8
default
6
CONTINUOUS
10
         4.528
20
       -10.932
30
        35.480
11
         4.894
21
       -11.816
31
        36.500
39
 0
62
 3
 0
LINE
8
default
6
CONTINUOUS
10
         4.894
20
       -11.816
30
        36.500
11
         5.268
21
       -12.719
31
        37.489
39
 0
62
 3
 0
LINE
8
default
6
CONTINUOUS
10
         5.268
20
       -12.719
30
        37.489
11
         5.651
21
       -13.642
31
        38.448
39
 0
62
 3
 0
LINE
8
default
6
CONTINUOUS
10
         5.651
20
       -13.642
30
        38.448
11
         6.040
21
       -14.583
31
        39.374
39
 0
62
 3
 0
LINE
8
default
6
CONTINUOUS
10
         6.040
20
       -14.583
30
        39.374
11
         6.438
21
       -15.542
31
        40.267
39
 0
62
 3
 0
LINE
8
default
6
CONTINUOUS
10
         6.438
20
       -15.542
30
        40.267
11
         6.842
21
       -16.519
31
        41.126
39
 0
62
 3
 0
LINE
8
default
6
CONTINUOUS
10
         6.842
20
       -16.519
30
        41.126
11
         7.254
21
       -17.512
31
        41.950
39
 0
62
 3
 0
LINE
8
default
6
CONTINUOUS
10
         7.254
20
       -17.512
30
        41.950
11
         7.671
21
       -18.520
31
        42.738
39
 0
62
 3
 0
LINE
8
default
6
CONTINUOUS
10
         7.671
20
       -18.520
30
        42.738
11
         8.095
21
       -19.544
31
        43.489
39
 0
62
 3
 0
LINE
8
default
6
CONTINUOUS
10
         8.095
20
       -19.544
30
        43.489
11
         8.525
21
       -20.582
31
        44.203
39
 0
62
 3
 0
LINE
8
default
6
CONTINUOUS
10
         8.525
20
       -20.582
30
        44.203
11
         8.961
21
       -21.634
31
        44.878
39
 0
62
 3
 0
LINE
8
default
6
CONTINUOUS
10
         8.961
20
       -21.634
30
        44.878
11
         9.402
21
       -22.698
31
        45.514
39
 0
62
 3
 0
LINE
8
default
6
CONTINUOUS
10
         9.402
20
       -22.698
30
        45.514
11
         9.847
21
       -23.774
31
        46.110
39
 0
62
 3
 0
LINE
8
default
6
CONTINUOUS
10
         9.847
20
       -23.774
30
        46.110
11
        10.298
21
       -24.861
31
        46.666
39
 0
62
 3
 0
LINE
8
default
6
CONTINUOUS
10
        10.298
20
       -24.861
30
        46.666
11
        10.753
21
       -25.959
31
        47.180
39
 0
62
 3
 0
LINE
8
default
6
CONTINUOUS
10
        10.753
20
       -25.959
30
        47.180
11
        11.211
21
       -27.066
31
        47.653
39
 0
62
 3
 0
LINE
8
default
6
CONTINUOUS
10
        11.211
20
       -27.066
30
        47.653
11
        11.673
21
       -28.182
31
        48.084
39
 0
62
 3
 0
LINE
8
default
6
CONTINUOUS
10
        11.673
20
       -28.182
30
        48.084
11
        12.139
21
       -29.305
31
        48.472
39
 0
62
 3
 0
LINE
8
default
6
CONTINUOUS
10
        12.139
20
       -29.305
30
        48.472
11
        12.607
21
       -30.436
31
        48.817
39
 0
62
 3
 0
LINE
8
default
6
CONTINUOUS
10
        12.607
20
       -30.436
30
        48.817
11
        13.078
21
       -31.573
31
        49.119
39
 0
62
 3
 0
LINE
8
default
6
CONTINUOUS
10
        13.078
20
       -31.573
30
        49.119
11
        13.551
21
       -32.715
31
        49.376
39
 0
62
 3
 0
LINE
8
default
6
CONTINUOUS
10
        13.551
20
       -32.715
30
        49.376
11
        14.026
21
       -33.862
31
        49.590
39
 0
62
 3
 0
LINE
8
default
6
CONTINUOUS
10
        14.026
20
       -33.862
30
        49.590
11
        14.503
21
       -35.013
31
        49.759
39
 0
62
 3
 0
LINE
8
default
6
CONTINUOUS
10
        14.503
20
       -35.013
30
        49.759
11
        14.980
21
       -36.166
31
        49.883
39
 0
62
 3
 0
LINE
8
default
6
CONTINUOUS
10
        14.980
20
       -36.166
30
        49.883
11
        15.459
21
       -37.321
31
        49.963
39
 0
62
 3
 0
LINE
8
default
6
CONTINUOUS
10
        15.459
20
       -37.321
30
        49.963
11
        15.938
21
       -38.477
31
        49.998
39
 0
62
 3
 0
LINE
8
default
6
CONTINUOUS
10
        15.938
20
       -38.477
30
        49.998
11
        16.417
21
       -39.634
31
        49.990
39
 0
62
 3
 0
LINE
8
default
6
CONTINUOUS
10
        16.417
20
       -39.634
30
        49.990
11
        16.896
21
       -40.790
31
        49.945
39
 0
62
 3
 0
LINE
8
default
6
CONTINUOUS
10
        16.896
20
       -40.790
30
        49.945
11
        17.374
21
       -41.944
31
        49.863
39
 0
62
 3
 0
LINE
8
default
6
CONTINUOUS
10
        17.374
20
       -41.944
30
        49.863
11
        17.851
21
       -43.096
31
        49.744
39
 0
62
 3
 0
LINE
8
default
6
CONTINUOUS
10
        17.851
20
       -43.096
30
        49.744
11
        18.327
21
       -44.245
31
        49.588
39
 0
62
 3
 0
LINE
8
default
6
CONTINUOUS
10
        18.327
20
       -44.245
30
        49.588
11
        18.801
21
       -45.390
31
        49.396
39
 0
62
 3
 0
LINE
8
default
6
CONTINUOUS
10
        18.801
20
       -45.390
30
        49.396
11
        19.273
21
       -46.530
31
        49.167
39
 0
62
 3
 0
LINE
8
default
6
CONTINUOUS
10
        19.273
20
       -46.530
30
        49.167
11
        19.743
21
       -47.664
31
        48.901
39
 0
62
 3
 0
LINE
8
default
6
CONTINUOUS
10
        19.743
20
       -47.664
30
        48.901
11
        20.210
21
       -48.792
31
        48.599
39
 0
62
 3
 0
LINE
8
default
6
CONTINUOUS
10
        20.210
20
       -48.792
30
        48.599
11
        20.674
21
       -49.913
31
        48.261
39
 0
62
 3
 0
LINE
8
default
6
CONTINUOUS
10
        20.674
20
       -49.913
30
        48.261
11
        21.135
21
       -51.025
31
        47.888
39
 0
62
 3
 0
LINE
8
default
6
CONTINUOUS
10
        21.135
20
       -51.025
30
        47.888
11
        21.592
21
       -52.128
31
        47.479
39
 0
62
 3
 0
LINE
8
default
6
CONTINUOUS
10
        21.592
20
       -52.128
30
        47.479
11
        22.045
21
       -53.221
31
        47.035
39
 0
62
 3
 0
LINE
8
default
6
CONTINUOUS
10
        22.045
20
       -53.221
30
        47.035
11
        22.493
21
       -54.303
31
        46.556
39
 0
62
 3
 0
LINE
8
default
6
CONTINUOUS
10
        22.493
20
       -54.303
30
        46.556
11
        22.937
21
       -55.375
31
        46.042
39
 0
62
 3
 0
LINE
8
default
6
CONTINUOUS
10
        22.937
20
       -55.375
30
        46.042
11
        23.375
21
       -56.433
31
        45.495
39
 0
62
 3
 0
LINE
8
default
6
CONTINUOUS
10
        23.375
20
       -56.433
30
        45.495
11
        23.809
21
       -57.479
31
        44.913
39
 0
62
 3
 0
LINE
8
default
6
CONTINUOUS
10
        23.809
20
       -57.479
30
        44.913
11
        24.236
21
       -58.511
31
        44.299
39
 0
62
 3
 0
LINE
8
default
6
CONTINUOUS
10
        24.236
20
       -58.511
30
        44.299
11
        24.657
21
       -59.528
31
        43.651
39
 0
62
 3
 0
LINE
8
default
6
CONTINUOUS
10
        24.657
20
       -59.528
30
        43.651
11
        25.072
21
       -60.530
31
        42.972
39
 0
62
 3
 0
LINE
8
default
6
CONTINUOUS
10
        25.072
20
       -60.530
30
        42.972
11
        25.481
21
       -61.516
31
        42.260
39
 0
62
 3
 0
LINE
8
default
6
CONTINUOUS
10
        25.481
20
       -61.516
30
        42.260
11
        25.882
21
       -62.485
31
        41.517
39
 0
62
 3
 0
LINE
8
default
6
CONTINUOUS
10
        25.882
20
       -62.485
30
        41.517
11
        26.276
21
       -63.436
31
        40.744
39
 0
62
 3
 0
LINE
8
default
6
CONTINUOUS
10
        26.276
20
       -63.436
30
        40.744
11
        26.663
21
       -64.370
31
        39.940
39
 0
62
 3
 0
LINE
8
default
6
CONTINUOUS
10
        26.663
20
       -64.370
30
        39.940
11
        27.042
21
       -65.284
31
        39.107
39
 0
62
 3
 0
LINE
8
default
6
CONTINUOUS
10
        27.042
20
       -65.284
30
        39.107
11
        27.412
21
       -66.179
31
        38.245
39
 0
62
 3
 0
LINE
8
default
6
CONTINUOUS
10
        27.412
20
       -66.179
30
        38.245
11
        27.774
21
       -67.053
31
        37.354
39
 0
62
 3
 0
LINE
8
default
6
CONTINUOUS
10
        27.774
20
       -67.053
30
        37.354
11
        28.128
21
       -67.907
31
        36.436
39
 0
62
 3
 0
LINE
8
default
6
CONTINUOUS
10
        28.128
20
       -67.907
30
        36.436
11
        28.472
21
       -68.739
31
        35.491
39
 0
62
 3
 0
LINE
8
default
6
CONTINUOUS
10
        28.472
20
       -68.739
30
        35.491
11
        28.808
21
       -69.548
31
        34.519
39
 0
62
 3
 0
LINE
8
default
6
CONTINUOUS
10
        28.808
20
       -69.548
30
        34.519
11
        29.134
21
       -70.335
31
        33.522
39
 0
62
 3
 0
LINE
8
default
6
CONTINUOUS
10
        29.134
20
       -70.335
30
        33.522
11
        29.450
21
       -71.099
31
        32.500
39
 0
62
 3
 0
LINE
8
default
6
CONTINUOUS
10
        29.450
20
       -71.099
30
        32.500
11
        29.757
21
       -71.839
31
        31.454
39
 0
62
 3
 0
LINE
8
default
6
CONTINUOUS
10
        29.757
20
       -71.839
30
        31.454
11
        30.053
21
       -72.554
31
        30.385
39
 0
62
 3
 0
LINE
8
default
6
CONTINUOUS
10
        30.053
20
       -72.554
30
        30.385
11
        30.339
21
       -73.244
31
        29.293
39
 0
62
 3
 0
LINE
8
default
6
CONTINUOUS
10
        30.339
20
       -73.244
30
        29.293
11
        30.614
21
       -73.909
31
        28.180
39
 0
62
 3
 0
LINE
8
default
6
CONTINUOUS
10
        30.614
20
       -73.909
30
        28.180
11
        30.879
21
       -74.548
31
        27.045
39
 0
62
 3
 0
LINE
8
default
6
CONTINUOUS
10
        30.879
20
       -74.548
30
        27.045
11
        31.132
21
       -75.160
31
        25.891
39
 0
62
 3
 0
LINE
8
default
6
CONTINUOUS
10
        31.132
20
       -75.160
30
        25.891
11
        31.375
21
       -75.745
31
        24.717
39
 0
62
 3
 0
LINE
8
default
6
CONTINUOUS
10
        31.375
20
       -75.745
30
        24.717
11
        31.606
21
       -76.303
31
        23.525
39
 0
62
 3
 0
LINE
8
default
6
CONTINUOUS
10
        31.606
20
       -76.303
30
        23.525
11
        31.826
21
       -76.834
31
        22.316
39
 0
62
 3
 0
LINE
8
default
6
CONTINUOUS
10
        31.826
20
       -76.834
30
        22.316
11
        32.033
21
       -77.336
31
        21.090
39
 0
62
 3
 0
LINE
8
default
6
CONTINUOUS
10
        32.033
20
       -77.336
30
        21.090
11
        32.230
21
       -77.809
31
        19.849
39
 0
62
 3
 0
LINE
8
default
6
CONTINUOUS
10
        32.230
20
       -77.809
30
        19.849
11
        32.414
21
       -78.254
31
        18.593
39
 0
62
 3
 0
LINE
8
default
6
CONTINUOUS
10
        32.414
20
       -78.254
30
        18.593
11
        32.586
21
       -78.669
31
        17.323
39
 0
62
 3
 0
LINE
8
default
6
CONTINUOUS
10
        32.586
20
       -78.669
30
        17.323
11
        32.746
21
       -79.055
31
        16.040
39
 0
62
 3
 0
LINE
8
default
6
CONTINUOUS
10
        32.746
20
       -79.055
30
        16.040
11
        32.893
21
       -79.411
31
        14.746
39
 0
62
 3
 0
LINE
8
default
6
CONTINUOUS
10
        32.893
20
       -79.411
30
        14.746
11
        33.028
21
       -79.737
31
        13.440
39
 0
62
 3
 0
LINE
8
default
6
CONTINUOUS
10
        33.028
20
       -79.737
30
        13.440
11
        33.151
21
       -80.033
31
        12.125
39
 0
62
 3
 0
LINE
8
default
6
CONTINUOUS
10
        33.151
20
       -80.033
30
        12.125
11
        33.261
21
       -80.298
31
        10.800
39
 0
62
 3
 0
LINE
8
default
6
CONTINUOUS
10
        33.261
20
       -80.298
30
        10.800
11
        33.358
21
       -80.533
31
         9.468
39
 0
62
 3
 0
LINE
8
default
6
CONTINUOUS
10
        33.358
20
       -80.533
30
         9.468
11
        33.442
21
       -80.736
31
         8.128
39
 0
62
 3
 0
LINE
8
default
6
CONTINUOUS
10
        33.442
20
       -80.736
30
         8.128
11
        33.513
21
       -80.909
31
         6.783
39
 0
62
 3
 0
LINE
8
default
6
CONTINUOUS
10
        33.513
20
       -80.909
30
         6.783
11
        33.572
21
       -81.050
31
         5.432
39
 0
62
 3
 0
LINE
8
default
6
CONTINUOUS
10
        33.572
20
       -81.050
30
         5.432
11
        33.618
21
       -81.160
31
         4.078
39
 0
62
 3
 0
LINE
8
default
6
CONTINUOUS
10
        33.618
20
       -81.160
30
         4.078
11
        33.650
21
       -81.238
31
         2.720
39
 0
62
 3
 0
LINE
8
default
6
CONTINUOUS
10
        33.650
20
       -81.238
30
         2.720
11
        33.670
21
       -81.286
31
         1.361
39
 0
62
 3
 0
LINE
8
default
6
CONTINUOUS
10
        33.670
20
       -81.286
30
         1.361
11
        33.676
21
       -81.301
31
        -0.000
39
 0
62
 3
 0
LINE
8
default
6
CONTINUOUS
10
         0.000
20
        -0.000
30
        16.000
11
         0.486
21
        -0.201
31
        17.344
39
 0
62
 3
 0
LINE
8
default
6
CONTINUOUS
10
         0.486
20
        -0.201
30
        17.344
11
         1.000
21
        -0.414
31
        18.677
39
 0
62
 3
 0
LINE
8
default
6
CONTINUOUS
10
         1.000
20
        -0.414
30
        18.677
11
         1.543
21
        -0.639
31
        19.998
39
 0
62
 3
 0
LINE
8
default
6
CONTINUOUS
10
         1.543
20
        -0.639
30
        19.998
11
         2.113
21
        -0.875
31
        21.305
39
 0
62
 3
 0
LINE
8
default
6
CONTINUOUS
10
         2.113
20
        -0.875
30
        21.305
11
         2.710
21
        -1.123
31
        22.597
39
 0
62
 3
 0
LINE
8
default
6
CONTINUOUS
10
         2.710
20
        -1.123
30
        22.597
11
         3.334
21
        -1.381
31
        23.873
39
 0
62
 3
 0
LINE
8
default
6
CONTINUOUS
10
         3.334
20
        -1.381
30
        23.873
11
         3.984
21
        -1.650
31
        25.131
39
 0
62
 3
 0
LINE
8
default
6
CONTINUOUS
10
         3.984
20
        -1.650
30
        25.131
11
         4.660
21
        -1.930
31
        26.371
39
 0
62
 3
 0
LINE
8
default
6
CONTINUOUS
10
         4.660
20
        -1.930
30
        26.371
11
         5.361
21
        -2.221
31
        27.592
39
 0
62
 3
 0
LINE
8
default
6
CONTINUOUS
10
         5.361
20
        -2.221
30
        27.592
11
         6.087
21
        -2.521
31
        28.791
39
 0
62
 3
 0
LINE
8
default
6
CONTINUOUS
10
         6.087
20
        -2.521
30
        28.791
11
         6.838
21
        -2.832
31
        29.968
39
 0
62
 3
 0
LINE
8
default
6
CONTINUOUS
10
         6.838
20
        -2.832
30
        29.968
11
         7.612
21
        -3.153
31
        31.122
39
 0
62
 3
 0
LINE
8
default
6
CONTINUOUS
10
         7.612
20
        -3.153
30
        31.122
11
         8.409
21
        -3.483
31
        32.251
39
 0
62
 3
 0
LINE
8
default
6
CONTINUOUS
10
         8.409
20
        -3.483
30
        32.251
11
         9.228
21
        -3.822
31
        33.355
39
 0
62
 3
 0
LINE
8
default
6
CONTINUOUS
10
         9.228
20
        -3.822
30
        33.355
11
        10.070
21
        -4.171
31
        34.431
39
 0
62
 3
 0
LINE
8
default
6
CONTINUOUS
10
        10.070
20
        -4.171
30
        34.431
11
        10.932
21
        -4.528
31
        35.480
39
 0
62
 3
 0
LINE
8
default
6
CONTINUOUS
10
        10.932
20
        -4.528
30
        35.480
11
        11.816
21
        -4.894
31
        36.500
39
 0
62
 3
 0
LINE
8
default
6
CONTINUOUS
10
        11.816
20
        -4.894
30
        36.500
11
        12.719
21
        -5.268
31
        37.489
39
 0
62
 3
 0
LINE
8
default
6
CONTINUOUS
10
        12.719
20
        -5.268
30
        37.489
11
        13.642
21
        -5.651
31
        38.448
39
 0
62
 3
 0
LINE
8
default
6
CONTINUOUS
10
        13.642
20
        -5.651
30
        38.448
11
        14.583
21
        -6.040
31
        39.374
39
 0
62
 3
 0
LINE
8
default
6
CONTINUOUS
10
        14.583
20
        -6.040
30
        39.374
11
        15.542
21
        -6.438
31
        40.267
39
 0
62
 3
 0
LINE
8
default
6
CONTINUOUS
10
        15.542
20
        -6.438
30
        40.267
11
        16.519
21
        -6.842
31
        41.126
39
 0
62
 3
 0
LINE
8
default
6
CONTINUOUS
10
        16.519
20
        -6.842
30
        41.126
11
        17.512
21
        -7.254
31
        41.950
39
 0
62
 3
 0
LINE
8
default
6
CONTINUOUS
10
        17.512
20
        -7.254
30
        41.950
11
        18.520
21
        -7.671
31
        42.738
39
 0
62
 3
 0
LINE
8
default
6
CONTINUOUS
10
        18.520
20
        -7.671
30
        42.738
11
        19.544
21
        -8.095
31
        43.489
39
 0
62
 3
 0
LINE
8
default
6
CONTINUOUS
10
        19.544
20
        -8.095
30
        43.489
11
        20.582
21
        -8.525
31
        44.203
39
 0
62
 3
 0
LINE
8
default
6
CONTINUOUS
10
        20.582
20
        -8.525
30
        44.203
11
        21.634
21
        -8.961
31
        44.878
39
 0
62
 3
 0
LINE
8
default
6
CONTINUOUS
10
        21.634
20
        -8.961
30
        44.878
11
        22.698
21
        -9.402
31
        45.514
39
 0
62
 3
 0
LINE
8
default
6
CONTINUOUS
10
        22.698
20
        -9.402
30
        45.514
11
        23.774
21
        -9.847
31
        46.110
39
 0
62
 3
 0
LINE
8
default
6
CONTINUOUS
10
        23.774
20
        -9.847
30
        46.110
11
        24.861
21
       -10.298
31
        46.666
39
 0
62
 3
 0
LINE
8
default
6
CONTINUOUS
10
        24.861
20
       -10.298
30
        46.666
11
        25.959
21
       -10.753
31
        47.180
39
 0
62
 3
 0
LINE
8
default
6
CONTINUOUS
10
        25.959
20
       -10.753
30
        47.180
11
        27.066
21
       -11.211
31
        47.653
39
 0
62
 3
 0
LINE
8
default
6
CONTINUOUS
10
        27.066
20
       -11.211
30
        47.653
11
        28.182
21
       -11.673
31
        48.084
39
 0
62
 3
 0
LINE
8
default
6
CONTINUOUS
10
        28.182
20
       -11.673
30
        48.084
11
        29.305
21
       -12.139
31
        48.472
39
 0
62
 3
 0
LINE
8
default
6
CONTINUOUS
10
        29.305
20
       -12.139
30
        48.472
11
        30.436
21
       -12.607
31
        48.817
39
 0
62
 3
 0
LINE
8
default
6
CONTINUOUS
10
        30.436
20
       -12.607
30
        48.817
11
        31.573
21
       -13.078
31
        49.119
39
 0
62
 3
 0
LINE
8
default
6
CONTINUOUS
10
        31.573
20
       -13.078
30
        49.119
11
        32.715
21
       -13.551
31
        49.376
39
 0
62
 3
 0
LINE
8
default
6
CONTINUOUS
10
        32.715
20
       -13.551
30
        49.376
11
        33.862
21
       -14.026
31
        49.590
39
 0
62
 3
 0
LINE
8
default
6
CONTINUOUS
10
        33.862
20
       -14.026
30
        49.590
11
        35.013
21
       -14.503
31
        49.759
39
 0
62
 3
 0
LINE
8
default
6
CONTINUOUS
10
        35.013
20
       -14.503
30
        49.759
11
        36.166
21
       -14.980
31
        49.883
39
 0
62
 3
 0
LINE
8
default
6
CONTINUOUS
10
        36.166
20
       -14.980
30
        49.883
11
        37.321
21
       -15.459
31
        49.963
39
 0
62
 3
 0
LINE
8
default
6
CONTINUOUS
10
        37.321
20
       -15.459
30
        49.963
11
        38.477
21
       -15.938
31
        49.998
39
 0
62
 3
 0
LINE
8
default
6
CONTINUOUS
10
        38.477
20
       -15.938
30
        49.998
11
        39.634
21
       -16.417
31
        49.990
39
 0
62
 3
 0
LINE
8
default
6
CONTINUOUS
10
        39.634
20
       -16.417
30
        49.990
11
        40.790
21
       -16.896
31
        49.945
39
 0
62
 3
 0
LINE
8
default
6
CONTINUOUS
10
        40.790
20
       -16.896
30
        49.945
11
        41.944
21
       -17.374
31
        49.863
39
 0
62
 3
 0
LINE
8
default
6
CONTINUOUS
10
        41.944
20
       -17.374
30
        49.863
11
        43.096
21
       -17.851
31
        49.744
39
 0
62
 3
 0
LINE
8
default
6
CONTINUOUS
10
        43.096
20
       -17.851
30
        49.744
11
        44.245
21
       -18.327
31
        49.588
39
 0
62
 3
 0
LINE
8
default
6
CONTINUOUS
10
        44.245
20
       -18.327
30
        49.588
11
        45.390
21
       -18.801
31
        49.396
39
 0
62
 3
 0
LINE
8
default
6
CONTINUOUS
10
        45.390
20
       -18.801
30
        49.396
11
        46.530
21
       -19.273
31
        49.167
39
 0
62
 3
 0
LINE
8
default
6
CONTINUOUS
10
        46.530
20
       -19.273
30
        49.167
11
        47.664
21
       -19.743
31
        48.901
39
 0
62
 3
 0
LINE
8
default
6
CONTINUOUS
10
        47.664
20
       -19.743
30
        48.901
11
        48.792
21
       -20.210
31
        48.599
39
 0
62
 3
 0
LINE
8
default
6
CONTINUOUS
10
        48.792
20
       -20.210
30
        48.599
11
        49.913
21
       -20.674
31
        48.261
39
 0
62
 3
 0
LINE
8
default
6
CONTINUOUS
10
        49.913
20
       -20.674
30
        48.261
11
        51.025
21
       -21.135
31
        47.888
39
 0
62
 3
 0
LINE
8
default
6
CONTINUOUS
10
        51.025
20
       -21.135
30
        47.888
11
        52.128
21
       -21.592
31
        47.479
39
 0
62
 3
 0
LINE
8
default
6
CONTINUOUS
10
        52.128
20
       -21.592
30
        47.479
11
        53.221
21
       -22.045
31
        47.035
39
 0
62
 3
 0
LINE
8
default
6
CONTINUOUS
10
        53.221
20
       -22.045
30
        47.035
11
        54.303
21
       -22.493
31
        46.556
39
 0
62
 3
 0
LINE
8
default
6
CONTINUOUS
10
        54.303
20
       -22.493
30
        46.556
11
        55.375
21
       -22.937
31
        46.042
39
 0
62
 3
 0
LINE
8
default
6
CONTINUOUS
10
        55.375
20
       -22.937
30
        46.042
11
        56.433
21
       -23.375
31
        45.495
39
 0
62
 3
 0
LINE
8
default
6
CONTINUOUS
10
        56.433
20
       -23.375
30
        45.495
11
        57.479
21
       -23.809
31
        44.913
39
 0
62
 3
 0
LINE
8
default
6
CONTINUOUS
10
        57.479
20
       -23.809
30
        44.913
11
        58.511
21
       -24.236
31
        44.299
39
 0
62
 3
 0
LINE
8
default
6
CONTINUOUS
10
        58.511
20
       -24.236
30
        44.299
11
        59.528
21
       -24.657
31
        43.651
39
 0
62
 3
 0
LINE
8
default
6
CONTINUOUS
10
        59.528
20
       -24.657
30
        43.651
11
        60.530
21
       -25.072
31
        42.972
39
 0
62
 3
 0
LINE
8
default
6
CONTINUOUS
10
        60.530
20
       -25.072
30
        42.972
11
        61.516
21
       -25.481
31
        42.260
39
 0
62
 3
 0
LINE
8
default
6
CONTINUOUS
10
        61.516
20
       -25.481
30
        42.260
11
        62.485
21
       -25.882
31
        41.517
39
 0
62
 3
 0
LINE
8
default
6
CONTINUOUS
10
        62.485
20
       -25.882
30
        41.517
11
        63.436
21
       -26.276
31
        40.744
39
 0
62
 3
 0
LINE
8
default
6
CONTINUOUS
10
        63.436
20
       -26.276
30
        40.744
11
        64.370
21
       -26.663
31
        39.940
39
 0
62
 3
 0
LINE
8
default
6
CONTINUOUS
10
        64.370
20
       -26.663
30
        39.940
11
        65.284
21
       -27.042
31
        39.107
39
 0
62
 3
 0
LINE
8
default
6
CONTINUOUS
10
        65.284
20
       -27.042
30
        39.107
11
        66.179
21
       -27.412
31
        38.245
39
 0
62
 3
 0
LINE
8
default
6
CONTINUOUS
10
        66.179
20
       -27.412
30
        38.245
11
        67.053
21
       -27.774
31
        37.354
39
 0
62
 3
 0
LINE
8
default
6
CONTINUOUS
10
        67.053
20
       -27.774
30
        37.354
11
        67.907
21
       -28.128
31
        36.436
39
 0
62
 3
 0
LINE
8
default
6
CONTINUOUS
10
        67.907
20
       -28.128
30
        36.436
11
        68.739
21
       -28.472
31
        35.491
39
 0
62
 3
 0
LINE
8
default
6
CONTINUOUS
10
        68.739
20
       -28.472
30
        35.491
11
        69.548
21
       -28.808
31
        34.519
39
 0
62
 3
 0
LINE
8
default
6
CONTINUOUS
10
        69.548
20
       -28.808
30
        34.519
11
        70.335
21
       -29.134
31
        33.522
39
 0
62
 3
 0
LINE
8
default
6
CONTINUOUS
10
        70.335
20
       -29.134
30
        33.522
11
        71.099
21
       -29.450
31
        32.500
39
 0
62
 3
 0
LINE
8
default
6
CONTINUOUS
10
        71.099
20
       -29.450
30
        32.500
11
        71.839
21
       -29.757
31
        31.454
39
 0
62
 3
 0
LINE
8
default
6
CONTINUOUS
10
        71.839
20
       -29.757
30
        31.454
11
        72.554
21
       -30.053
31
        30.385
39
 0
62
 3
 0
LINE
8
default
6
CONTINUOUS
10
        72.554
20
       -30.053
30
        30.385
11
        73.244
21
       -30.339
31
        29.293
39
 0
62
 3
 0
LINE
8
default
6
CONTINUOUS
10
        73.244
20
       -30.339
30
        29.293
11
        73.909
21
       -30.614
31
        28.180
39
 0
62
 3
 0
LINE
8
default
6
CONTINUOUS
10
        73.909
20
       -30.614
30
        28.180
11
        74.548
21
       -30.879
31
        27.045
39
 0
62
 3
 0
LINE
8
default
6
CONTINUOUS
10
        74.548
20
       -30.879
30
        27.045
11
        75.160
21
       -31.132
31
        25.891
39
 0
62
 3
 0
LINE
8
default
6
CONTINUOUS
10
        75.160
20
       -31.132
30
        25.891
11
        75.745
21
       -31.375
31
        24.717
39
 0
62
 3
 0
LINE
8
default
6
CONTINUOUS
10
        75.745
20
       -31.375
30
        24.717
11
        76.303
21
       -31.606
31
        23.525
39
 0
62
 3
 0
LINE
8
default
6
CONTINUOUS
10
        76.303
20
       -31.606
30
        23.525
11
        76.834
21
       -31.826
31
        22.316
39
 0
62
 3
 0
LINE
8
default
6
CONTINUOUS
10
        76.834
20
       -31.826
30
        22.316
11
        77.336
21
       -32.033
31
        21.090
39
 0
62
 3
 0
LINE
8
default
6
CONTINUOUS
10
        77.336
20
       -32.033
30
        21.090
11
        77.809
21
       -32.230
31
        19.849
39
 0
62
 3
 0
LINE
8
default
6
CONTINUOUS
10
        77.809
20
       -32.230
30
        19.849
11
        78.254
21
       -32.414
31
        18.593
39
 0
62
 3
 0
LINE
8
default
6
CONTINUOUS
10
        78.254
20
       -32.414
30
        18.593
11
        78.669
21
       -32.586
31
        17.323
39
 0
62
 3
 0
LINE
8
default
6
CONTINUOUS
10
        78.669
20
       -32.586
30
        17.323
11
        79.055
21
       -32.746
31
        16.040
39
 0
62
 3
 0
LINE
8
default
6
CONTINUOUS
10
        79.055
20
       -32.746
30
        16.040
11
        79.411
21
       -32.893
31
        14.746
39
 0
62
 3
 0
LINE
8
default
6
CONTINUOUS
10
        79.411
20
       -32.893
30
        14.746
11
        79.737
21
       -33.028
31
        13.440
39
 0
62
 3
 0
LINE
8
default
6
CONTINUOUS
10
        79.737
20
       -33.028
30
        13.440
11
        80.033
21
       -33.151
31
        12.125
39
 0
62
 3
 0
LINE
8
default
6
CONTINUOUS
10
        80.033
20
       -33.151
30
        12.125
11
        80.298
21
       -33.261
31
        10.800
39
 0
62
 3
 0
LINE
8
default
6
CONTINUOUS
10
        80.298
20
       -33.261
30
        10.800
11
        80.533
21
       -33.358
31
         9.468
39
 0
62
 3
 0
LINE
8
default
6
CONTINUOUS
10
        80.533
20
       -33.358
30
         9.468
11
        80.736
21
       -33.442
31
         8.128
39
 0
62
 3
 0
LINE
8
default
6
CONTINUOUS
10
        80.736
20
       -33.442
30
         8.128
11
        80.909
21
       -33.513
31
         6.783
39
 0
62
 3
 0
LINE
8
default
6
CONTINUOUS
10
        80.909
20
       -33.513
30
         6.783
11
        81.050
21
       -33.572
31
         5.432
39
 0
62
 3
 0
LINE
8
default
6
CONTINUOUS
10
        81.050
20
       -33.572
30
         5.432
11
        81.160
21
       -33.618
31
         4.078
39
 0
62
 3
 0
LINE
8
default
6
CONTINUOUS
10
        81.160
20
       -33.618
30
         4.078
11
        81.238
21
       -33.650
31
         2.720
39
 0
62
 3
 0
LINE
8
default
6
CONTINUOUS
10
        81.238
20
       -33.650
30
         2.720
11
        81.286
21
       -33.670
31
         1.361
39
 0
62
 3
 0
LINE
8
default
6
CONTINUOUS
10
        81.286
20
       -33.670
30
         1.361
11
        81.301
21
       -33.676
31
        -0.000
39
 0
62
 3
 0
LINE
8
default
6
CONTINUOUS
10
        81.301
20
        33.676
30
        -0.000
11
        33.676
21
        81.301
31
        -0.000
39
 0
62
 3
 0
LINE
8
default
6
CONTINUOUS
10
        33.676
20
        81.301
30
        -0.000
11
       -33.676
21
        81.301
31
        -0.000
39
 0
62
 3
 0
LINE
8
default
6
CONTINUOUS
10
       -33.676
20
        81.301
30
        -0.000
11
       -81.301
21
        33.676
31
        -0.000
39
 0
62
 3
 0
LINE
8
default
6
CONTINUOUS
10
       -81.301
20
        33.676
30
        -0.000
11
       -81.301
21
       -33.676
31
        -0.000
39
 0
62
 3
 0
LINE
8
default
6
CONTINUOUS
10
       -81.301
20
       -33.676
30
        -0.000
11
       -33.676
21
       -81.301
31
        -0.000
39
 0
62
 3
 0
LINE
8
default
6
CONTINUOUS
10
       -33.676
20
       -81.301
30
        -0.000
11
        33.676
21
       -81.301
31
        -0.000
39
 0
62
 3
 0
LINE
8
default
6
CONTINUOUS
10
        33.676
20
       -81.301
30
        -0.000
11
        81.301
21
       -33.676
31
        -0.000
39
 0
62
 3
 0
LINE
8
default
6
CONTINUOUS
10
        81.301
20
        33.676
30
        -0.000
11
        81.301
21
       -33.676
31
        -0.000
39
 0
62
 3
 0
LINE
8
default
6
CONTINUOUS
10
        33.676
20
        81.301
30
        -0.000
11
        35.797
21
        80.398
31
        -0.000
39
 0
62
 3
 0
LINE
8
default
6
CONTINUOUS
10
        35.797
20
        80.398
30
        -0.000
11
        37.892
21
        79.439
31
        -0.000
39
 0
62
 3
 0
LINE
8
default
6
CONTINUOUS
10
        37.892
20
        79.439
30
        -0.000
11
        39.962
21
        78.426
31
        -0.000
39
 0
62
 3
 0
LINE
8
default
6
CONTINUOUS
10
        39.962
20
        78.426
30
        -0.000
11
        42.004
21
        77.357
31
        -0.000
39
 0
62
 3
 0
LINE
8
default
6
CONTINUOUS
10
        42.004
20
        77.357
30
        -0.000
11
        44.018
21
        76.236
31
        -0.000
39
 0
62
 3
 0
LINE
8
default
6
CONTINUOUS
10
        44.018
20
        76.236
30
        -0.000
11
        46.001
21
        75.061
31
        -0.000
39
 0
62
 3
 0
LINE
8
default
6
CONTINUOUS
10
        46.001
20
        75.061
30
        -0.000
11
        47.952
21
        73.835
31
        -0.000
39
 0
62
 3
 0
LINE
8
default
6
CONTINUOUS
10
        47.952
20
        73.835
30
        -0.000
11
        49.871
21
        72.558
31
        -0.000
39
 0
62
 3
 0
LINE
8
default
6
CONTINUOUS
10
        49.871
20
        72.558
30
        -0.000
11
        51.755
21
        71.230
31
        -0.000
39
 0
62
 3
 0
LINE
8
default
6
CONTINUOUS
10
        51.755
20
        71.230
30
        -0.000
11
        53.603
21
        69.853
31
        -0.000
39
 0
62
 3
 0
LINE
8
default
6
CONTINUOUS
10
        53.603
20
        69.853
30
        -0.000
11
        55.414
21
        68.428
31
        -0.000
39
 0
62
 3
 0
LINE
8
default
6
CONTINUOUS
10
        55.414
20
        68.428
30
        -0.000
11
        57.188
21
        66.956
31
        -0.000
39
 0
62
 3
 0
LINE
8
default
6
CONTINUOUS
10
        57.188
20
        66.956
30
        -0.000
11
        58.921
21
        65.437
31
        -0.000
39
 0
62
 3
 0
LINE
8
default
6
CONTINUOUS
10
        58.921
20
        65.437
30
        -0.000
11
        60.614
21
        63.873
31
        -0.000
39
 0
62
 3
 0
LINE
8
default
6
CONTINUOUS
10
        60.614
20
        63.873
30
        -0.000
11
        62.265
21
        62.265
31
        -0.000
39
 0
62
 3
 0
LINE
8
default
6
CONTINUOUS
10
        62.265
20
        62.265
30
        -0.000
11
        63.873
21
        60.614
31
        -0.000
39
 0
62
 3
 0
LINE
8
default
6
CONTINUOUS
10
        63.873
20
        60.614
30
        -0.000
11
        65.437
21
        58.921
31
        -0.000
39
 0
62
 3
 0
LINE
8
default
6
CONTINUOUS
10
        65.437
20
        58.921
30
        -0.000
11
        66.956
21
        57.188
31
        -0.000
39
 0
62
 3
 0
LINE
8
default
6
CONTINUOUS
10
        66.956
20
        57.188
30
        -0.000
11
        68.428
21
        55.414
31
        -0.000
39
 0
62
 3
 0
LINE
8
default
6
CONTINUOUS
10
        68.428
20
        55.414
30
        -0.000
11
        69.853
21
        53.603
31
        -0.000
39
 0
62
 3
 0
LINE
8
default
6
CONTINUOUS
10
        69.853
20
        53.603
30
        -0.000
11
        71.230
21
        51.755
31
        -0.000
39
 0
62
 3
 0
LINE
8
default
6
CONTINUOUS
10
        71.230
20
        51.755
30
        -0.000
11
        72.558
21
        49.871
31
        -0.000
39
 0
62
 3
 0
LINE
8
default
6
CONTINUOUS
10
        72.558
20
        49.871
30
        -0.000
11
        73.835
21
        47.952
31
        -0.000
39
 0
62
 3
 0
LINE
8
default
6
CONTINUOUS
10
        73.835
20
        47.952
30
        -0.000
11
        75.061
21
        46.001
31
        -0.000
39
 0
62
 3
 0
LINE
8
default
6
CONTINUOUS
10
        75.061
20
        46.001
30
        -0.000
11
        76.236
21
        44.018
31
        -0.000
39
 0
62
 3
 0
LINE
8
default
6
CONTINUOUS
10
        76.236
20
        44.018
30
        -0.000
11
        77.357
21
        42.004
31
        -0.000
39
 0
62
 3
 0
LINE
8
default
6
CONTINUOUS
10
        77.357
20
        42.004
30
        -0.000
11
        78.426
21
        39.962
31
        -0.000
39
 0
62
 3
 0
LINE
8
default
6
CONTINUOUS
10
        78.426
20
        39.962
30
        -0.000
11
        79.439
21
        37.892
31
        -0.000
39
 0
62
 3
 0
LINE
8
default
6
CONTINUOUS
10
        79.439
20
        37.892
30
        -0.000
11
        80.398
21
        35.797
31
        -0.000
39
 0
62
 3
 0
LINE
8
default
6
CONTINUOUS
10
        80.398
20
        35.797
30
        -0.000
11
        81.301
21
        33.676
31
        -0.000
39
 0
62
 3
 0
LINE
8
default
6
CONTINUOUS
10
       -33.676
20
        81.301
30
        -0.000
11
       -31.538
21
        82.162
31
        -0.000
39
 0
62
 3
 0
LINE
8
default
6
CONTINUOUS
10
       -31.538
20
        82.162
30
        -0.000
11
       -29.378
21
        82.966
31
        -0.000
39
 0
62
 3
 0
LINE
8
default
6
CONTINUOUS
10
       -29.378
20
        82.966
30
        -0.000
11
       -27.198
21
        83.713
31
        -0.000
39
 0
62
 3
 0
LINE
8
default
6
CONTINUOUS
10
       -27.198
20
        83.713
30
        -0.000
11
       -24.998
21
        84.402
31
        -0.000
39
 0
62
 3
 0
LINE
8
default
6
CONTINUOUS
10
       -24.998
20
        84.402
30
        -0.000
11
       -22.782
21
        85.032
31
        -0.000
39
 0
62
 3
 0
LINE
8
default
6
CONTINUOUS
10
       -22.782
20
        85.032
30
        -0.000
11
       -20.549
21
        85.604
31
        -0.000
39
 0
62
 3
 0
LINE
8
default
6
CONTINUOUS
10
       -20.549
20
        85.604
30
        -0.000
11
       -18.302
21
        86.117
31
        -0.000
39
 0
62
 3
 0
LINE
8
default
6
CONTINUOUS
10
       -18.302
20
        86.117
30
        -0.000
11
       -16.042
21
        86.570
31
        -0.000
39
 0
62
 3
 0
LINE
8
default
6
CONTINUOUS
10
       -16.042
20
        86.570
30
        -0.000
11
       -13.771
21
        86.964
31
        -0.000
39
 0
62
 3
 0
LINE
8
default
6
CONTINUOUS
10
       -13.771
20
        86.964
30
        -0.000
11
       -11.491
21
        87.297
31
        -0.000
39
 0
62
 3
 0
LINE
8
default
6
CONTINUOUS
10
       -11.491
20
        87.297
30
        -0.000
11
        -9.202
21
        87.570
31
        -0.000
39
 0
62
 3
 0
LINE
8
default
6
CONTINUOUS
10
        -9.202
20
        87.570
30
        -0.000
11
        -6.907
21
        87.783
31
        -0.000
39
 0
62
 3
 0
LINE
8
default
6
CONTINUOUS
10
        -6.907
20
        87.783
30
        -0.000
11
        -4.607
21
        87.935
31
        -0.000
39
 0
62
 3
 0
LINE
8
default
6
CONTINUOUS
10
        -4.607
20
        87.935
30
        -0.000
11
        -2.305
21
        88.026
31
        -0.000
39
 0
62
 3
 0
LINE
8
default
6
CONTINUOUS
10
        -2.305
20
        88.026
30
        -0.000
11
         0.000
21
        88.056
31
        -0.000
39
 0
62
 3
 0
LINE
8
default
6
CONTINUOUS
10
         0.000
20
        88.056
30
        -0.000
11
         2.305
21
        88.026
31
        -0.000
39
 0
62
 3
 0
LINE
8
default
6
CONTINUOUS
10
         2.305
20
        88.026
30
        -0.000
11
         4.607
21
        87.935
31
        -0.000
39
 0
62
 3
 0
LINE
8
default
6
CONTINUOUS
10
         4.607
20
        87.935
30
        -0.000
11
         6.907
21
        87.783
31
        -0.000
39
 0
62
 3
 0
LINE
8
default
6
CONTINUOUS
10
         6.907
20
        87.783
30
        -0.000
11
         9.202
21
        87.570
31
        -0.000
39
 0
62
 3
 0
LINE
8
default
6
CONTINUOUS
10
         9.202
20
        87.570
30
        -0.000
11
        11.491
21
        87.297
31
        -0.000
39
 0
62
 3
 0
LINE
8
default
6
CONTINUOUS
10
        11.491
20
        87.297
30
        -0.000
11
        13.771
21
        86.964
31
        -0.000
39
 0
62
 3
 0
LINE
8
default
6
CONTINUOUS
10
        13.771
20
        86.964
30
        -0.000
11
        16.042
21
        86.570
31
        -0.000
39
 0
62
 3
 0
LINE
8
default
6
CONTINUOUS
10
        16.042
20
        86.570
30
        -0.000
11
        18.302
21
        86.117
31
        -0.000
39
 0
62
 3
 0
LINE
8
default
6
CONTINUOUS
10
        18.302
20
        86.117
30
        -0.000
11
        20.549
21
        85.604
31
        -0.000
39
 0
62
 3
 0
LINE
8
default
6
CONTINUOUS
10
        20.549
20
        85.604
30
        -0.000
11
        22.782
21
        85.032
31
        -0.000
39
 0
62
 3
 0
LINE
8
default
6
CONTINUOUS
10
        22.782
20
        85.032
30
        -0.000
11
        24.998
21
        84.402
31
        -0.000
39
 0
62
 3
 0
LINE
8
default
6
CONTINUOUS
10
        24.998
20
        84.402
30
        -0.000
11
        27.198
21
        83.713
31
        -0.000
39
 0
62
 3
 0
LINE
8
default
6
CONTINUOUS
10
        27.198
20
        83.713
30
        -0.000
11
        29.378
21
        82.966
31
        -0.000
39
 0
62
 3
 0
LINE
8
default
6
CONTINUOUS
10
        29.378
20
        82.966
30
        -0.000
11
        31.538
21
        82.162
31
        -0.000
39
 0
62
 3
 0
LINE
8
default
6
CONTINUOUS
10
        31.538
20
        82.162
30
        -0.000
11
        33.676
21
        81.301
31
        -0.000
39
 0
62
 3
 0
LINE
8
default
6
CONTINUOUS
10
       -81.301
20
        33.676
30
        -0.000
11
       -80.398
21
        35.797
31
        -0.000
39
 0
62
 3
 0
LINE
8
default
6
CONTINUOUS
10
       -80.398
20
        35.797
30
        -0.000
11
       -79.439
21
        37.892
31
        -0.000
39
 0
62
 3
 0
LINE
8
default
6
CONTINUOUS
10
       -79.439
20
        37.892
30
        -0.000
11
       -78.426
21
        39.962
31
        -0.000
39
 0
62
 3
 0
LINE
8
default
6
CONTINUOUS
10
       -78.426
20
        39.962
30
        -0.000
11
       -77.357
21
        42.004
31
        -0.000
39
 0
62
 3
 0
LINE
8
default
6
CONTINUOUS
10
       -77.357
20
        42.004
30
        -0.000
11
       -76.236
21
        44.018
31
        -0.000
39
 0
62
 3
 0
LINE
8
default
6
CONTINUOUS
10
       -76.236
20
        44.018
30
        -0.000
11
       -75.061
21
        46.001
31
        -0.000
39
 0
62
 3
 0
LINE
8
default
6
CONTINUOUS
10
       -75.061
20
        46.001
30
        -0.000
11
       -73.835
21
        47.952
31
        -0.000
39
 0
62
 3
 0
LINE
8
default
6
CONTINUOUS
10
       -73.835
20
        47.952
30
        -0.000
11
       -72.558
21
        49.871
31
        -0.000
39
 0
62
 3
 0
LINE
8
default
6
CONTINUOUS
10
       -72.558
20
        49.871
30
        -0.000
11
       -71.230
21
        51.755
31
        -0.000
39
 0
62
 3
 0
LINE
8
default
6
CONTINUOUS
10
       -71.230
20
        51.755
30
        -0.000
11
       -69.853
21
        53.603
31
        -0.000
39
 0
62
 3
 0
LINE
8
default
6
CONTINUOUS
10
       -69.853
20
        53.603
30
        -0.000
11
       -68.428
21
        55.414
31
        -0.000
39
 0
62
 3
 0
LINE
8
default
6
CONTINUOUS
10
       -68.428
20
        55.414
30
        -0.000
11
       -66.956
21
        57.188
31
        -0.000
39
 0
62
 3
 0
LINE
8
default
6
CONTINUOUS
10
       -66.956
20
        57.188
30
        -0.000
11
       -65.437
21
        58.921
31
        -0.000
39
 0
62
 3
 0
LINE
8
default
6
CONTINUOUS
10
       -65.437
20
        58.921
30
        -0.000
11
       -63.873
21
        60.614
31
        -0.000
39
 0
62
 3
 0
LINE
8
default
6
CONTINUOUS
10
       -63.873
20
        60.614
30
        -0.000
11
       -62.265
21
        62.265
31
        -0.000
39
 0
62
 3
 0
LINE
8
default
6
CONTINUOUS
10
       -62.265
20
        62.265
30
        -0.000
11
       -60.614
21
        63.873
31
        -0.000
39
 0
62
 3
 0
LINE
8
default
6
CONTINUOUS
10
       -60.614
20
        63.873
30
        -0.000
11
       -58.921
21
        65.437
31
        -0.000
39
 0
62
 3
 0
LINE
8
default
6
CONTINUOUS
10
       -58.921
20
        65.437
30
        -0.000
11
       -57.188
21
        66.956
31
        -0.000
39
 0
62
 3
 0
LINE
8
default
6
CONTINUOUS
10
       -57.188
20
        66.956
30
        -0.000
11
       -55.414
21
        68.428
31
        -0.000
39
 0
62
 3
 0
LINE
8
default
6
CONTINUOUS
10
       -55.414
20
        68.428
30
        -0.000
11
       -53.603
21
        69.853
31
        -0.000
39
 0
62
 3
 0
LINE
8
default
6
CONTINUOUS
10
       -53.603
20
        69.853
30
        -0.000
11
       -51.755
21
        71.230
31
        -0.000
39
 0
62
 3
 0
LINE
8
default
6
CONTINUOUS
10
       -51.755
20
        71.230
30
        -0.000
11
       -49.871
21
        72.558
31
        -0.000
39
 0
62
 3
 0
LINE
8
default
6
CONTINUOUS
10
       -49.871
20
        72.558
30
        -0.000
11
       -47.952
21
        73.835
31
        -0.000
39
 0
62
 3
 0
LINE
8
default
6
CONTINUOUS
10
       -47.952
20
        73.835
30
        -0.000
11
       -46.001
21
        75.061
31
        -0.000
39
 0
62
 3
 0
LINE
8
default
6
CONTINUOUS
10
       -46.001
20
        75.061
30
        -0.000
11
       -44.018
21
        76.236
31
        -0.000
39
 0
62
 3
 0
LINE
8
default
6
CONTINUOUS
10
       -44.018
20
        76.236
30
        -0.000
11
       -42.004
21
        77.357
31
        -0.000
39
 0
62
 3
 0
LINE
8
default
6
CONTINUOUS
10
       -42.004
20
        77.357
30
        -0.000
11
       -39.962
21
        78.426
31
        -0.000
39
 0
62
 3
 0
LINE
8
default
6
CONTINUOUS
10
       -39.962
20
        78.426
30
        -0.000
11
       -37.892
21
        79.439
31
        -0.000
39
 0
62
 3
 0
LINE
8
default
6
CONTINUOUS
10
       -37.892
20
        79.439
30
        -0.000
11
       -35.797
21
        80.398
31
        -0.000
39
 0
62
 3
 0
LINE
8
default
6
CONTINUOUS
10
       -35.797
20
        80.398
30
        -0.000
11
       -33.676
21
        81.301
31
        -0.000
39
 0
62
 3
 0
LINE
8
default
6
CONTINUOUS
10
       -81.301
20
       -33.676
30
        -0.000
11
       -82.162
21
       -31.538
31
        -0.000
39
 0
62
 3
 0
LINE
8
default
6
CONTINUOUS
10
       -82.162
20
       -31.538
30
        -0.000
11
       -82.966
21
       -29.378
31
        -0.000
39
 0
62
 3
 0
LINE
8
default
6
CONTINUOUS
10
       -82.966
20
       -29.378
30
        -0.000
11
       -83.713
21
       -27.198
31
        -0.000
39
 0
62
 3
 0
LINE
8
default
6
CONTINUOUS
10
       -83.713
20
       -27.198
30
        -0.000
11
       -84.402
21
       -24.998
31
        -0.000
39
 0
62
 3
 0
LINE
8
default
6
CONTINUOUS
10
       -84.402
20
       -24.998
30
        -0.000
11
       -85.032
21
       -22.782
31
        -0.000
39
 0
62
 3
 0
LINE
8
default
6
CONTINUOUS
10
       -85.032
20
       -22.782
30
        -0.000
11
       -85.604
21
       -20.549
31
        -0.000
39
 0
62
 3
 0
LINE
8
default
6
CONTINUOUS
10
       -85.604
20
       -20.549
30
        -0.000
11
       -86.117
21
       -18.302
31
        -0.000
39
 0
62
 3
 0
LINE
8
default
6
CONTINUOUS
10
       -86.117
20
       -18.302
30
        -0.000
11
       -86.570
21
       -16.042
31
        -0.000
39
 0
62
 3
 0
LINE
8
default
6
CONTINUOUS
10
       -86.570
20
       -16.042
30
        -0.000
11
       -86.964
21
       -13.771
31
        -0.000
39
 0
62
 3
 0
LINE
8
default
6
CONTINUOUS
10
       -86.964
20
       -13.771
30
        -0.000
11
       -87.297
21
       -11.491
31
        -0.000
39
 0
62
 3
 0
LINE
8
default
6
CONTINUOUS
10
       -87.297
20
       -11.491
30
        -0.000
11
       -87.570
21
        -9.202
31
        -0.000
39
 0
62
 3
 0
LINE
8
default
6
CONTINUOUS
10
       -87.570
20
        -9.202
30
        -0.000
11
       -87.783
21
        -6.907
31
        -0.000
39
 0
62
 3
 0
LINE
8
default
6
CONTINUOUS
10
       -87.783
20
        -6.907
30
        -0.000
11
       -87.935
21
        -4.607
31
        -0.000
39
 0
62
 3
 0
LINE
8
default
6
CONTINUOUS
10
       -87.935
20
        -4.607
30
        -0.000
11
       -88.026
21
        -2.305
31
        -0.000
39
 0
62
 3
 0
LINE
8
default
6
CONTINUOUS
10
       -88.026
20
        -2.305
30
        -0.000
11
       -88.056
21
         0.000
31
        -0.000
39
 0
62
 3
 0
LINE
8
default
6
CONTINUOUS
10
       -88.056
20
         0.000
30
        -0.000
11
       -88.026
21
         2.305
31
        -0.000
39
 0
62
 3
 0
LINE
8
default
6
CONTINUOUS
10
       -88.026
20
         2.305
30
        -0.000
11
       -87.935
21
         4.607
31
        -0.000
39
 0
62
 3
 0
LINE
8
default
6
CONTINUOUS
10
       -87.935
20
         4.607
30
        -0.000
11
       -87.783
21
         6.907
31
        -0.000
39
 0
62
 3
 0
LINE
8
default
6
CONTINUOUS
10
       -87.783
20
         6.907
30
        -0.000
11
       -87.570
21
         9.202
31
        -0.000
39
 0
62
 3
 0
LINE
8
default
6
CONTINUOUS
10
       -87.570
20
         9.202
30
        -0.000
11
       -87.297
21
        11.491
31
        -0.000
39
 0
62
 3
 0
LINE
8
default
6
CONTINUOUS
10
       -87.297
20
        11.491
30
        -0.000
11
       -86.964
21
        13.771
31
        -0.000
39
 0
62
 3
 0
LINE
8
default
6
CONTINUOUS
10
       -86.964
20
        13.771
30
        -0.000
11
       -86.570
21
        16.042
31
        -0.000
39
 0
62
 3
 0
LINE
8
default
6
CONTINUOUS
10
       -86.570
20
        16.042
30
        -0.000
11
       -86.117
21
        18.302
31
        -0.000
39
 0
62
 3
 0
LINE
8
default
6
CONTINUOUS
10
       -86.117
20
        18.302
30
        -0.000
11
       -85.604
21
        20.549
31
        -0.000
39
 0
62
 3
 0
LINE
8
default
6
CONTINUOUS
10
       -85.604
20
        20.549
30
        -0.000
11
       -85.032
21
        22.782
31
        -0.000
39
 0
62
 3
 0
LINE
8
default
6
CONTINUOUS
10
       -85.032
20
        22.782
30
        -0.000
11
       -84.402
21
        24.998
31
        -0.000
39
 0
62
 3
 0
LINE
8
default
6
CONTINUOUS
10
       -84.402
20
        24.998
30
        -0.000
11
       -83.713
21
        27.198
31
        -0.000
39
 0
62
 3
 0
LINE
8
default
6
CONTINUOUS
10
       -83.713
20
        27.198
30
        -0.000
11
       -82.966
21
        29.378
31
        -0.000
39
 0
62
 3
 0
LINE
8
default
6
CONTINUOUS
10
       -82.966
20
        29.378
30
        -0.000
11
       -82.162
21
        31.538
31
        -0.000
39
 0
62
 3
 0
LINE
8
default
6
CONTINUOUS
10
       -82.162
20
        31.538
30
        -0.000
11
       -81.301
21
        33.676
31
        -0.000
39
 0
62
 3
 0
LINE
8
default
6
CONTINUOUS
10
       -33.676
20
       -81.301
30
        -0.000
11
       -35.797
21
       -80.398
31
        -0.000
39
 0
62
 3
 0
LINE
8
default
6
CONTINUOUS
10
       -35.797
20
       -80.398
30
        -0.000
11
       -37.892
21
       -79.439
31
        -0.000
39
 0
62
 3
 0
LINE
8
default
6
CONTINUOUS
10
       -37.892
20
       -79.439
30
        -0.000
11
       -39.962
21
       -78.426
31
        -0.000
39
 0
62
 3
 0
LINE
8
default
6
CONTINUOUS
10
       -39.962
20
       -78.426
30
        -0.000
11
       -42.004
21
       -77.357
31
        -0.000
39
 0
62
 3
 0
LINE
8
default
6
CONTINUOUS
10
       -42.004
20
       -77.357
30
        -0.000
11
       -44.018
21
       -76.236
31
        -0.000
39
 0
62
 3
 0
LINE
8
default
6
CONTINUOUS
10
       -44.018
20
       -76.236
30
        -0.000
11
       -46.001
21
       -75.061
31
        -0.000
39
 0
62
 3
 0
LINE
8
default
6
CONTINUOUS
10
       -46.001
20
       -75.061
30
        -0.000
11
       -47.952
21
       -73.835
31
        -0.000
39
 0
62
 3
 0
LINE
8
default
6
CONTINUOUS
10
       -47.952
20
       -73.835
30
        -0.000
11
       -49.871
21
       -72.558
31
        -0.000
39
 0
62
 3
 0
LINE
8
default
6
CONTINUOUS
10
       -49.871
20
       -72.558
30
        -0.000
11
       -51.755
21
       -71.230
31
        -0.000
39
 0
62
 3
 0
LINE
8
default
6
CONTINUOUS
10
       -51.755
20
       -71.230
30
        -0.000
11
       -53.603
21
       -69.853
31
        -0.000
39
 0
62
 3
 0
LINE
8
default
6
CONTINUOUS
10
       -53.603
20
       -69.853
30
        -0.000
11
       -55.414
21
       -68.428
31
        -0.000
39
 0
62
 3
 0
LINE
8
default
6
CONTINUOUS
10
       -55.414
20
       -68.428
30
        -0.000
11
       -57.188
21
       -66.956
31
        -0.000
39
 0
62
 3
 0
LINE
8
default
6
CONTINUOUS
10
       -57.188
20
       -66.956
30
        -0.000
11
       -58.921
21
       -65.437
31
        -0.000
39
 0
62
 3
 0
LINE
8
default
6
CONTINUOUS
10
       -58.921
20
       -65.437
30
        -0.000
11
       -60.614
21
       -63.873
31
        -0.000
39
 0
62
 3
 0
LINE
8
default
6
CONTINUOUS
10
       -60.614
20
       -63.873
30
        -0.000
11
       -62.265
21
       -62.265
31
        -0.000
39
 0
62
 3
 0
LINE
8
default
6
CONTINUOUS
10
       -62.265
20
       -62.265
30
        -0.000
11
       -63.873
21
       -60.614
31
        -0.000
39
 0
62
 3
 0
LINE
8
default
6
CONTINUOUS
10
       -63.873
20
       -60.614
30
        -0.000
11
       -65.437
21
       -58.921
31
        -0.000
39
 0
62
 3
 0
LINE
8
default
6
CONTINUOUS
10
       -65.437
20
       -58.921
30
        -0.000
11
       -66.956
21
       -57.188
31
        -0.000
39
 0
62
 3
 0
LINE
8
default
6
CONTINUOUS
10
       -66.956
20
       -57.188
30
        -0.000
11
       -68.428
21
       -55.414
31
        -0.000
39
 0
62
 3
 0
LINE
8
default
6
CONTINUOUS
10
       -68.428
20
       -55.414
30
        -0.000
11
       -69.853
21
       -53.603
31
        -0.000
39
 0
62
 3
 0
LINE
8
default
6
CONTINUOUS
10
       -69.853
20
       -53.603
30
        -0.000
11
       -71.230
21
       -51.755
31
        -0.000
39
 0
62
 3
 0
LINE
8
default
6
CONTINUOUS
10
       -71.230
20
       -51.755
30
        -0.000
11
       -72.558
21
       -49.871
31
        -0.000
39
 0
62
 3
 0
LINE
8
default
6
CONTINUOUS
10
       -72.558
20
       -49.871
30
        -0.000
11
       -73.835
21
       -47.952
31
        -0.000
39
 0
62
 3
 0
LINE
8
default
6
CONTINUOUS
10
       -73.835
20
       -47.952
30
        -0.000
11
       -75.061
21
       -46.001
31
        -0.000
39
 0
62
 3
 0
LINE
8
default
6
CONTINUOUS
10
       -75.061
20
       -46.001
30
        -0.000
11
       -76.236
21
       -44.018
31
        -0.000
39
 0
62
 3
 0
LINE
8
default
6
CONTINUOUS
10
       -76.236
20
       -44.018
30
        -0.000
11
       -77.357
21
       -42.004
31
        -0.000
39
 0
62
 3
 0
LINE
8
default
6
CONTINUOUS
10
       -77.357
20
       -42.004
30
        -0.000
11
       -78.426
21
       -39.962
31
        -0.000
39
 0
62
 3
 0
LINE
8
default
6
CONTINUOUS
10
       -78.426
20
       -39.962
30
        -0.000
11
       -79.439
21
       -37.892
31
        -0.000
39
 0
62
 3
 0
LINE
8
default
6
CONTINUOUS
10
       -79.439
20
       -37.892
30
        -0.000
11
       -80.398
21
       -35.797
31
        -0.000
39
 0
62
 3
 0
LINE
8
default
6
CONTINUOUS
10
       -80.398
20
       -35.797
30
        -0.000
11
       -81.301
21
       -33.676
31
        -0.000
39
 0
62
 3
 0
LINE
8
default
6
CONTINUOUS
10
        33.676
20
       -81.301
30
        -0.000
11
        31.538
21
       -82.162
31
        -0.000
39
 0
62
 3
 0
LINE
8
default
6
CONTINUOUS
10
        31.538
20
       -82.162
30
        -0.000
11
        29.378
21
       -82.966
31
        -0.000
39
 0
62
 3
 0
LINE
8
default
6
CONTINUOUS
10
        29.378
20
       -82.966
30
        -0.000
11
        27.198
21
       -83.713
31
        -0.000
39
 0
62
 3
 0
LINE
8
default
6
CONTINUOUS
10
        27.198
20
       -83.713
30
        -0.000
11
        24.998
21
       -84.402
31
        -0.000
39
 0
62
 3
 0
LINE
8
default
6
CONTINUOUS
10
        24.998
20
       -84.402
30
        -0.000
11
        22.782
21
       -85.032
31
        -0.000
39
 0
62
 3
 0
LINE
8
default
6
CONTINUOUS
10
        22.782
20
       -85.032
30
        -0.000
11
        20.549
21
       -85.604
31
        -0.000
39
 0
62
 3
 0
LINE
8
default
6
CONTINUOUS
10
        20.549
20
       -85.604
30
        -0.000
11
        18.302
21
       -86.117
31
        -0.000
39
 0
62
 3
 0
LINE
8
default
6
CONTINUOUS
10
        18.302
20
       -86.117
30
        -0.000
11
        16.042
21
       -86.570
31
        -0.000
39
 0
62
 3
 0
LINE
8
default
6
CONTINUOUS
10
        16.042
20
       -86.570
30
        -0.000
11
        13.771
21
       -86.964
31
        -0.000
39
 0
62
 3
 0
LINE
8
default
6
CONTINUOUS
10
        13.771
20
       -86.964
30
        -0.000
11
        11.491
21
       -87.297
31
        -0.000
39
 0
62
 3
 0
LINE
8
default
6
CONTINUOUS
10
        11.491
20
       -87.297
30
        -0.000
11
         9.202
21
       -87.570
31
        -0.000
39
 0
62
 3
 0
LINE
8
default
6
CONTINUOUS
10
         9.202
20
       -87.570
30
        -0.000
11
         6.907
21
       -87.783
31
        -0.000
39
 0
62
 3
 0
LINE
8
default
6
CONTINUOUS
10
         6.907
20
       -87.783
30
        -0.000
11
         4.607
21
       -87.935
31
        -0.000
39
 0
62
 3
 0
LINE
8
default
6
CONTINUOUS
10
         4.607
20
       -87.935
30
        -0.000
11
         2.305
21
       -88.026
31
        -0.000
39
 0
62
 3
 0
LINE
8
default
6
CONTINUOUS
10
         2.305
20
       -88.026
30
        -0.000
11
        -0.000
21
       -88.056
31
        -0.000
39
 0
62
 3
 0
LINE
8
default
6
CONTINUOUS
10
        -0.000
20
       -88.056
30
        -0.000
11
        -2.305
21
       -88.026
31
        -0.000
39
 0
62
 3
 0
LINE
8
default
6
CONTINUOUS
10
        -2.305
20
       -88.026
30
        -0.000
11
        -4.607
21
       -87.935
31
        -0.000
39
 0
62
 3
 0
LINE
8
default
6
CONTINUOUS
10
        -4.607
20
       -87.935
30
        -0.000
11
        -6.907
21
       -87.783
31
        -0.000
39
 0
62
 3
 0
LINE
8
default
6
CONTINUOUS
10
        -6.907
20
       -87.783
30
        -0.000
11
        -9.202
21
       -87.570
31
        -0.000
39
 0
62
 3
 0
LINE
8
default
6
CONTINUOUS
10
        -9.202
20
       -87.570
30
        -0.000
11
       -11.491
21
       -87.297
31
        -0.000
39
 0
62
 3
 0
LINE
8
default
6
CONTINUOUS
10
       -11.491
20
       -87.297
30
        -0.000
11
       -13.771
21
       -86.964
31
        -0.000
39
 0
62
 3
 0
LINE
8
default
6
CONTINUOUS
10
       -13.771
20
       -86.964
30
        -0.000
11
       -16.042
21
       -86.570
31
        -0.000
39
 0
62
 3
 0
LINE
8
default
6
CONTINUOUS
10
       -16.042
20
       -86.570
30
        -0.000
11
       -18.302
21
       -86.117
31
        -0.000
39
 0
62
 3
 0
LINE
8
default
6
CONTINUOUS
10
       -18.302
20
       -86.117
30
        -0.000
11
       -20.549
21
       -85.604
31
        -0.000
39
 0
62
 3
 0
LINE
8
default
6
CONTINUOUS
10
       -20.549
20
       -85.604
30
        -0.000
11
       -22.782
21
       -85.032
31
        -0.000
39
 0
62
 3
 0
LINE
8
default
6
CONTINUOUS
10
       -22.782
20
       -85.032
30
        -0.000
11
       -24.998
21
       -84.402
31
        -0.000
39
 0
62
 3
 0
LINE
8
default
6
CONTINUOUS
10
       -24.998
20
       -84.402
30
        -0.000
11
       -27.198
21
       -83.713
31
        -0.000
39
 0
62
 3
 0
LINE
8
default
6
CONTINUOUS
10
       -27.198
20
       -83.713
30
        -0.000
11
       -29.378
21
       -82.966
31
        -0.000
39
 0
62
 3
 0
LINE
8
default
6
CONTINUOUS
10
       -29.378
20
       -82.966
30
        -0.000
11
       -31.538
21
       -82.162
31
        -0.000
39
 0
62
 3
 0
LINE
8
default
6
CONTINUOUS
10
       -31.538
20
       -82.162
30
        -0.000
11
       -33.676
21
       -81.301
31
        -0.000
39
 0
62
 3
 0
LINE
8
default
6
CONTINUOUS
10
        81.301
20
       -33.676
30
        -0.000
11
        80.398
21
       -35.797
31
        -0.000
39
 0
62
 3
 0
LINE
8
default
6
CONTINUOUS
10
        80.398
20
       -35.797
30
        -0.000
11
        79.439
21
       -37.892
31
        -0.000
39
 0
62
 3
 0
LINE
8
default
6
CONTINUOUS
10
        79.439
20
       -37.892
30
        -0.000
11
        78.426
21
       -39.962
31
        -0.000
39
 0
62
 3
 0
LINE
8
default
6
CONTINUOUS
10
        78.426
20
       -39.962
30
        -0.000
11
        77.357
21
       -42.004
31
        -0.000
39
 0
62
 3
 0
LINE
8
default
6
CONTINUOUS
10
        77.357
20
       -42.004
30
        -0.000
11
        76.236
21
       -44.018
31
        -0.000
39
 0
62
 3
 0
LINE
8
default
6
CONTINUOUS
10
        76.236
20
       -44.018
30
        -0.000
11
        75.061
21
       -46.001
31
        -0.000
39
 0
62
 3
 0
LINE
8
default
6
CONTINUOUS
10
        75.061
20
       -46.001
30
        -0.000
11
        73.835
21
       -47.952
31
        -0.000
39
 0
62
 3
 0
LINE
8
default
6
CONTINUOUS
10
        73.835
20
       -47.952
30
        -0.000
11
        72.558
21
       -49.871
31
        -0.000
39
 0
62
 3
 0
LINE
8
default
6
CONTINUOUS
10
        72.558
20
       -49.871
30
        -0.000
11
        71.230
21
       -51.755
31
        -0.000
39
 0
62
 3
 0
LINE
8
default
6
CONTINUOUS
10
        71.230
20
       -51.755
30
        -0.000
11
        69.853
21
       -53.603
31
        -0.000
39
 0
62
 3
 0
LINE
8
default
6
CONTINUOUS
10
        69.853
20
       -53.603
30
        -0.000
11
        68.428
21
       -55.414
31
        -0.000
39
 0
62
 3
 0
LINE
8
default
6
CONTINUOUS
10
        68.428
20
       -55.414
30
        -0.000
11
        66.956
21
       -57.188
31
        -0.000
39
 0
62
 3
 0
LINE
8
default
6
CONTINUOUS
10
        66.956
20
       -57.188
30
        -0.000
11
        65.437
21
       -58.921
31
        -0.000
39
 0
62
 3
 0
LINE
8
default
6
CONTINUOUS
10
        65.437
20
       -58.921
30
        -0.000
11
        63.873
21
       -60.614
31
        -0.000
39
 0
62
 3
 0
LINE
8
default
6
CONTINUOUS
10
        63.873
20
       -60.614
30
        -0.000
11
        62.265
21
       -62.265
31
        -0.000
39
 0
62
 3
 0
LINE
8
default
6
CONTINUOUS
10
        62.265
20
       -62.265
30
        -0.000
11
        60.614
21
       -63.873
31
        -0.000
39
 0
62
 3
 0
LINE
8
default
6
CONTINUOUS
10
        60.614
20
       -63.873
30
        -0.000
11
        58.921
21
       -65.437
31
        -0.000
39
 0
62
 3
 0
LINE
8
default
6
CONTINUOUS
10
        58.921
20
       -65.437
30
        -0.000
11
        57.188
21
       -66.956
31
        -0.000
39
 0
62
 3
 0
LINE
8
default
6
CONTINUOUS
10
        57.188
20
       -66.956
30
        -0.000
11
        55.414
21
       -68.428
31
        -0.000
39
 0
62
 3
 0
LINE
8
default
6
CONTINUOUS
10
        55.414
20
       -68.428
30
        -0.000
11
        53.603
21
       -69.853
31
        -0.000
39
 0
62
 3
 0
LINE
8
default
6
CONTINUOUS
10
        53.603
20
       -69.853
30
        -0.000
11
        51.755
21
       -71.230
31
        -0.000
39
 0
62
 3
 0
LINE
8
default
6
CONTINUOUS
10
        51.755
20
       -71.230
30
        -0.000
11
        49.871
21
       -72.558
31
        -0.000
39
 0
62
 3
 0
LINE
8
default
6
CONTINUOUS
10
        49.871
20
       -72.558
30
        -0.000
11
        47.952
21
       -73.835
31
        -0.000
39
 0
62
 3
 0
LINE
8
default
6
CONTINUOUS
10
        47.952
20
       -73.835
30
        -0.000
11
        46.001
21
       -75.061
31
        -0.000
39
 0
62
 3
 0
LINE
8
default
6
CONTINUOUS
10
        46.001
20
       -75.061
30
        -0.000
11
        44.018
21
       -76.236
31
        -0.000
39
 0
62
 3
 0
LINE
8
default
6
CONTINUOUS
10
        44.018
20
       -76.236
30
        -0.000
11
        42.004
21
       -77.357
31
        -0.000
39
 0
62
 3
 0
LINE
8
default
6
CONTINUOUS
10
        42.004
20
       -77.357
30
        -0.000
11
        39.962
21
       -78.426
31
        -0.000
39
 0
62
 3
 0
LINE
8
default
6
CONTINUOUS
10
        39.962
20
       -78.426
30
        -0.000
11
        37.892
21
       -79.439
31
        -0.000
39
 0
62
 3
 0
LINE
8
default
6
CONTINUOUS
10
        37.892
20
       -79.439
30
        -0.000
11
        35.797
21
       -80.398
31
        -0.000
39
 0
62
 3
 0
LINE
8
default
6
CONTINUOUS
10
        35.797
20
       -80.398
30
        -0.000
11
        33.676
21
       -81.301
31
        -0.000
39
 0
62
 3
 0
LINE
8
default
6
CONTINUOUS
10
        81.301
20
        33.676
30
        -0.000
11
        82.162
21
        31.538
31
        -0.000
39
 0
62
 3
 0
LINE
8
default
6
CONTINUOUS
10
        82.162
20
        31.538
30
        -0.000
11
        82.966
21
        29.378
31
        -0.000
39
 0
62
 3
 0
LINE
8
default
6
CONTINUOUS
10
        82.966
20
        29.378
30
        -0.000
11
        83.713
21
        27.198
31
        -0.000
39
 0
62
 3
 0
LINE
8
default
6
CONTINUOUS
10
        83.713
20
        27.198
30
        -0.000
11
        84.402
21
        24.998
31
        -0.000
39
 0
62
 3
 0
LINE
8
default
6
CONTINUOUS
10
        84.402
20
        24.998
30
        -0.000
11
        85.032
21
        22.782
31
        -0.000
39
 0
62
 3
 0
LINE
8
default
6
CONTINUOUS
10
        85.032
20
        22.782
30
        -0.000
11
        85.604
21
        20.549
31
        -0.000
39
 0
62
 3
 0
LINE
8
default
6
CONTINUOUS
10
        85.604
20
        20.549
30
        -0.000
11
        86.117
21
        18.302
31
        -0.000
39
 0
62
 3
 0
LINE
8
default
6
CONTINUOUS
10
        86.117
20
        18.302
30
        -0.000
11
        86.570
21
        16.042
31
        -0.000
39
 0
62
 3
 0
LINE
8
default
6
CONTINUOUS
10
        86.570
20
        16.042
30
        -0.000
11
        86.964
21
        13.771
31
        -0.000
39
 0
62
 3
 0
LINE
8
default
6
CONTINUOUS
10
        86.964
20
        13.771
30
        -0.000
11
        87.297
21
        11.491
31
        -0.000
39
 0
62
 3
 0
LINE
8
default
6
CONTINUOUS
10
        87.297
20
        11.491
30
        -0.000
11
        87.570
21
         9.202
31
        -0.000
39
 0
62
 3
 0
LINE
8
default
6
CONTINUOUS
10
        87.570
20
         9.202
30
        -0.000
11
        87.783
21
         6.907
31
        -0.000
39
 0
62
 3
 0
LINE
8
default
6
CONTINUOUS
10
        87.783
20
         6.907
30
        -0.000
11
        87.935
21
         4.607
31
        -0.000
39
 0
62
 3
 0
LINE
8
default
6
CONTINUOUS
10
        87.935
20
         4.607
30
        -0.000
11
        88.026
21
         2.305
31
        -0.000
39
 0
62
 3
 0
LINE
8
default
6
CONTINUOUS
10
        88.026
20
         2.305
30
        -0.000
11
        88.056
21
        -0.000
31
        -0.000
39
 0
62
 3
 0
LINE
8
default
6
CONTINUOUS
10
        88.056
20
        -0.000
30
        -0.000
11
        88.026
21
        -2.305
31
        -0.000
39
 0
62
 3
 0
LINE
8
default
6
CONTINUOUS
10
        88.026
20
        -2.305
30
        -0.000
11
        87.935
21
        -4.607
31
        -0.000
39
 0
62
 3
 0
LINE
8
default
6
CONTINUOUS
10
        87.935
20
        -4.607
30
        -0.000
11
        87.783
21
        -6.907
31
        -0.000
39
 0
62
 3
 0
LINE
8
default
6
CONTINUOUS
10
        87.783
20
        -6.907
30
        -0.000
11
        87.570
21
        -9.202
31
        -0.000
39
 0
62
 3
 0
LINE
8
default
6
CONTINUOUS
10
        87.570
20
        -9.202
30
        -0.000
11
        87.297
21
       -11.491
31
        -0.000
39
 0
62
 3
 0
LINE
8
default
6
CONTINUOUS
10
        87.297
20
       -11.491
30
        -0.000
11
        86.964
21
       -13.771
31
        -0.000
39
 0
62
 3
 0
LINE
8
default
6
CONTINUOUS
10
        86.964
20
       -13.771
30
        -0.000
11
        86.570
21
       -16.042
31
        -0.000
39
 0
62
 3
 0
LINE
8
default
6
CONTINUOUS
10
        86.570
20
       -16.042
30
        -0.000
11
        86.117
21
       -18.302
31
        -0.000
39
 0
62
 3
 0
LINE
8
default
6
CONTINUOUS
10
        86.117
20
       -18.302
30
        -0.000
11
        85.604
21
       -20.549
31
        -0.000
39
 0
62
 3
 0
LINE
8
default
6
CONTINUOUS
10
        85.604
20
       -20.549
30
        -0.000
11
        85.032
21
       -22.782
31
        -0.000
39
 0
62
 3
 0
LINE
8
default
6
CONTINUOUS
10
        85.032
20
       -22.782
30
        -0.000
11
        84.402
21
       -24.998
31
        -0.000
39
 0
62
 3
 0
LINE
8
default
6
CONTINUOUS
10
        84.402
20
       -24.998
30
        -0.000
11
        83.713
21
       -27.198
31
        -0.000
39
 0
62
 3
 0
LINE
8
default
6
CONTINUOUS
10
        83.713
20
       -27.198
30
        -0.000
11
        82.966
21
       -29.378
31
        -0.000
39
 0
62
 3
 0
LINE
8
default
6
CONTINUOUS
10
        82.966
20
       -29.378
30
        -0.000
11
        82.162
21
       -31.538
31
        -0.000
39
 0
62
 3
 0
LINE
8
default
6
CONTINUOUS
10
        82.162
20
       -31.538
30
        -0.000
11
        81.301
21
       -33.676
31
        -0.000
39
 0
62
 3
 0
LINE
8
default
6
CONTINUOUS
10
         0.000
20
         0.000
30
      -182.000
11
        81.301
21
        33.676
31
        -0.000
39
 0
62
 9
 0
LINE
8
default
6
CONTINUOUS
10
         0.000
20
         0.000
30
      -182.000
11
        33.676
21
        81.301
31
        -0.000
39
 0
62
 9
 0
LINE
8
default
6
CONTINUOUS
10
         0.000
20
         0.000
30
      -182.000
11
       -33.676
21
        81.301
31
        -0.000
39
 0
62
 9
 0
LINE
8
default
6
CONTINUOUS
10
         0.000
20
         0.000
30
      -182.000
11
       -81.301
21
        33.676
31
        -0.000
39
 0
62
 9
 0
LINE
8
default
6
CONTINUOUS
10
         0.000
20
        -0.000
30
      -182.000
11
       -81.301
21
       -33.676
31
        -0.000
39
 0
62
 9
 0
LINE
8
default
6
CONTINUOUS
10
         0.000
20
        -0.000
30
      -182.000
11
       -33.676
21
       -81.301
31
        -0.000
39
 0
62
 9
 0
LINE
8
default
6
CONTINUOUS
10
         0.000
20
        -0.000
30
      -182.000
11
        33.676
21
       -81.301
31
        -0.000
39
 0
62
 9
 0
LINE
8
default
6
CONTINUOUS
10
         0.000
20
        -0.000
30
      -182.000
11
        81.301
21
       -33.676
31
        -0.000
39
 0
62
 9
 0
ENDSEC
0
EOF
