999
dxfrw 0.6.3
  0
SECTION
  2
HEADER
  9
$ACADVER
  1
AC1021
  9
$DWGCODEPAGE
  3
ANSI_1252
  9
$INSBASE
 10
0
 20
0
 30
0
  9
$EXTMIN
 10
-1.06581410364015e-014
 20
-84
 30
0
  9
$EXTMAX
 10
59.4
 20
0
 30
0
  9
$LIMMIN
 10
0
 20
0
  9
$LIMMAX
 10
420
 20
297
  9
$ORTHOMODE
 70
    0
  9
$REGENMODE
 70
    1
  9
$FILLMODE
 70
    1
  9
$QTEXTMODE
 70
    0
  9
$MIRRTEXT
 70
    0
  9
$LTSCALE
 40
1
  9
$ATTMODE
 70
    0
  9
$TEXTSIZE
 40
2.5
  9
$TRACEWID
 40
15.68
  9
$TEXTSTYLE
  7
STANDARD
  9
$CLAYER
  8
0
  9
$CELTYPE
  6
BYLAYER
  9
$CECOLOR
 62
  256
  9
$CELTSCALE
 40
1
  9
$DISPSILH
 70
    0
  9
$DIMSCALE
 40
1
  9
$DIMASZ
 40
2.5
  9
$DIMEXO
 40
0.625
  9
$DIMDLI
 40
3.75
  9
$DIMRND
 40
0
  9
$DIMDLE
 40
0
  9
$DIMEXE
 40
1.25
  9
$DIMTP
 40
0
  9
$DIMTM
 40
0
  9
$DIMTXT
 40
2.5
  9
$DIMCEN
 40
2.5
  9
$DIMTSZ
 40
0
  9
$DIMTOL
 70
    0
  9
$DIMLIM
 70
    0
  9
$DIMTIH
 70
    0
  9
$DIMTOH
 70
    0
  9
$DIMSE1
 70
    0
  9
$DIMSE2
 70
    0
  9
$DIMTAD
 70
    1
  9
$DIMZIN
 70
    8
  9
$DIMBLK
  1

  9
$DIMASO
 70
    1
  9
$DIMSHO
 70
    1
  9
$DIMPOST
  1

  9
$DIMAPOST
  1

  9
$DIMALT
 70
    0
  9
$DIMALTD
 70
    3
  9
$DIMALTF
 40
0.03937
  9
$DIMLFAC
 40
1
  9
$DIMTOFL
 70
    1
  9
$DIMTVP
 40
0
  9
$DIMTIX
 70
    0
  9
$DIMSOXD
 70
    0
  9
$DIMSAH
 70
    0
  9
$DIMBLK1
  1

  9
$DIMBLK2
  1

  9
$DIMSTYLE
  2
STANDARD
  9
$DIMCLRD
 70
    0
  9
$DIMCLRE
 70
    0
  9
$DIMCLRT
 70
    0
  9
$DIMTFAC
 40
1
  9
$DIMGAP
 40
0.625
  9
$DIMJUST
 70
    0
  9
$DIMSD1
 70
    0
  9
$DIMSD2
 70
    0
  9
$DIMTOLJ
 70
    0
  9
$DIMTZIN
 70
    8
  9
$DIMALTZ
 70
    0
  9
$DIMALTTZ
 70
    0
  9
$DIMUPT
 70
    0
  9
$DIMDEC
 70
    4
  9
$DIMTDEC
 70
    2
  9
$DIMALTU
 70
    2
  9
$DIMALTTD
 70
    3
  9
$DIMTXSTY
  7
standard
  9
$DIMAUNIT
 70
    0
  9
$DIMADEC
 70
    2
  9
$DIMALTRND
 40
0
  9
$DIMAZIN
 70
    0
  9
$DIMDSEP
 70
   44
  9
$DIMATFIT
 70
    3
  9
$DIMFRAC
 70
    0
  9
$DIMLDRBLK
  1
STANDARD
  9
$DIMLUNIT
 70
    2
  9
$DIMLWD
 70
   -2
  9
$DIMLWE
 70
   -2
  9
$DIMTMOVE
 70
    0
  9
$DIMFXL
 40
1
  9
$DIMFXLON
 70
    0
  9
$DIMJOGANG
 40
0.7854
  9
$DIMTFILL
 70
    0
  9
$DIMTFILLCLR
 70
    0
  9
$DIMARCSYM
 70
    0
  9
$DIMLTYPE
  6

  9
$DIMLTEX1
  6

  9
$DIMLTEX2
  6

  9
$LUNITS
 70
    2
  9
$LUPREC
 70
    4
  9
$SKETCHINC
 40
1
  9
$FILLETRAD
 40
0
  9
$AUNITS
 70
    0
  9
$AUPREC
 70
    2
  9
$MENU
  1
.
  9
$ELEVATION
 40
0
  9
$PELEVATION
 40
0
  9
$THICKNESS
 40
0
  9
$LIMCHECK
 70
    0
  9
$CHAMFERA
 40
0
  9
$CHAMFERB
 40
0
  9
$CHAMFERC
 40
0
  9
$CHAMFERD
 40
0
  9
$SKPOLY
 70
    0
  9
$USRTIMER
 70
    1
  9
$ANGBASE
 50
0
  9
$ANGDIR
 70
    0
  9
$PDMODE
 70
   34
  9
$PDSIZE
 40
0
  9
$PLINEWID
 40
0
  9
$SPLFRAME
 70
    0
  9
$SPLINETYPE
 70
    2
  9
$SPLINESEGS
 70
    8
  9
$HANDSEED
  5
20000
  9
$SURFTAB1
 70
    6
  9
$SURFTAB2
 70
    6
  9
$SURFTYPE
 70
    6
  9
$SURFU
 70
    6
  9
$SURFV
 70
    6
  9
$UCSBASE
  2

  9
$UCSNAME
  2

  9
$UCSORG
 10
0
 20
0
 30
0
  9
$UCSXDIR
 10
1
 20
0
 30
0
  9
$UCSYDIR
 10
0
 20
1
 30
0
  9
$UCSORTHOREF
  2

  9
$UCSORTHOVIEW
 70
    0
  9
$UCSORGTOP
 10
0
 20
0
 30
0
  9
$UCSORGBOTTOM
 10
0
 20
0
 30
0
  9
$UCSORGLEFT
 10
0
 20
0
 30
0
  9
$UCSORGRIGHT
 10
0
 20
0
 30
0
  9
$UCSORGFRONT
 10
0
 20
0
 30
0
  9
$UCSORGBACK
 10
0
 20
0
 30
0
  9
$PUCSBASE
  2

  9
$PUCSNAME
  2

  9
$PUCSORG
 10
0
 20
0
 30
0
  9
$PUCSXDIR
 10
1
 20
0
 30
0
  9
$PUCSYDIR
 10
0
 20
1
 30
0
  9
$PUCSORTHOREF
  2

  9
$PUCSORTHOVIEW
 70
    0
  9
$PUCSORGTOP
 10
0
 20
0
 30
0
  9
$PUCSORGBOTTOM
 10
0
 20
0
 30
0
  9
$PUCSORGLEFT
 10
0
 20
0
 30
0
  9
$PUCSORGRIGHT
 10
0
 20
0
 30
0
  9
$PUCSORGFRONT
 10
0
 20
0
 30
0
  9
$PUCSORGBACK
 10
0
 20
0
 30
0
  9
$USERI1
 70
    0
  9
$USERI2
 70
    0
  9
$USERI3
 70
    0
  9
$USERI4
 70
    0
  9
$USERI5
 70
    0
  9
$USERR1
 40
0
  9
$USERR2
 40
0
  9
$USERR3
 40
0
  9
$USERR4
 40
0
  9
$USERR5
 40
0
  9
$WORLDVIEW
 70
    1
  9
$SHADEDGE
 70
    3
  9
$SHADEDIF
 70
   70
  9
$TILEMODE
 70
    1
  9
$MAXACTVP
 70
   64
  9
$PINSBASE
 10
7.105427357601002e-015
 20
84.05
 30
0
  9
$PLIMCHECK
 70
    0
  9
$PEXTMIN
 10
0
 20
0
 30
0
  9
$PEXTMAX
 10
0
 20
0
 30
0
  9
$GRIDMODE
 70
    1
  9
$SNAPSTYLE
 70
    0
  9
$GRIDUNIT
 10
0
 20
0
  9
$PLIMMIN
 10
0
 20
0
  9
$PLIMMAX
 10
59.4
 20
84.09999999999999
  9
$UNITMODE
 70
    0
  9
$VISRETAIN
 70
    1
  9
$PLINEGEN
 70
    0
  9
$PSLTSCALE
 70
    1
  9
$TREEDEPTH
 70
 3020
  9
$CMLSTYLE
  2
Standard
  9
$CMLJUST
 70
    0
  9
$CMLSCALE
 40
20
  9
$PROXYGRAPHICS
 70
    1
  9
$MEASUREMENT
 70
    1
  9
$CELWEIGHT
370
   -1
  9
$ENDCAPS
280
    0
  9
$JOINSTYLE
280
    0
  9
$LWDISPLAY
290
    0
  9
$INSUNITS
 70
    5
  9
$HYPERLINKBASE
  1

  9
$STYLESHEET
  1

  9
$XEDIT
290
    1
  9
$CEPSNTYPE
380
    0
  9
$PSTYLEMODE
290
    1
  9
$EXTNAMES
290
    1
  9
$PSVPSCALE
 40
1
  9
$OLESTARTUP
290
    0
  9
$SORTENTS
280
  127
  9
$INDEXCTL
280
    0
  9
$HIDETEXT
280
    1
  9
$XCLIPFRAME
290
    0
  9
$HALOGAP
280
    0
  9
$OBSCOLOR
 70
  257
  9
$OBSLTYPE
280
    0
  9
$INTERSECTIONDISPLAY
280
    0
  9
$INTERSECTIONCOLOR
 70
  257
  9
$DIMASSOC
280
    1
  9
$PROJECTNAME
  1

  9
$CAMERADISPLAY
290
    0
  9
$LENSLENGTH
 40
50
  9
$CAMERAHEIGHT
 40
0
  9
$STEPSPERSEC
 40
2
  9
$STEPSIZE
 40
50
  9
$3DDWFPREC
 40
2
  9
$PSOLWIDTH
 40
5
  9
$PSOLHEIGHT
 40
80
  9
$LOFTANG1
 40
1.570796326794897
  9
$LOFTANG2
 40
1.570796326794897
  9
$LOFTMAG1
 40
0
  9
$LOFTMAG2
 40
0
  9
$LOFTPARAM
 70
    7
  9
$LOFTNORMALS
280
    1
  9
$LATITUDE
 40
1
  9
$LONGITUDE
 40
1
  9
$NORTHDIRECTION
 40
0
  9
$TIMEZONE
 70
-8000
  9
$LIGHTGLYPHDISPLAY
280
    1
  9
$TILEMODELIGHTSYNCH
280
    1
  9
$SOLIDHIST
280
    1
  9
$SHOWHIST
280
    1
  9
$DWFFRAME
280
    2
  9
$DGNFRAME
280
    0
  9
$REALWORLDSCALE
290
    1
  9
$INTERFERECOLOR
 62
    1
  9
$CSHADOW
280
    0
  9
$SHADOWPLANELOCATION
 40
0
  0
ENDSEC
  0
SECTION
  2
CLASSES
  0
ENDSEC
  0
SECTION
  2
TABLES
  0
TABLE
  2
VPORT
  5
8
330
0
100
AcDbSymbolTable
 70
    1
  0
VPORT
  5
31
330
2
100
AcDbSymbolTableRecord
100
AcDbViewportTableRecord
  2
*ACTIVE
 70
    0
 10
0
 20
0
 11
1
 21
1
 12
79.33288679706153
 22
14.77597004645935
 13
0
 23
0
 14
10
 24
10
 15
10
 25
10
 16
0
 26
0
 36
1
 17
0
 27
0
 37
0
 40
147.7597004645935
 41
1.680952380952381
 42
50
 43
0
 44
0
 50
0
 51
0
 71
    0
 72
  100
 73
    1
 74
    3
 75
    0
 76
    1
 77
    0
 78
    0
281
    0
 65
    1
110
0
120
0
130
0
111
1
121
0
131
0
112
0
122
1
132
0
 79
    0
146
0
348
10020
 60
    7
 61
    5
292
1
282
    1
141
0
142
0
 63
  250
421
3358443
  0
ENDTAB
  0
TABLE
  2
LTYPE
  5
5
330
0
100
AcDbSymbolTable
 70
    4
  0
LTYPE
  5
14
330
5
100
AcDbSymbolTableRecord
100
AcDbLinetypeTableRecord
  2
ByBlock
 70
    0
  3

 72
   65
 73
    0
 40
0
  0
LTYPE
  5
15
330
5
100
AcDbSymbolTableRecord
100
AcDbLinetypeTableRecord
  2
ByLayer
 70
    0
  3

 72
   65
 73
    0
 40
0
  0
LTYPE
  5
16
330
5
100
AcDbSymbolTableRecord
100
AcDbLinetypeTableRecord
  2
Continuous
 70
    0
  3
Solid line
 72
   65
 73
    0
 40
0
  0
LTYPE
  5
32
330
5
100
AcDbSymbolTableRecord
100
AcDbLinetypeTableRecord
  2
DOT
 70
    0
  3
Dot . . . . . . . . . . . . . . . . . . . . . .
 72
   65
 73
    2
 40
6.35
 49
0
 74
    0
 49
-6.35
 74
    0
  0
LTYPE
  5
33
330
5
100
AcDbSymbolTableRecord
100
AcDbLinetypeTableRecord
  2
DOTTINY
 70
    0
  3
Dot (.15x) .....................................
 72
   65
 73
    2
 40
0.9525
 49
0
 74
    0
 49
-0.9525
 74
    0
  0
LTYPE
  5
34
330
5
100
AcDbSymbolTableRecord
100
AcDbLinetypeTableRecord
  2
DOT2
 70
    0
  3
Dot (.5x) .....................................
 72
   65
 73
    2
 40
3.175
 49
0
 74
    0
 49
-3.175
 74
    0
  0
LTYPE
  5
35
330
5
100
AcDbSymbolTableRecord
100
AcDbLinetypeTableRecord
  2
DOTX2
 70
    0
  3
Dot (2x) .  .  .  .  .  .  .  .  .  .  .  .  .
 72
   65
 73
    2
 40
12.7
 49
0
 74
    0
 49
-12.7
 74
    0
  0
LTYPE
  5
36
330
5
100
AcDbSymbolTableRecord
100
AcDbLinetypeTableRecord
  2
DASHED
 70
    0
  3
Dashed _ _ _ _ _ _ _ _ _ _ _ _ _ _ _ _ _
 72
   65
 73
    2
 40
19.05
 49
12.7
 74
    0
 49
-6.35
 74
    0
  0
LTYPE
  5
37
330
5
100
AcDbSymbolTableRecord
100
AcDbLinetypeTableRecord
  2
DASHEDTINY
 70
    0
  3
Dashed (.15x) _ _ _ _ _ _ _ _ _ _ _ _ _ _ _ _ _
 72
   65
 73
    2
 40
2.8575
 49
1.905
 74
    0
 49
-0.9525
 74
    0
  0
LTYPE
  5
38
330
5
100
AcDbSymbolTableRecord
100
AcDbLinetypeTableRecord
  2
DASHED2
 70
    0
  3
Dashed (.5x) _ _ _ _ _ _ _ _ _ _ _ _ _ _ _ _ _
 72
   65
 73
    2
 40
9.524999999999999
 49
6.35
 74
    0
 49
-3.175
 74
    0
  0
LTYPE
  5
39
330
5
100
AcDbSymbolTableRecord
100
AcDbLinetypeTableRecord
  2
DASHEDX2
 70
    0
  3
Dashed (2x) ____  ____  ____  ____  ____  ___
 72
   65
 73
    2
 40
38.09999999999999
 49
25.4
 74
    0
 49
-12.7
 74
    0
  0
LTYPE
  5
3A
330
5
100
AcDbSymbolTableRecord
100
AcDbLinetypeTableRecord
  2
DASHDOT
 70
    0
  3
Dash dot __ . __ . __ . __ . __ . __ . __ . __
 72
   65
 73
    4
 40
25.4
 49
12.7
 74
    0
 49
-6.35
 74
    0
 49
0
 74
    0
 49
-6.35
 74
    0
  0
LTYPE
  5
3B
330
5
100
AcDbSymbolTableRecord
100
AcDbLinetypeTableRecord
  2
DASHDOTTINY
 70
    0
  3
Dash dot (.15x) _._._._._._._._._._._._._._._.
 72
   65
 73
    4
 40
3.81
 49
1.905
 74
    0
 49
-0.9525
 74
    0
 49
0
 74
    0
 49
-0.9525
 74
    0
  0
LTYPE
  5
3C
330
5
100
AcDbSymbolTableRecord
100
AcDbLinetypeTableRecord
  2
DASHDOT2
 70
    0
  3
Dash dot (.5x) _._._._._._._._._._._._._._._.
 72
   65
 73
    4
 40
12.7
 49
6.35
 74
    0
 49
-3.175
 74
    0
 49
0
 74
    0
 49
-3.175
 74
    0
  0
LTYPE
  5
3D
330
5
100
AcDbSymbolTableRecord
100
AcDbLinetypeTableRecord
  2
DASHDOTX2
 70
    0
  3
Dash dot (2x) ____  .  ____  .  ____  .  ___
 72
   65
 73
    4
 40
50.8
 49
25.4
 74
    0
 49
-12.7
 74
    0
 49
0
 74
    0
 49
-12.7
 74
    0
  0
LTYPE
  5
3E
330
5
100
AcDbSymbolTableRecord
100
AcDbLinetypeTableRecord
  2
DIVIDE
 70
    0
  3
Divide ____ . . ____ . . ____ . . ____ . . ____
 72
   65
 73
    6
 40
31.75
 49
12.7
 74
    0
 49
-6.35
 74
    0
 49
0
 74
    0
 49
-6.35
 74
    0
 49
0
 74
    0
 49
-6.35
 74
    0
  0
LTYPE
  5
3F
330
5
100
AcDbSymbolTableRecord
100
AcDbLinetypeTableRecord
  2
DIVIDETINY
 70
    0
  3
Divide (.15x) __..__..__..__..__..__..__..__.._
 72
   65
 73
    6
 40
4.7625
 49
1.905
 74
    0
 49
-0.9525
 74
    0
 49
0
 74
    0
 49
-0.9525
 74
    0
 49
0
 74
    0
 49
-0.9525
 74
    0
  0
LTYPE
  5
40
330
5
100
AcDbSymbolTableRecord
100
AcDbLinetypeTableRecord
  2
DIVIDE2
 70
    0
  3
Divide (.5x) __..__..__..__..__..__..__..__.._
 72
   65
 73
    6
 40
15.875
 49
6.35
 74
    0
 49
-3.175
 74
    0
 49
0
 74
    0
 49
-3.175
 74
    0
 49
0
 74
    0
 49
-3.175
 74
    0
  0
LTYPE
  5
41
330
5
100
AcDbSymbolTableRecord
100
AcDbLinetypeTableRecord
  2
DIVIDEX2
 70
    0
  3
Divide (2x) ________  .  .  ________  .  .  _
 72
   65
 73
    6
 40
63.5
 49
25.4
 74
    0
 49
-12.7
 74
    0
 49
0
 74
    0
 49
-12.7
 74
    0
 49
0
 74
    0
 49
-12.7
 74
    0
  0
LTYPE
  5
42
330
5
100
AcDbSymbolTableRecord
100
AcDbLinetypeTableRecord
  2
BORDER
 70
    0
  3
Border __ __ . __ __ . __ __ . __ __ . __ __ .
 72
   65
 73
    6
 40
44.45
 49
12.7
 74
    0
 49
-6.35
 74
    0
 49
12.7
 74
    0
 49
-6.35
 74
    0
 49
0
 74
    0
 49
-6.35
 74
    0
  0
LTYPE
  5
43
330
5
100
AcDbSymbolTableRecord
100
AcDbLinetypeTableRecord
  2
BORDERTINY
 70
    0
  3
Border (.15x) __.__.__.__.__.__.__.__.__.__.__.
 72
   65
 73
    6
 40
6.6675
 49
1.905
 74
    0
 49
-0.9525
 74
    0
 49
1.905
 74
    0
 49
-0.9525
 74
    0
 49
0
 74
    0
 49
-0.9525
 74
    0
  0
LTYPE
  5
44
330
5
100
AcDbSymbolTableRecord
100
AcDbLinetypeTableRecord
  2
BORDER2
 70
    0
  3
Border (.5x) __.__.__.__.__.__.__.__.__.__.__.
 72
   65
 73
    6
 40
22.225
 49
6.35
 74
    0
 49
-3.175
 74
    0
 49
6.35
 74
    0
 49
-3.175
 74
    0
 49
0
 74
    0
 49
-3.175
 74
    0
  0
LTYPE
  5
45
330
5
100
AcDbSymbolTableRecord
100
AcDbLinetypeTableRecord
  2
BORDERX2
 70
    0
  3
Border (2x) ____  ____  .  ____  ____  .  ___
 72
   65
 73
    6
 40
88.89999999999999
 49
25.4
 74
    0
 49
-12.7
 74
    0
 49
25.4
 74
    0
 49
-12.7
 74
    0
 49
0
 74
    0
 49
-12.7
 74
    0
  0
LTYPE
  5
46
330
5
100
AcDbSymbolTableRecord
100
AcDbLinetypeTableRecord
  2
CENTER
 70
    0
  3
Center ____ _ ____ _ ____ _ ____ _ ____ _ ____
 72
   65
 73
    4
 40
50.8
 49
31.75
 74
    0
 49
-6.35
 74
    0
 49
6.35
 74
    0
 49
-6.35
 74
    0
  0
LTYPE
  5
47
330
5
100
AcDbSymbolTableRecord
100
AcDbLinetypeTableRecord
  2
CENTERTINY
 70
    0
  3
Center (.15x) ___ _ ___ _ ___ _ ___ _ ___ _ ___
 72
   65
 73
    4
 40
7.62
 49
4.7625
 74
    0
 49
-0.9525
 74
    0
 49
0.9525
 74
    0
 49
-0.9525
 74
    0
  0
LTYPE
  5
48
330
5
100
AcDbSymbolTableRecord
100
AcDbLinetypeTableRecord
  2
CENTER2
 70
    0
  3
Center (.5x) ___ _ ___ _ ___ _ ___ _ ___ _ ___
 72
   65
 73
    4
 40
28.575
 49
19.05
 74
    0
 49
-3.175
 74
    0
 49
3.175
 74
    0
 49
-3.175
 74
    0
  0
LTYPE
  5
49
330
5
100
AcDbSymbolTableRecord
100
AcDbLinetypeTableRecord
  2
CENTERX2
 70
    0
  3
Center (2x) ________  __  ________  __  _____
 72
   65
 73
    4
 40
101.6
 49
63.5
 74
    0
 49
-12.7
 74
    0
 49
12.7
 74
    0
 49
-12.7
 74
    0
  0
ENDTAB
  0
TABLE
  2
LAYER
  5
2
330
0
100
AcDbSymbolTable
 70
    1
  0
LAYER
  5
10
330
2
100
AcDbSymbolTableRecord
100
AcDbLayerTableRecord
  2
0
 70
    0
 62
    7
  6
CONTINUOUS
370
    0
390
F
  0
ENDTAB
  0
TABLE
  2
STYLE
  5
3
330
0
100
AcDbSymbolTable
 70
    3
  0
STYLE
  5
4A
330
2
100
AcDbSymbolTableRecord
100
AcDbTextStyleTableRecord
  2
standard
 70
    0
 40
0
 41
1
 50
0
 71
    0
 42
1
  3
standard
  4

  0
ENDTAB
  0
TABLE
  2
VIEW
  5
6
330
0
100
AcDbSymbolTable
 70
    0
  0
ENDTAB
  0
TABLE
  2
UCS
  5
7
330
0
100
AcDbSymbolTable
 70
    0
  0
ENDTAB
  0
TABLE
  2
APPID
  5
9
330
0
100
AcDbSymbolTable
 70
    1
  0
APPID
  5
12
330
9
100
AcDbSymbolTableRecord
100
AcDbRegAppTableRecord
  2
ACAD
 70
    0
  0
APPID
  5
4B
330
9
100
AcDbSymbolTableRecord
100
AcDbRegAppTableRecord
  2
LibreCad
 70
    0
  0
ENDTAB
  0
TABLE
  2
DIMSTYLE
  5
A
330
0
100
AcDbSymbolTable
 70
    1
100
AcDbDimStyleTable
 71
    1
  0
DIMSTYLE
105
4C
330
A
100
AcDbSymbolTableRecord
100
AcDbDimStyleTableRecord
  2
Standard
 70
    0
 40
1
 41
2.5
 42
0.625
 43
0.38
 44
1.25
 45
0
 46
0
 47
0
 48
0
 49
1
140
2.5
141
0.09
142
0
143
25.4
144
1
145
0
146
1
147
0.625
148
0
 71
    0
 72
    0
 73
    0
 74
    1
 75
    0
 76
    0
 77
    0
 78
    8
 79
    0
170
    0
171
    2
172
    0
173
    0
174
    0
175
    0
176
    0
177
    0
178
    0
179
    2
271
    4
272
    4
273
    2
274
    2
275
    0
276
    0
277
    2
278
   44
279
    0
280
    0
281
    0
282
    0
283
    1
284
    0
285
    0
286
    0
288
    0
289
    3
340
standard
341

371
   -2
372
   -2
  0
ENDTAB
  0
TABLE
  2
BLOCK_RECORD
  5
1
330
0
100
AcDbSymbolTable
 70
    2
  0
BLOCK_RECORD
  5
1F
330
1
100
AcDbSymbolTableRecord
100
AcDbBlockTableRecord
  2
*Model_Space
 70
    0
280
    1
281
    0
  0
BLOCK_RECORD
  5
1E
330
1
100
AcDbSymbolTableRecord
100
AcDbBlockTableRecord
  2
*Paper_Space
 70
    0
280
    1
281
    0
  0
BLOCK_RECORD
  5
4D
330
1
100
AcDbSymbolTableRecord
100
AcDbBlockTableRecord
  2
Pelvis
 70
    0
280
    1
281
    0
  0
BLOCK_RECORD
  5
50
330
1
100
AcDbSymbolTableRecord
100
AcDbBlockTableRecord
  2
Back
 70
    0
280
    1
281
    0
  0
BLOCK_RECORD
  5
53
330
1
100
AcDbSymbolTableRecord
100
AcDbBlockTableRecord
  2
Leg
 70
    0
280
    1
281
    0
  0
BLOCK_RECORD
  5
56
330
1
100
AcDbSymbolTableRecord
100
AcDbBlockTableRecord
  2
Stiffener
 70
    0
280
    1
281
    0
  0
BLOCK_RECORD
  5
59
330
1
100
AcDbSymbolTableRecord
100
AcDbBlockTableRecord
  2
A4 Grid
 70
    0
280
    1
281
    0
  0
ENDTAB
  0
ENDSEC
  0
SECTION
  2
BLOCKS
  0
BLOCK
  5
20
330
1F
100
AcDbEntity
  8
0
100
AcDbBlockBegin
  2
*Model_Space
 70
    0
 10
0
 20
0
 30
0
  3
*Model_Space
  1

  0
ENDBLK
  5
21
330
1F
100
AcDbEntity
  8
0
100
AcDbBlockEnd
  0
BLOCK
  5
1C
330
1B
100
AcDbEntity
  8
0
100
AcDbBlockBegin
  2
*Paper_Space
 70
    0
 10
0
 20
0
 30
0
  3
*Paper_Space
  1

  0
ENDBLK
  5
1D
330
1F
100
AcDbEntity
  8
0
100
AcDbBlockEnd
  0
BLOCK
  5
4E
330
4D
100
AcDbEntity
  8
0
100
AcDbBlockBegin
  2
Pelvis
 70
    0
 10
0
 20
0
  3
Pelvis
  1

  0
LINE
  5
5C
100
AcDbEntity
  8
0
  6
ByLayer
 62
  256
370
   -1
100
AcDbLine
 10
9.581392118531802
 20
-13.04955575577974
 11
9.088110788402993
 21
-13.00144040890539
  0
ARC
  5
5D
100
AcDbEntity
  8
0
  6
ByLayer
 62
  256
370
   -1
100
AcDbCircle
 10
14.74454429953776
 20
44.98864440632384
 40
58.2652999386718
100
AcDbArc
 50
240.0115456167674
 51
264.4289104343754
  0
ARC
  5
5E
100
AcDbEntity
  8
0
  6
ByLayer
 62
  256
370
   -1
100
AcDbCircle
 10
14.74454429953776
 20
44.98864440632384
 40
58.2652999386718
100
AcDbArc
 50
264.4289104343754
 51
264.4289137592632
  0
ARC
  5
5F
100
AcDbEntity
  8
0
  6
ByLayer
 62
  256
370
   -1
100
AcDbCircle
 10
14.74454429953776
 20
44.98864440632384
 40
57.0652999386718
100
AcDbArc
 50
260.8462470574776
 51
264.9265452734923
  0
ARC
  5
60
100
AcDbEntity
  8
0
  6
ByLayer
 62
  256
370
   -1
100
AcDbCircle
 10
-68.38922148220713
 20
-14.82637802298495
 40
80
100
AcDbArc
 50
3.496174456478371
 51
12.10540000000004
  0
LINE
  5
61
100
AcDbEntity
  8
0
  6
ByLayer
 62
  256
370
   -1
100
AcDbLine
 10
9.20115828580861
 20
-11.80677203367916
 11
9.219404134706082
 21
-11.61983203277249
  0
LINE
  5
62
100
AcDbEntity
  8
0
  6
ByLayer
 62
  256
370
   -1
100
AcDbLine
 10
9.722494854378361
 20
-11.60297605072274
 11
9.581392118531802
 21
-13.04955575577974
  0
ARC
  5
63
100
AcDbEntity
  8
0
  6
ByLayer
 62
  256
370
   -1
100
AcDbCircle
 10
11.54904451001173
 20
-11.78114189543376
 40
1.835218437329954
100
AcDbArc
 50
92.72093939036469
 51
174.4288790577462
  0
ARC
  5
64
100
AcDbEntity
  8
0
  6
ByLayer
 62
  256
370
   -1
100
AcDbCircle
 10
-68.38922148220713
 20
-14.82637802298495
 40
81.2
100
AcDbArc
 50
3.496174456478371
 51
12.10540000000004
  0
LINE
  5
65
100
AcDbEntity
  8
0
  6
ByLayer
 62
  256
370
   -1
100
AcDbLine
 10
12.65965494904474
 20
-9.874648099851534
 11
11.46192393217725
 21
-9.947992496821207
  0
SPLINE
  5
66
100
AcDbEntity
  8
0
  6
ByLayer
 62
    4
370
   -1
100
AcDbSpline
210
0
220
0
230
0
 70
    8
 71
    2
 72
    8
 73
    5
 74
    0
 42
1e-007
 43
1e-007
 40
0
 40
0
 40
0
 40
0.3333333333333333
 40
0.6666666666666666
 40
1
 40
1
 40
1
 10
9.831856624342109
 20
1.950479246751371
 30
0
 10
8.616450634726007
 20
-2.181344439635048
 30
0
 10
6.64132143700607
 20
-7.595210446096651
 30
0
 10
6.416487865508621
 20
-10.63801839890075
 30
0
 10
6.519873098604812
 20
-11.48090568604255
 30
0
  0
SPLINE
  5
67
100
AcDbEntity
  8
0
  6
ByLayer
 62
    4
370
   -1
100
AcDbSpline
210
0
220
0
230
0
 70
    8
 71
    2
 72
   10
 73
    7
 74
    0
 42
1e-007
 43
1e-007
 40
0
 40
0
 40
0
 40
0.2
 40
0.4
 40
0.6
 40
0.8
 40
1
 40
1
 40
1
 10
8.084424571748642
 20
10.09777506468534
 30
0
 10
7.251940590278586
 20
7.077763660319654
 30
0
 10
5.450902834437429
 20
2.538071002711547
 30
0
 10
3.419207254414118
 20
-1.34321305116827
 30
0
 10
1.048079220676222
 20
-4.874305000283549
 30
0
 10
-1.448701608969877
 20
-7.849520296911344
 30
0
 10
-2.916568423124907
 20
-9.274912005765295
 30
0
  0
SPLINE
  5
68
100
AcDbEntity
  8
0
  6
ByLayer
 62
    4
370
   -1
100
AcDbSpline
210
0
220
0
230
0
 70
    8
 71
    2
 72
    8
 73
    5
 74
    0
 42
1e-007
 43
1e-007
 40
0
 40
0
 40
0
 40
0.3333333333333333
 40
0.6666666666666666
 40
1
 40
1
 40
1
 10
4.867566077834887
 20
-11.23172341646536
 30
0
 10
6.28847851231793
 20
-9.881681415487982
 30
0
 10
8.865676521253611
 20
-6.9241127944561
 30
0
 10
10.49198343037695
 20
-4.798297237089535
 30
0
 10
10.90552601688606
 20
-4.227179041219593
 30
0
  0
ARC
  5
69
100
AcDbEntity
  8
0
  6
ByLayer
 62
    3
370
   -1
100
AcDbCircle
 10
11.54904451001173
 20
-11.78114189543376
 40
2.335218437329954
100
AcDbArc
 50
92.92587965056468
 51
176.039025641706
  0
ARC
  5
6A
100
AcDbEntity
  8
0
  6
ByLayer
 62
  256
370
   -1
100
AcDbCircle
 10
5.070003785838651
 20
-30.13835308988974
 40
40
100
AcDbArc
 50
99.22662379808858
 51
117.296229793064
  0
LINE
  5
6B
100
AcDbEntity
  8
0
  6
ByLayer
 62
  256
370
   -1
100
AcDbLine
 10
8.084690521915988
 20
10.09653508818369
 11
9.292995424854539
 21
10.18505511233542
  0
SPLINE
  5
6C
100
AcDbEntity
  8
0
  6
ByLayer
 62
    4
370
   -1
100
AcDbSpline
210
0
220
0
230
0
 70
    8
 71
    2
 72
   10
 73
    7
 74
    0
 42
1e-007
 43
1e-007
 40
0
 40
0
 40
0
 40
0.2
 40
0.4
 40
0.6
 40
0.8
 40
1
 40
1
 40
1
 10
10.90552601688606
 20
-4.227179041219593
 30
0
 10
9.813649756414357
 20
-3.351602015018067
 30
0
 10
6.929803143741147
 20
-0.8153967212940856
 30
0
 10
3.882654502120737
 20
2.445929262949655
 30
0
 10
1.886646609645709
 20
4.794265781838696
 30
0
 10
-0.1780674332906003
 20
7.752301092954561
 30
0
 10
-1.343590851002652
 20
9.344121551833076
 30
0
  0
SPLINE
  5
6D
100
AcDbEntity
  8
0
  6
ByLayer
 62
    4
370
   -1
100
AcDbSpline
210
0
220
0
230
0
 70
    8
 71
    2
 72
    8
 73
    5
 74
    0
 42
1e-007
 43
1e-007
 40
0
 40
0
 40
0
 40
0.3333333333333333
 40
0.6666666666666666
 40
1
 40
1
 40
1
 10
9.831856624342109
 20
1.950479246751371
 30
0
 10
8.403134873424818
 20
3.601243292267334
 30
0
 10
5.458729438316887
 20
7.057727899180428
 30
0
 10
3.666858514010862
 20
9.191056348043716
 30
0
 10
3.208205229176677
 20
9.73928536186127
 30
0
  0
SPLINE
  5
6E
100
AcDbEntity
  8
0
  6
ByLayer
 62
    4
370
   -1
100
AcDbSpline
210
0
220
0
230
0
 70
    8
 71
    2
 72
   10
 73
    7
 74
    0
 42
1e-007
 43
1e-007
 40
0
 40
0
 40
0
 40
0.2
 40
0.4
 40
0.6
 40
0.8
 40
1
 40
1
 40
1
 10
3.208410814147619
 20
9.73990279332925
 30
0
 10
3.193245600705197
 20
9.694357816327695
 30
0
 10
2.001303596119946
 20
6.101313397004908
 30
0
 10
0.4617671458201471
 20
0.3394553024332652
 30
0
 10
-0.3890358200598172
 20
-4.856367743503888
 30
0
 10
-0.6825509025199636
 20
-8.459417895990264
 30
0
 10
-0.6144913728055812
 20
-9.988922393025526
 30
0
  0
SPLINE
  5
6F
100
AcDbEntity
  8
0
  6
ByLayer
 62
    4
370
   -1
100
AcDbSpline
210
0
220
0
230
0
 70
    8
 71
    2
 72
   15
 73
   12
 74
    0
 42
1e-007
 43
1e-007
 40
0
 40
0
 40
0
 40
0.1
 40
0.2
 40
0.3
 40
0.4
 40
0.5
 40
0.6
 40
0.7
 40
0.8
 40
0.9
 40
1
 40
1
 40
1
 10
-1.343590851002702
 20
9.34412155183302
 30
0
 10
-1.571237271514612
 20
8.461230368424104
 30
0
 10
-1.933139065855272
 20
7.102776925146657
 30
0
 10
-2.308570369491733
 20
5.76917271789965
 30
0
 10
-2.877261568037028
 20
3.937540626114725
 30
0
 10
-3.656279417383629
 20
1.731762609556107
 30
0
 10
-4.501436602005214
 20
-0.4365876059568805
 30
0
 10
-5.423426150517898
 20
-2.304362804946585
 30
0
 10
-6.660294093432164
 20
-4.198510920156501
 30
0
 10
-7.772689103989201
 20
-5.66120350181189
 30
0
 10
-8.539125379945482
 20
-6.584030679763465
 30
0
 10
-8.887164526209212
 20
-6.953754617190079
 30
0
  0
LINE
  5
70
100
AcDbEntity
  8
0
  6
ByLayer
 62
  256
370
   -1
100
AcDbLine
 10
-14.37793708807869
 20
-5.476454967117625
 11
-14.81100015860203
 21
-5.226542228064908
  0
LINE
  5
71
100
AcDbEntity
  8
0
  6
ByLayer
 62
  256
370
   -1
100
AcDbLine
 10
-13.27363942352733
 20
5.407543351295715
 11
-14.30036147850794
 21
4.877698138841438
  0
SPLINE
  5
72
100
AcDbEntity
  8
0
  6
ByLayer
 62
    3
370
   -1
100
AcDbSpline
210
0
220
0
230
0
 70
    8
 71
    2
 72
   11
 73
    8
 74
    0
 42
1e-007
 43
1e-007
 40
0
 40
0
 40
0
 40
0.1666666666666667
 40
0.3333333333333333
 40
0.5
 40
0.6666666666666666
 40
0.8333333333333334
 40
1
 40
1
 40
1
 10
-13.77814651458257
 20
-4.437103598260457
 30
0
 10
-13.42179255743975
 20
-3.78158359701613
 30
0
 10
-12.93832250088005
 20
-2.536855838724854
 30
0
 10
-12.56217308936176
 20
-1.142381989653494
 30
0
 10
-12.49824569828316
 20
0.7621922361036511
 30
0
 10
-12.69057034460634
 20
2.877285949252631
 30
0
 10
-13.52058515204785
 20
4.579358724725076
 30
0
 10
-13.82057559807935
 20
5.1252941172419
 30
0
  0
SPLINE
  5
73
100
AcDbEntity
  8
0
  6
ByLayer
 62
    3
370
   -1
100
AcDbSpline
210
0
220
0
230
0
 70
    8
 71
    2
 72
   14
 73
   11
 74
    0
 42
1e-007
 43
1e-007
 40
0
 40
0
 40
0
 40
0.1111111111111111
 40
0.2222222222222222
 40
0.3333333333333333
 40
0.4444444444444444
 40
0.5555555555555556
 40
0.6666666666666666
 40
0.7777777777777778
 40
0.8888888888888888
 40
1
 40
1
 40
1
 10
-11.45267579194419
 20
-5.708043025588559
 30
0
 10
-10.98686857828013
 20
-5.175634404999336
 30
0
 10
-10.19645719736147
 20
-3.98567937305004
 30
0
 10
-9.595574306785018
 20
-2.819306980568463
 30
0
 10
-9.010094271892733
 20
-1.584978024784341
 30
0
 10
-8.340762819170408
 20
0.1381913519037994
 30
0
 10
-7.802611229692829
 20
2.022733379808976
 30
0
 10
-7.595697433593941
 20
3.844036300968035
 30
0
 10
-7.7077896927578
 20
5.72570965007678
 30
0
 10
-8.049966659067827
 20
7.194602453510939
 30
0
 10
-8.207399096317253
 20
7.593736339466261
 30
0
  0
ARC
  5
74
100
AcDbEntity
  8
0
  6
ByLayer
 62
  256
370
   -1
100
AcDbCircle
 10
5.070003785838651
 20
-30.13835308988974
 40
41.2
100
AcDbArc
 50
99.22662379808858
 51
117.296229793064
  0
SPLINE
  5
75
100
AcDbEntity
  8
0
  6
ByLayer
 62
  256
370
   -1
100
AcDbSpline
210
0
220
0
230
0
 70
    8
 71
    2
 72
    7
 73
    4
 74
    0
 42
1e-007
 43
1e-007
 40
0
 40
0
 40
0
 40
0.5
 40
1
 40
1
 40
1
 10
-1.474426065234908
 20
10.53696778950023
 30
0
 10
0.2838802470854986
 20
10.72753621271521
 30
0
 10
4.882184774242987
 20
11.06818899508541
 30
0
 10
7.99774515303185
 20
11.2946404198406
 30
0
  0
LINE
  5
76
100
AcDbEntity
  8
0
  6
ByLayer
 62
  256
370
   -1
100
AcDbLine
 10
-13.82394871980844
 20
6.473920244531215
 11
-14.85067077478904
 21
5.944075032076938
  0
SPLINE
  5
77
100
AcDbEntity
  8
0
  6
ByLayer
 62
  256
370
   -1
100
AcDbSpline
210
0
220
0
230
0
 70
    8
 71
    2
 72
    7
 73
    4
 74
    0
 42
1e-007
 43
1e-007
 40
0
 40
0
 40
0
 40
0.5
 40
1
 40
1
 40
1
 10
-1.345125098798398
 20
9.343954269007448
 30
0
 10
0.6798750949239221
 20
9.559480079379711
 30
0
 10
5.359885348457141
 20
9.898529618978081
 30
0
 10
8.084736482792167
 20
10.0977976947733
 30
0
  0
SPLINE
  5
78
100
AcDbEntity
  8
0
  6
ByLayer
 62
  256
370
   -1
100
AcDbSpline
210
0
220
0
230
0
 70
    8
 71
    2
 72
   10
 73
    7
 74
    0
 42
1e-007
 43
1e-007
 40
0
 40
0
 40
0
 40
0.2
 40
0.4
 40
0.6
 40
0.8
 40
1
 40
1
 40
1
 10
-14.81100015860182
 20
-5.226542228064808
 30
0
 10
-14.28992452876846
 20
-4.364023357630394
 30
0
 10
-13.58201020375018
 20
-2.966080321929944
 30
0
 10
-13.04035542706702
 20
-1.09055922645036
 30
0
 10
-13.06724691708356
 20
2.40501977578797
 30
0
 10
-14.11170692564176
 20
4.541530492541135
 30
0
 10
-14.30036147850794
 20
4.877698138841438
 30
0
  0
LINE
  5
79
100
AcDbEntity
  8
0
  6
ByLayer
 62
  256
370
   -1
100
AcDbLine
 10
-14.30036147850794
 20
4.877698138841438
 11
-14.85067077478904
 21
5.944075032076938
  0
LINE
  5
7A
100
AcDbEntity
  8
0
  6
ByLayer
 62
  256
370
   -1
100
AcDbLine
 10
8.084690521916052
 20
10.09653508818369
 11
9.831856624342109
 21
1.950479246751371
  0
LINE
  5
7B
100
AcDbEntity
  8
0
  6
ByLayer
 62
  256
370
   -1
100
AcDbLine
 10
9.038921867027547
 20
11.36965764498282
 11
11.0051727959404
 21
2.202132105797425
  0
LINE
  5
7C
100
AcDbEntity
  8
0
  6
ByLayer
 62
  256
370
   -1
100
AcDbLine
 10
7.997013876809227
 20
11.29332780453136
 11
9.038921867027547
 21
11.36965764498279
  0
ARC
  5
7D
100
AcDbEntity
  8
0
  6
ByLayer
 62
  256
370
   -1
100
AcDbCircle
 10
14.74454429953776
 20
44.98864440632384
 40
57.0652999386718
100
AcDbArc
 50
239.5094681338217
 51
260.8462470574776
  0
ENDBLK
  5
4F
330
4D
100
AcDbEntity
  8
0
100
AcDbBlockEnd
  0
BLOCK
  5
51
330
50
100
AcDbEntity
  8
0
100
AcDbBlockBegin
  2
Back
 70
    0
 10
0
 20
0
  3
Back
  1

  0
ARC
  5
7E
100
AcDbEntity
  8
0
  6
ByLayer
 62
  256
370
   -1
100
AcDbCircle
 10
-268.1339840065251
 20
-9.808578772248705
 40
280
100
AcDbArc
 50
0
 51
5.764959514936788
  0
ARC
  5
7F
100
AcDbEntity
  8
0
  6
ByLayer
 62
  256
370
   -1
100
AcDbCircle
 10
-268.1339840065251
 20
-9.808578772248705
 40
281.2
100
AcDbArc
 50
0
 51
5.764959514936788
  0
LINE
  5
80
100
AcDbEntity
  8
0
  6
ByLayer
 62
  256
370
   -1
100
AcDbLine
 10
10.44986726155732
 20
18.31681567197034
 11
11.64379805270622
 21
18.43735307673127
  0
SPLINE
  5
81
100
AcDbEntity
  8
0
  6
ByLayer
 62
  256
370
   -1
100
AcDbSpline
210
0
220
0
230
0
 70
    8
 71
    2
 72
    9
 73
    6
 74
    0
 42
1e-007
 43
1e-007
 40
0
 40
0
 40
0
 40
0.25
 40
0.5
 40
0.75
 40
1
 40
1
 40
1
 10
-18.73002590469443
 20
14.86000935755017
 30
0
 10
-13.92613014021341
 20
15.65211451027013
 30
0
 10
-6.122857333088604
 20
16.72381325851147
 30
0
 10
0.7384145296871623
 20
17.40810313334449
 30
0
 10
7.491804331312125
 20
18.00098816513618
 30
0
 10
10.44889004496716
 20
18.31678122543228
 30
0
  0
SPLINE
  5
82
100
AcDbEntity
  8
0
  6
ByLayer
 62
  256
370
   -1
100
AcDbSpline
210
0
220
0
230
0
 70
    8
 71
    2
 72
    7
 73
    4
 74
    0
 42
1e-007
 43
1e-007
 40
0
 40
0
 40
0
 40
0.5
 40
1
 40
1
 40
1
 10
-23.86070365746965
 20
14.98427718334388
 30
0
 10
-22.51569385837612
 20
14.60927062303834
 30
0
 10
-19.69718734791942
 20
14.68615941323025
 30
0
 10
-18.34570718337644
 20
14.92322986053121
 30
0
  0
LINE
  5
83
100
AcDbEntity
  8
0
  6
ByLayer
 62
  256
370
   -1
100
AcDbLine
 10
-24.27274894588615
 20
13.42117420150375
 11
-23.86070365746954
 21
14.98427718334385
  0
SPLINE
  5
84
100
AcDbEntity
  8
0
  6
ByLayer
 62
    1
370
   -1
100
AcDbSpline
210
0
220
0
230
0
 70
    8
 71
    2
 72
    6
 73
    3
 74
    0
 42
1e-007
 43
1e-007
 40
0
 40
0
 40
0
 40
1
 40
1
 40
1
 10
-18.37127948190115
 20
14.27543983751251
 30
0
 10
-5.858380626979027
 20
16.13591963059359
 30
0
 10
10.51450040997545
 20
17.66908729288919
 30
0
  0
SPLINE
  5
85
100
AcDbEntity
  8
0
  6
ByLayer
 62
    1
370
   -1
100
AcDbSpline
210
0
220
0
230
0
 70
    8
 71
    2
 72
    7
 73
    4
 74
    0
 42
1e-007
 43
1e-007
 40
0
 40
0
 40
0
 40
0.5
 40
1
 40
1
 40
1
 10
-23.94991853590644
 20
14.6458385543162
 30
0
 10
-22.62702316415945
 20
14.30104249916828
 30
0
 10
-19.79545239609692
 20
14.0496070475284
 30
0
 10
-18.37127948190115
 20
14.27543983751251
 30
0
  0
SPLINE
  5
86
100
AcDbEntity
  8
0
  6
ByLayer
 62
    1
370
   -1
100
AcDbSpline
210
0
220
0
230
0
 70
    8
 71
    2
 72
    6
 73
    3
 74
    0
 42
1e-007
 43
1e-007
 40
0
 40
0
 40
0
 40
1
 40
1
 40
1
 10
-18.16055105862764
 20
13.51777395976574
 30
0
 10
-5.611380788687562
 20
12.67603877155922
 30
0
 10
10.83200535771007
 20
14.23256883000677
 30
0
  0
SPLINE
  5
87
100
AcDbEntity
  8
0
  6
ByLayer
 62
    1
370
   -1
100
AcDbSpline
210
0
220
0
230
0
 70
    8
 71
    2
 72
    7
 73
    4
 74
    0
 42
1e-007
 43
1e-007
 40
0
 40
0
 40
0
 40
0.5
 40
1
 40
1
 40
1
 10
-23.97115167697435
 20
14.56529016060761
 30
0
 10
-22.52898929887905
 20
14.18346653882456
 30
0
 10
-19.62403023669841
 20
13.55822885690269
 30
0
 10
-18.16055105862764
 20
13.51777395976574
 30
0
  0
SPLINE
  5
88
100
AcDbEntity
  8
0
  6
ByLayer
 62
    1
370
   -1
100
AcDbSpline
210
0
220
0
230
0
 70
    8
 71
    2
 72
    6
 73
    3
 74
    0
 42
1e-007
 43
1e-007
 40
0
 40
0
 40
0
 40
1
 40
1
 40
1
 10
-15.52922934139733
 20
12.21700321947473
 30
0
 10
-3.438986852961271
 20
9.799682499988833
 30
0
 10
11.12089805278222
 20
10.60491789153743
 30
0
  0
SPLINE
  5
89
100
AcDbEntity
  8
0
  6
ByLayer
 62
    1
370
   -1
100
AcDbSpline
210
0
220
0
230
0
 70
    8
 71
    2
 72
    7
 73
    4
 74
    0
 42
1e-007
 43
1e-007
 40
0
 40
0
 40
0
 40
0.5
 40
1
 40
1
 40
1
 10
-23.99238481804226
 20
14.48474176689901
 30
0
 10
-22.02250459832132
 20
13.9635053521735
 30
0
 10
-17.84788353840494
 20
12.63846685865219
 30
0
 10
-15.52922934139733
 20
12.21700321947473
 30
0
  0
SPLINE
  5
8A
100
AcDbEntity
  8
0
  6
ByLayer
 62
    1
370
   -1
100
AcDbSpline
210
0
220
0
230
0
 70
    8
 71
    2
 72
    6
 73
    3
 74
    0
 42
1e-007
 43
1e-007
 40
0
 40
0
 40
0
 40
1
 40
1
 40
1
 10
-20.32861534049331
 20
12.93906001641772
 30
0
 10
-5.874122056114714
 20
5.711847170926163
 30
0
 10
11.36248202357208
 20
6.976101048551973
 30
0
  0
SPLINE
  5
8B
100
AcDbEntity
  8
0
  6
ByLayer
 62
    1
370
   -1
100
AcDbSpline
210
0
220
0
230
0
 70
    8
 71
    2
 72
    7
 73
    4
 74
    0
 42
1e-007
 43
1e-007
 40
0
 40
0
 40
0
 40
0.5
 40
1
 40
1
 40
1
 10
-24.034848257025
 20
14.32364422989868
 30
0
 10
-23.14714412964154
 20
14.11577257308635
 30
0
 10
-21.29854825728611
 20
13.4055955615002
 30
0
 10
-20.32861534049331
 20
12.93906001641772
 30
0
  0
SPLINE
  5
8C
100
AcDbEntity
  8
0
  6
ByLayer
 62
    4
370
   -1
100
AcDbSpline
210
0
220
0
230
0
 70
    8
 71
    2
 72
   15
 73
   12
 74
    0
 42
1e-007
 43
1e-007
 40
0
 40
0
 40
0
 40
0.1
 40
0.2
 40
0.3
 40
0.4
 40
0.5
 40
0.6
 40
0.7
 40
0.8
 40
0.9
 40
1
 40
1
 40
1
 10
11.8660159934748
 20
-25.47046966877793
 30
0
 10
9.913851037256137
 20
-21.65286681207731
 30
0
 10
6.813982677150783
 20
-16.37989597907303
 30
0
 10
4.023278617427103
 20
-12.08705824378402
 30
0
 10
0.6123973907558877
 20
-7.431238072036717
 30
0
 10
-2.479287374860718
 20
-3.623961801654225
 30
0
 10
-5.461859548459273
 20
-0.2567674770094257
 30
0
 10
-9.061866375500784
 20
3.394235604871675
 30
0
 10
-13.19529982423668
 20
7.111720443952793
 30
0
 10
-16.85358059490849
 20
10.04964644631157
 30
0
 10
-19.39901362406394
 20
11.88227154809128
 30
0
 10
-20.2221369954917
 20
12.43048159000956
 30
0
  0
SPLINE
  5
8D
100
AcDbEntity
  8
0
  6
ByLayer
 62
    4
370
   -1
100
AcDbSpline
210
0
220
0
230
0
 70
    8
 71
    2
 72
    6
 73
    3
 74
    0
 42
1e-007
 43
1e-007
 40
0
 40
0
 40
0
 40
1
 40
1
 40
1
 10
-20.59425150363413
 20
12.90895208214222
 30
0
 10
-2.297872631691881
 20
3.315949134178272
 30
0
 10
11.8660159934748
 20
-17.20906389889073
 30
0
  0
SPLINE
  5
8E
100
AcDbEntity
  8
0
  6
ByLayer
 62
    4
370
   -1
100
AcDbSpline
210
0
220
0
230
0
 70
    8
 71
    2
 72
    6
 73
    3
 74
    0
 42
1e-007
 43
1e-007
 40
0
 40
0
 40
0
 40
1
 40
1
 40
1
 10
11.86601599347492
 20
-9.808578772248705
 30
0
 10
2.156384973155603
 20
1.833793201957054
 30
0
 10
-15.04895177092519
 20
10.47208409963584
 30
0
  0
SPLINE
  5
8F
100
AcDbEntity
  8
0
  6
ByLayer
 62
    4
370
   -1
100
AcDbSpline
210
0
220
0
230
0
 70
    8
 71
    2
 72
    7
 73
    4
 74
    0
 42
1e-007
 43
1e-007
 40
0
 40
0
 40
0
 40
0.5
 40
1
 40
1
 40
1
 10
-24.0136179591103
 20
14.40419337319041
 30
0
 10
-21.70431472342418
 20
13.83375739419377
 30
0
 10
-17.31418866616294
 20
11.58653653489695
 30
0
 10
-15.04895177092519
 20
10.47208409963584
 30
0
  0
SPLINE
  5
90
100
AcDbEntity
  8
0
  6
ByLayer
 62
    4
370
   -1
100
AcDbSpline
210
0
220
0
230
0
 70
    8
 71
    2
 72
    7
 73
    4
 74
    0
 42
1e-007
 43
1e-007
 40
0
 40
0
 40
0
 40
0.5
 40
1
 40
1
 40
1
 10
-24.14102817813076
 20
13.92090600927149
 30
0
 10
-23.23945811716802
 20
13.71101531325705
 30
0
 10
-21.3541914651506
 20
12.98054232403461
 30
0
 10
-20.52157677629677
 20
12.27257772640222
 30
0
  0
SPLINE
  5
91
100
AcDbEntity
  8
0
  6
ByLayer
 62
    3
370
   -1
100
AcDbSpline
210
0
220
0
230
0
 70
    8
 71
    2
 72
    7
 73
    4
 74
    0
 42
1e-007
 43
1e-007
 40
0
 40
0
 40
0
 40
0.5
 40
1
 40
1
 40
1
 10
-24.18353406750495
 20
13.75961283032062
 30
0
 10
-23.08404900844809
 20
13.49120127782554
 30
0
 10
-21.04629459568125
 20
12.62022965271866
 30
0
 10
-20.40028892603457
 20
11.84635712505629
 30
0
  0
SPLINE
  5
92
100
AcDbEntity
  8
0
  6
ByLayer
 62
    3
370
   -1
100
AcDbSpline
210
0
220
0
230
0
 70
    8
 71
    2
 72
    7
 73
    4
 74
    0
 42
1e-007
 43
1e-007
 40
0
 40
0
 40
0
 40
0.5
 40
1
 40
1
 40
1
 10
-24.16226416235198
 20
13.84035836514606
 30
0
 10
-22.98882568236192
 20
13.55819299580275
 30
0
 10
-21.24855861547902
 20
12.78048159686368
 30
0
 10
-20.70014222491337
 20
12.2591681105154
 30
0
  0
SPLINE
  5
93
100
AcDbEntity
  8
0
  6
ByLayer
 62
    4
370
   -1
100
AcDbSpline
210
0
220
0
230
0
 70
    8
 71
    2
 72
    7
 73
    4
 74
    0
 42
1e-007
 43
1e-007
 40
0
 40
0
 40
0
 40
0.5
 40
1
 40
1
 40
1
 10
-24.11979219390966
 20
14.00145365339693
 30
0
 10
-22.98695414006895
 20
13.7290753476775
 30
0
 10
-20.99705034494374
 20
12.86694308865661
 30
0
 10
-20.25638541693305
 20
12.2279557956674
 30
0
  0
SPLINE
  5
94
100
AcDbEntity
  8
0
  6
ByLayer
 62
    1
370
   -1
100
AcDbSpline
210
0
220
0
230
0
 70
    8
 71
    2
 72
    7
 73
    4
 74
    0
 42
1e-007
 43
1e-007
 40
0
 40
0
 40
0
 40
0.5
 40
1
 40
1
 40
1
 10
-24.07732022546734
 20
14.16254894164782
 30
0
 10
-23.06965250527466
 20
13.92147092701466
 30
0
 10
-21.38119254293449
 20
13.23398441557383
 30
0
 10
-20.70292516597814
 20
12.85552237895392
 30
0
  0
SPLINE
  5
95
100
AcDbEntity
  8
0
  6
ByLayer
 62
    4
370
   -1
100
AcDbSpline
210
0
220
0
230
0
 70
    8
 71
    2
 72
    7
 73
    4
 74
    0
 42
1e-007
 43
1e-007
 40
0
 40
0
 40
0
 40
0.5
 40
1
 40
1
 40
1
 10
-24.09855620968844
 20
14.08200129752236
 30
0
 10
-23.17585034462862
 20
13.87906990215429
 30
0
 10
-21.21197123941701
 20
13.08962200275942
 30
0
 10
-20.2221369954917
 20
12.43048159000956
 30
0
  0
SPLINE
  5
96
100
AcDbEntity
  8
0
  6
ByLayer
 62
    4
370
   -1
100
AcDbSpline
210
0
220
0
230
0
 70
    8
 71
    2
 72
    7
 73
    4
 74
    0
 42
1e-007
 43
1e-007
 40
0
 40
0
 40
0
 40
0.5
 40
1
 40
1
 40
1
 10
-24.05608424124611
 20
14.24309658577325
 30
0
 10
-23.23900706035008
 20
14.04458751716571
 30
0
 10
-21.49773644241187
 20
13.3970198093442
 30
0
 10
-20.59425150363413
 20
12.90895208214222
 30
0
  0
SPLINE
  5
97
100
AcDbEntity
  8
0
  6
ByLayer
 62
    1
370
   -1
100
AcDbSpline
210
0
220
0
230
0
 70
    8
 71
    2
 72
    6
 73
    3
 74
    0
 42
1e-007
 43
1e-007
 40
0
 40
0
 40
0
 40
1
 40
1
 40
1
 10
-20.70292516597814
 20
12.85552237895392
 30
0
 10
-3.803672917432067
 20
2.136281930144904
 30
0
 10
11.55488680656393
 20
3.387463941354653
 30
0
  0
ARC
  5
98
100
AcDbEntity
  8
0
  6
ByLayer
 62
  256
370
   -1
100
AcDbCircle
 10
4.498517074716148
 20
15.71931249857908
 40
40
100
AcDbArc
 50
249.0810753233932
 51
267.1212237980885
  0
SPLINE
  5
99
100
AcDbEntity
  8
0
  6
ByLayer
 62
  256
370
   -1
100
AcDbSpline
210
0
220
0
230
0
 70
    8
 71
    2
 72
    7
 73
    4
 74
    0
 42
1e-007
 43
1e-007
 40
0
 40
0
 40
0
 40
0.5
 40
1
 40
1
 40
1
 10
2.489597641115466
 20
-24.23020868389947
 30
0
 10
3.925544673077788
 20
-24.37723260292437
 30
0
 10
7.801918000719219
 20
-24.90196279677191
 30
0
 10
11.8660159934748
 20
-25.47046966877793
 30
0
  0
LINE
  5
9A
100
AcDbEntity
  8
0
  6
ByLayer
 62
  256
370
   -1
100
AcDbLine
 10
11.86601599347526
 20
-9.808578772248705
 11
11.86601599347504
 21
-25.47173784511274
  0
SPLINE
  5
9B
100
AcDbEntity
  8
0
  6
ByLayer
 62
    4
370
   -1
100
AcDbSpline
210
0
220
0
230
0
 70
    8
 71
    2
 72
   15
 73
   12
 74
    0
 42
1e-007
 43
1e-007
 40
0
 40
0
 40
0
 40
0.1
 40
0.2
 40
0.3
 40
0.4
 40
0.5
 40
0.6
 40
0.7
 40
0.8
 40
0.9
 40
1
 40
1
 40
1
 10
7.023047685513035
 20
-24.79839235776213
 30
0
 10
6.419935190008253
 20
-23.65500792274932
 30
0
 10
4.956000078289463
 20
-20.85404687080283
 30
0
 10
3.122498398612528
 20
-17.30870147071102
 30
0
 10
1.401218568000814
 20
-13.90064509905223
 30
0
 10
-0.8437423411266778
 20
-9.762836663339829
 30
0
 10
-4.290717600271904
 20
-4.514757098244626
 30
0
 10
-8.291713820227507
 20
0.5973575345673936
 30
0
 10
-12.93540089815437
 20
5.652534493656692
 30
0
 10
-17.75787403277533
 20
10.14415215552528
 30
0
 10
-19.82046253186328
 20
11.86874199236091
 30
0
 10
-20.25638541693305
 20
12.2279557956674
 30
0
  0
SPLINE
  5
9C
100
AcDbEntity
  8
0
  6
ByLayer
 62
    4
370
   -1
100
AcDbSpline
210
0
220
0
230
0
 70
    8
 71
    2
 72
   13
 73
   10
 74
    0
 42
1e-007
 43
1e-007
 40
0
 40
0
 40
0
 40
0.125
 40
0.25
 40
0.375
 40
0.5
 40
0.625
 40
0.75
 40
0.875
 40
1
 40
1
 40
1
 10
2.489597641115573
 20
-24.23020868389949
 30
0
 10
2.326464264791099
 20
-23.86562209265416
 30
0
 10
1.145826079912943
 20
-21.25281913908973
 30
0
 10
-1.224305038164715
 20
-15.82792267776641
 30
0
 10
-3.984380451408782
 20
-10.3715973730544
 30
0
 10
-6.534822362164704
 20
-5.886782413338388
 30
0
 10
-9.175466615614347
 20
-1.640371783634897
 30
0
 10
-12.09300210150568
 20
3.176714911025293
 30
0
 10
-16.80287474200733
 20
8.877224970377753
 30
0
 10
-20.52157677629677
 20
12.27257772640222
 30
0
  0
SPLINE
  5
9D
100
AcDbEntity
  8
0
  6
ByLayer
 62
    4
370
   -1
100
AcDbSpline
210
0
220
0
230
0
 70
    8
 71
    2
 72
    6
 73
    3
 74
    0
 42
1e-007
 43
1e-007
 40
0
 40
0
 40
0
 40
1
 40
1
 40
1
 10
11.8660159934748
 20
-17.20906389889073
 30
0
 10
8.907548647672826
 20
-21.60186215146463
 30
0
 10
7.023047685513149
 20
-24.79839235776215
 30
0
  0
SPLINE
  5
9E
100
AcDbEntity
  8
0
  6
ByLayer
 62
    4
370
   -1
100
AcDbSpline
210
0
220
0
230
0
 70
    8
 71
    2
 72
    8
 73
    5
 74
    0
 42
1e-007
 43
1e-007
 40
0
 40
0
 40
0
 40
0.3333333333333333
 40
0.6666666666666666
 40
1
 40
1
 40
1
 10
2.489597641115573
 20
-24.23020868389947
 30
0
 10
4.166078951515367
 20
-20.77865336189215
 30
0
 10
6.747356395567166
 20
-16.55883820211405
 30
0
 10
9.524972254200193
 20
-12.59347554299664
 30
0
 10
11.86601599347526
 20
-9.80857877224874
 30
0
  0
SPLINE
  5
9F
100
AcDbEntity
  8
0
  6
ByLayer
 62
  256
370
   -1
100
AcDbSpline
210
0
220
0
230
0
 70
    8
 71
    2
 72
   10
 73
    7
 74
    0
 42
1e-007
 43
1e-007
 40
0
 40
0
 40
0
 40
0.2
 40
0.4
 40
0.6
 40
0.8
 40
1
 40
1
 40
1
 10
-10.86256438762545
 20
-21.231623542918
 30
0
 10
-10.32543856503739
 20
-19.6636959918061
 30
0
 10
-9.863770955925446
 20
-15.55185896902593
 30
0
 10
-10.00410395381679
 20
-13.58372299107084
 30
0
 10
-10.12043594875391
 20
-12.01526839082722
 30
0
 10
-10.50292432918504
 20
-8.799555523807598
 30
0
 10
-10.9765353617557
 20
-6.700433965906665
 30
0
  0
SPLINE
  5
A0
100
AcDbEntity
  8
0
  6
ByLayer
 62
  256
370
   -1
100
AcDbSpline
210
0
220
0
230
0
 70
    8
 71
    2
 72
   15
 73
   12
 74
    0
 42
1e-007
 43
1e-007
 40
0
 40
0
 40
0
 40
0.1
 40
0.2
 40
0.3
 40
0.4
 40
0.5
 40
0.6
 40
0.7
 40
0.8
 40
0.9
 40
1
 40
1
 40
1
 10
-9.995948913471096
 20
-13.70476803839456
 30
0
 10
-10.13820939221652
 20
-11.61551847604163
 30
0
 10
-10.64751221498771
 20
-7.984656784290856
 30
0
 10
-11.35334962248053
 20
-5.227322519281365
 30
0
 10
-12.22971412857098
 20
-2.555442705908156
 30
0
 10
-13.25968430030323
 20
0.07831452816991202
 30
0
 10
-14.47541987661705
 20
2.621053747718655
 30
0
 10
-15.85343613274093
 20
5.212391202729112
 30
0
 10
-17.29590047660869
 20
7.582558161007473
 30
0
 10
-18.93413023920797
 20
9.774977632916332
 30
0
 10
-21.57061001039741
 20
12.72540683143943
 30
0
 10
-24.27274894588615
 20
13.42117420150375
 30
0
  0
LINE
  5
A1
100
AcDbEntity
  8
0
  6
ByLayer
 62
  256
370
   -1
100
AcDbLine
 10
11.86886219282886
 20
-25.46396087607048
 11
13.06886219282879
 21
-25.63080371571744
  0
LINE
  5
A2
100
AcDbEntity
  8
0
  6
ByLayer
 62
  256
370
   -1
100
AcDbLine
 10
-10.85971818827161
 20
-21.22384657387574
 11
-9.780498551775878
 21
-21.63637427421407
  0
SPLINE
  5
A3
100
AcDbEntity
  8
0
  6
ByLayer
 62
    3
370
   -1
100
AcDbSpline
210
0
220
0
230
0
 70
    8
 71
    2
 72
    8
 73
    5
 74
    0
 42
1e-007
 43
1e-007
 40
0
 40
0
 40
0
 40
0.3333333333333333
 40
0.6666666666666666
 40
1
 40
1
 40
1
 10
-20.40028892603468
 20
11.84635712505634
 30
0
 10
-16.45165364123793
 20
7.416207247700203
 30
0
 10
-13.36547466027397
 20
1.587974522000813
 30
0
 10
-12.16947173906792
 20
-1.221012847791837
 30
0
 10
-11.770768102353
 20
-2.373037934769467
 30
0
  0
SPLINE
  5
A4
100
AcDbEntity
  8
0
  6
ByLayer
 62
    3
370
   -1
100
AcDbSpline
210
0
220
0
230
0
 70
    8
 71
    2
 72
   11
 73
    8
 74
    0
 42
1e-007
 43
1e-007
 40
0
 40
0
 40
0
 40
0.1666666666666667
 40
0.3333333333333333
 40
0.5
 40
0.6666666666666666
 40
0.8333333333333334
 40
1
 40
1
 40
1
 10
-10.35667227361355
 20
-21.41613400761106
 30
0
 10
-10.11668918306705
 20
-20.66036303317803
 30
0
 10
-9.502664732110674
 20
-18.3188317222506
 30
0
 10
-9.303705204222723
 20
-15.07264161585651
 30
0
 10
-9.614995856997524
 20
-11.34271422166124
 30
0
 10
-10.04190059433429
 20
-8.331923823956465
 30
0
 10
-10.90091627971472
 20
-4.949807620625656
 30
0
 10
-11.77076810235619
 20
-2.373037934760227
 30
0
  0
SPLINE
  5
A5
100
AcDbEntity
  8
0
  6
ByLayer
 62
    3
370
   -1
100
AcDbSpline
210
0
220
0
230
0
 70
    8
 71
    2
 72
    8
 73
    5
 74
    0
 42
1e-007
 43
1e-007
 40
0
 40
0
 40
0
 40
0.3333333333333333
 40
0.6666666666666666
 40
1
 40
1
 40
1
 10
-20.70014222491337
 20
12.2591681105154
 30
0
 10
-16.50742147673859
 20
7.956105966886634
 30
0
 10
-11.15431880447963
 20
-0.3404907396032471
 30
0
 10
-9.149198689456313
 20
-4.726881966610605
 30
0
 10
-8.919078206261617
 20
-5.255734567978337
 30
0
  0
SPLINE
  5
A6
100
AcDbEntity
  8
0
  6
ByLayer
 62
    3
370
   -1
100
AcDbSpline
210
0
220
0
230
0
 70
    8
 71
    2
 72
    9
 73
    6
 74
    0
 42
1e-007
 43
1e-007
 40
0
 40
0
 40
0
 40
0.25
 40
0.5
 40
0.75
 40
1
 40
1
 40
1
 10
-4.544505651725757
 20
-23.24507816737464
 30
0
 10
-4.374295856620137
 20
-22.36362571159755
 30
0
 10
-4.394233056419772
 20
-19.38176980907042
 30
0
 10
-5.159166183854467
 20
-15.50808634974781
 30
0
 10
-6.830903993951011
 20
-10.05617176608804
 30
0
 10
-8.919078206385088
 20
-5.255734567694486
 30
0
  0
ARC
  5
A7
100
AcDbEntity
  8
0
  6
ByLayer
 62
  256
370
   -1
100
AcDbCircle
 10
4.498517074716148
 20
15.71931249857908
 40
41.2
100
AcDbArc
 50
249.0810753233932
 51
267.1212237980885
  0
SPLINE
  5
A8
100
AcDbEntity
  8
0
  6
ByLayer
 62
  256
370
   -1
100
AcDbSpline
210
0
220
0
230
0
 70
    8
 71
    2
 72
    7
 73
    4
 74
    0
 42
1e-007
 43
1e-007
 40
0
 40
0
 40
0
 40
0.5
 40
1
 40
1
 40
1
 10
2.367370896583765
 20
-25.42396771440822
 30
0
 10
4.093986506240043
 20
-25.60310175554308
 30
0
 10
8.610216382189066
 20
-26.22762646490566
 30
0
 10
11.69977247281408
 20
-26.65889850208616
 30
0
  0
LINE
  5
A9
100
AcDbEntity
  8
0
  6
ByLayer
 62
  256
370
   -1
100
AcDbLine
 10
-11.28817884646665
 20
-22.34474865005326
 11
-10.20895920997091
 21
-22.75727635039159
  0
LINE
  5
AA
100
AcDbEntity
  8
0
  6
ByLayer
 62
  256
370
   -1
100
AcDbLine
 10
-10.86256438762545
 20
-21.231623542918
 11
-11.28817884646665
 21
-22.34474865005326
  0
LINE
  5
AB
100
AcDbEntity
  8
0
  6
ByLayer
 62
  256
370
   -1
100
AcDbLine
 10
11.70360895684624
 20
-26.65252781486582
 11
13.06601599347508
 21
-26.8419510304876
  0
LINE
  5
AC
100
AcDbEntity
  8
0
  6
ByLayer
 62
  256
370
   -1
100
AcDbLine
 10
13.06601599347518
 20
-9.808578772248705
 11
13.06601599347508
 21
-26.8419510304876
  0
ENDBLK
  5
52
330
50
100
AcDbEntity
  8
0
100
AcDbBlockEnd
  0
BLOCK
  5
54
330
53
100
AcDbEntity
  8
0
100
AcDbBlockBegin
  2
Leg
 70
    0
 10
0
 20
0
  3
Leg
  1

  0
LINE
  5
AD
100
AcDbEntity
  8
0
  6
ByLayer
 62
  256
370
   -1
100
AcDbLine
 10
-12.25140543874576
 20
-10.73563317743594
 11
-12.21925122725655
 21
-11.23459821316026
  0
LINE
  5
AE
100
AcDbEntity
  8
0
  6
ByLayer
 62
  256
370
   -1
100
AcDbLine
 10
3.947199277840962
 20
24.45020904778992
 11
3.946492715950143
 21
24.95020854855994
  0
LINE
  5
AF
100
AcDbEntity
  8
0
  6
ByLayer
 62
  256
370
   -1
100
AcDbLine
 10
3.946492715950143
 20
24.95020854855994
 11
4.296492366489193
 21
24.95070314188353
  0
LINE
  5
B0
100
AcDbEntity
  8
0
  6
ByLayer
 62
  256
370
   -1
100
AcDbLine
 10
4.296492366489193
 20
24.95070314188353
 11
5.296491368029322
 21
24.95211626566509
  0
LINE
  5
B1
100
AcDbEntity
  8
0
  6
ByLayer
 62
  256
370
   -1
100
AcDbLine
 10
5.296491368029322
 20
24.95211626566509
 11
5.646491018568305
 21
24.95261085898864
  0
LINE
  5
B2
100
AcDbEntity
  8
0
  6
ByLayer
 62
  256
370
   -1
100
AcDbLine
 10
4.019204866605904
 20
-26.50464558525157
 11
4.018498304715095
 21
-26.00464608448148
  0
LINE
  5
B3
100
AcDbEntity
  8
0
  6
ByLayer
 62
  256
370
   -1
100
AcDbLine
 10
4.019204866605904
 20
-26.50464558525157
 11
4.369204517144954
 21
-26.50415099192797
  0
LINE
  5
B4
100
AcDbEntity
  8
0
  6
ByLayer
 62
  256
370
   -1
100
AcDbLine
 10
4.369204517144954
 20
-26.50415099192797
 11
5.369203518685023
 21
-26.50273786814641
  0
LINE
  5
B5
100
AcDbEntity
  8
0
  6
ByLayer
 62
  256
370
   -1
100
AcDbLine
 10
5.369203518685023
 20
-26.50273786814641
 11
5.719203169224013
 21
-26.50224327482282
  0
LINE
  5
B6
100
AcDbEntity
  8
0
  6
ByLayer
 62
  256
370
   -1
100
AcDbLine
 10
-12.21925122725688
 20
-11.23459821315699
 11
-12.25130464396677
 21
-10.73739146643546
  0
ARC
  5
B7
100
AcDbEntity
  8
0
  6
ByLayer
 62
  256
370
   -1
100
AcDbCircle
 10
-11.70458376617989
 20
-19.21802588581492
 40
8
100
AcDbArc
 50
71.73361936922957
 51
93.68858153933692
  0
ARC
  5
B8
100
AcDbEntity
  8
0
  6
ByLayer
 62
  256
370
   -1
100
AcDbCircle
 10
-7.283773520116164
 20
16.82020455475083
 40
3.5
100
AcDbArc
 50
249.3629604021949
 51
283.1761679596736
  0
ARC
  5
B9
100
AcDbEntity
  8
0
  6
ByLayer
 62
  256
370
   -1
100
AcDbCircle
 10
44.69578219087485
 20
-7.066184837058636
 40
58.26529993867181
100
AcDbArc
 50
158.8271755050453
 51
183.6885815393372
  0
LINE
  5
BA
100
AcDbEntity
  8
0
  6
ByLayer
 62
  256
370
   -1
100
AcDbLine
 10
-8.517336979348507
 20
13.54479294824292
 11
-9.636331238081802
 21
13.97821173985436
  0
LINE
  5
BB
100
AcDbEntity
  8
0
  6
ByLayer
 62
  256
370
   -1
100
AcDbLine
 10
-13.41676537815499
 20
-11.31179833231865
 11
-13.44881879486498
 21
-10.81459158559711
  0
LINE
  5
BC
100
AcDbEntity
  8
0
  6
ByLayer
 62
  256
370
   -1
100
AcDbLine
 10
-13.41676537815499
 20
-11.31179833231865
 11
-12.21925122725654
 21
-11.2345982131602
  0
ARC
  5
BD
100
AcDbEntity
  8
0
  6
ByLayer
 62
  256
370
   -1
100
AcDbCircle
 10
44.69578219087485
 20
-7.066184837058636
 40
57.06529993867181
100
AcDbArc
 50
158.8271755050453
 51
183.6885815393372
  0
SPLINE
  5
BE
100
AcDbEntity
  8
0
  6
ByLayer
 62
  256
370
   -1
100
AcDbSpline
210
0
220
0
230
0
 70
    8
 71
    2
 72
    9
 73
    6
 74
    0
 42
1e-007
 43
1e-007
 40
0
 40
0
 40
0
 40
0.25
 40
0.5
 40
0.75
 40
1
 40
1
 40
1
 10
-6.485962896056506
 20
13.41234625251334
 30
0
 10
-5.200195843845906
 20
13.79018587422152
 30
0
 10
-2.495457067789987
 20
15.19693148847238
 30
0
 10
0.6493132103878523
 20
17.81439798997786
 30
0
 10
3.824779277489483
 20
22.50241248224492
 30
0
 10
3.947199277840962
 20
24.45020904778992
 30
0
  0
SPLINE
  5
BF
100
AcDbEntity
  8
0
  6
ByLayer
 62
  256
370
   -1
100
AcDbSpline
210
0
220
0
230
0
 70
    8
 71
    2
 72
    7
 73
    4
 74
    0
 42
1e-007
 43
1e-007
 40
0
 40
0
 40
0
 40
0.5
 40
1
 40
1
 40
1
 10
5.646491018568305
 20
24.95261085898864
 30
0
 10
5.630337363135624
 20
23.63298635829408
 30
0
 10
5.976039199976324
 20
21.15433990079009
 30
0
 10
6.416953803181954
 20
20.08852405597092
 30
0
  0
SPLINE
  5
C0
100
AcDbEntity
  8
0
  6
ByLayer
 62
    3
370
   -1
100
AcDbSpline
210
0
220
0
230
0
 70
    8
 71
    2
 72
    8
 73
    5
 74
    0
 42
1e-007
 43
1e-007
 40
0
 40
0
 40
0
 40
0.3333333333333333
 40
0.6666666666666666
 40
1
 40
1
 40
1
 10
1.474763394818385
 20
18.39623674420882
 30
0
 10
-0.2325212699237369
 20
16.1461765443892
 30
0
 10
-4.951038429428996
 20
13.13035609728711
 30
0
 10
-7.749262155029584
 20
12.73175224313459
 30
0
 10
-8.695883803883888
 20
13.07775865458953
 30
0
  0
SPLINE
  5
C1
100
AcDbEntity
  8
0
  6
ByLayer
 62
    3
370
   -1
100
AcDbSpline
210
0
220
0
230
0
 70
    8
 71
    2
 72
    7
 73
    4
 74
    0
 42
1e-007
 43
1e-007
 40
0
 40
0
 40
0
 40
0.5
 40
1
 40
1
 40
1
 10
4.296492366489193
 20
24.95070314188353
 30
0
 10
4.365242913183415
 20
23.08912121247948
 30
0
 10
2.547116268469892
 20
19.76682250019975
 30
0
 10
1.474763394818385
 20
18.39623674420882
 30
0
  0
SPLINE
  5
C2
100
AcDbEntity
  8
0
  6
ByLayer
 62
    1
370
   -1
100
AcDbSpline
210
0
220
0
230
0
 70
    8
 71
    2
 72
    7
 73
    4
 74
    0
 42
1e-007
 43
1e-007
 40
0
 40
0
 40
0
 40
0.5
 40
1
 40
1
 40
1
 10
5.296491368029322
 20
24.95211626566509
 30
0
 10
5.275627195380274
 20
23.38140132672834
 30
0
 10
5.812428731161965
 20
20.33903572155332
 30
0
 10
6.312095874436963
 20
18.94027528975675
 30
0
  0
SPLINE
  5
C3
100
AcDbEntity
  8
0
  6
ByLayer
 62
    4
370
   -1
100
AcDbSpline
210
0
220
0
230
0
 70
    8
 71
    2
 72
    7
 73
    4
 74
    0
 42
1e-007
 43
1e-007
 40
0
 40
0
 40
0
 40
0.5
 40
1
 40
1
 40
1
 10
4.582192081229174
 20
24.95110687134791
 30
0
 10
4.623818303081425
 20
23.71941986239081
 30
0
 10
3.917114090735893
 20
21.12849291963053
 30
0
 10
3.269630573286925
 20
19.86750193360793
 30
0
  0
SPLINE
  5
C4
100
AcDbEntity
  8
0
  6
ByLayer
 62
    4
370
   -1
100
AcDbSpline
210
0
220
0
230
0
 70
    8
 71
    2
 72
    8
 73
    5
 74
    0
 42
1e-007
 43
1e-007
 40
0
 40
0
 40
0
 40
0.3333333333333333
 40
0.6666666666666666
 40
1
 40
1
 40
1
 10
-9.588985083569675
 20
10.52962429608354
 30
0
 10
-8.097313719539656
 20
10.45979617797098
 30
0
 10
-3.787128054515607
 20
11.51389043675441
 30
0
 10
1.205684115930154
 20
15.71072679665804
 30
0
 10
3.269630573286925
 20
19.86750193360793
 30
0
  0
SPLINE
  5
C5
100
AcDbEntity
  8
0
  6
ByLayer
 62
    1
370
   -1
100
AcDbSpline
210
0
220
0
230
0
 70
    8
 71
    2
 72
    7
 73
    4
 74
    0
 42
1e-007
 43
1e-007
 40
0
 40
0
 40
0
 40
0.5
 40
1
 40
1
 40
1
 10
4.439342223859185
 20
24.95090500661571
 30
0
 10
4.482042421319655
 20
23.80806253329851
 30
0
 10
3.811110186951904
 20
21.3745344419055
 30
0
 10
3.108846599520245
 20
20.23208069728514
 30
0
  0
SPLINE
  5
C6
100
AcDbEntity
  8
0
  6
ByLayer
 62
    1
370
   -1
100
AcDbSpline
210
0
220
0
230
0
 70
    8
 71
    2
 72
    7
 73
    4
 74
    0
 42
1e-007
 43
1e-007
 40
0
 40
0
 40
0
 40
0.5
 40
1
 40
1
 40
1
 10
4.725041938599222
 20
24.95130873608009
 30
0
 10
4.744719369293673
 20
24.12945452951444
 30
0
 10
4.538638243791915
 20
22.39227500235504
 30
0
 10
4.217571236139953
 20
21.53060330800964
 30
0
  0
SPLINE
  5
C7
100
AcDbEntity
  8
0
  6
ByLayer
 62
    1
370
   -1
100
AcDbSpline
210
0
220
0
230
0
 70
    8
 71
    2
 72
    7
 73
    4
 74
    0
 42
1e-007
 43
1e-007
 40
0
 40
0
 40
0
 40
0.5
 40
1
 40
1
 40
1
 10
5.153591510709212
 20
24.95191433027672
 30
0
 10
5.146584711576914
 20
22.78082518535032
 30
0
 10
5.482939692083775
 20
18.37336687357572
 30
0
 10
5.755302586950165
 20
16.14645242078924
 30
0
  0
SPLINE
  5
C8
100
AcDbEntity
  8
0
  6
ByLayer
 62
    4
370
   -1
100
AcDbSpline
210
0
220
0
230
0
 70
    8
 71
    2
 72
   19
 73
   16
 74
    0
 42
1e-007
 43
1e-007
 40
0
 40
0
 40
0
 40
0.07142857142857142
 40
0.1428571428571428
 40
0.2142857142857143
 40
0.2857142857142857
 40
0.3571428571428572
 40
0.4285714285714285
 40
0.5
 40
0.5714285714285714
 40
0.6428571428571429
 40
0.7142857142857143
 40
0.7857142857142857
 40
0.8571428571428571
 40
0.9285714285714286
 40
1
 40
1
 40
1
 10
5.010741653339224
 20
24.95171246554453
 30
0
 10
5.014717359762454
 20
23.27111092319853
 30
0
 10
4.650026998355855
 20
20.29338625874613
 30
0
 10
4.529185445688373
 20
19.25682409159334
 30
0
 10
4.276364496944375
 20
17.77109926620627
 30
0
 10
3.891341824946295
 20
16.14192982545277
 30
0
 10
3.397419715035294
 20
14.63493266102581
 30
0
 10
2.819372477086052
 20
13.25153930298749
 30
0
 10
1.992897760274463
 20
11.68340191681807
 30
0
 10
0.7354687162236431
 20
9.884610863358063
 30
0
 10
-0.7879457525834965
 20
8.265483327838862
 30
0
 10
-2.555893204534046
 20
6.869948323443541
 30
0
 10
-4.727307814913106
 20
5.579362337502374
 30
0
 10
-7.449414495979596
 20
4.468339446707844
 30
0
 10
-10.15519134520539
 20
3.735211392501675
 30
0
 10
-11.37874805321946
 20
3.521332104828119
 30
0
  0
SPLINE
  5
C9
100
AcDbEntity
  8
0
  6
ByLayer
 62
    1
370
   -1
100
AcDbSpline
210
0
220
0
230
0
 70
    8
 71
    2
 72
    7
 73
    4
 74
    0
 42
1e-007
 43
1e-007
 40
0
 40
0
 40
0
 40
0.5
 40
1
 40
1
 40
1
 10
4.867891795969214
 20
24.95151060081228
 30
0
 10
4.887892415014452
 20
23.5579491052414
 30
0
 10
4.524933203244395
 20
20.69116817353705
 30
0
 10
4.370621698009252
 20
19.2064004835154
 30
0
  0
SPLINE
  5
CA
100
AcDbEntity
  8
0
  6
ByLayer
 62
  256
370
   -1
100
AcDbSpline
210
0
220
0
230
0
 70
    8
 71
    2
 72
    8
 73
    5
 74
    0
 42
1e-007
 43
1e-007
 40
0
 40
0
 40
0
 40
0.3333333333333333
 40
0.6666666666666666
 40
1
 40
1
 40
1
 10
-9.197101295727528
 20
-11.62114944477673
 30
0
 10
-8.183400533431303
 20
-11.89467738316417
 30
0
 10
-3.645419469304116
 20
-14.19197442884426
 30
0
 10
3.896341740224955
 20
-22.91312458034629
 30
0
 10
4.018498304715095
 20
-26.00464608448148
 30
0
  0
SPLINE
  5
CB
100
AcDbEntity
  8
0
  6
ByLayer
 62
  256
370
   -1
100
AcDbSpline
210
0
220
0
230
0
 70
    8
 71
    2
 72
    7
 73
    4
 74
    0
 42
1e-007
 43
1e-007
 40
0
 40
0
 40
0
 40
0.5
 40
1
 40
1
 40
1
 10
5.719203169224013
 20
-26.50224327482282
 30
0
 10
5.684965224504595
 20
-25.19142143562822
 30
0
 10
6.294383518248804
 20
-22.62693400091239
 30
0
 10
6.765288461525074
 20
-21.42574794371067
 30
0
  0
SPLINE
  5
CC
100
AcDbEntity
  8
0
  6
ByLayer
 62
  256
370
   -1
100
AcDbSpline
210
0
220
0
230
0
 70
    8
 71
    2
 72
    6
 73
    3
 74
    0
 42
1e-007
 43
1e-007
 40
0
 40
0
 40
0
 40
1
 40
1
 40
1
 10
6.416953803181954
 20
20.08852405597092
 30
0
 10
14.66181593341834
 20
-0.2755026135708647
 30
0
 10
6.765288461524925
 20
-21.42574794371093
 30
0
  0
SPLINE
  5
CD
100
AcDbEntity
  8
0
  6
ByLayer
 62
    1
370
   -1
100
AcDbSpline
210
0
220
0
230
0
 70
    8
 71
    2
 72
    6
 73
    3
 74
    0
 42
1e-007
 43
1e-007
 40
0
 40
0
 40
0
 40
1
 40
1
 40
1
 10
6.391573510279702
 20
-20.51431872015934
 30
0
 10
13.52905425797391
 20
-0.9415453290407356
 30
0
 10
6.312095874436885
 20
18.940275289757
 30
0
  0
SPLINE
  5
CE
100
AcDbEntity
  8
0
  6
ByLayer
 62
    1
370
   -1
100
AcDbSpline
210
0
220
0
230
0
 70
    8
 71
    2
 72
    7
 73
    4
 74
    0
 42
1e-007
 43
1e-007
 40
0
 40
0
 40
0
 40
0.5
 40
1
 40
1
 40
1
 10
5.369203518685023
 20
-26.50273786814641
 30
0
 10
5.342553807446755
 20
-24.92359890681854
 30
0
 10
5.904346091465182
 20
-21.89753147330114
 30
0
 10
6.391573510279702
 20
-20.51431872015934
 30
0
  0
SPLINE
  5
CF
100
AcDbEntity
  8
0
  6
ByLayer
 62
    1
370
   -1
100
AcDbSpline
210
0
220
0
230
0
 70
    8
 71
    2
 72
    6
 73
    3
 74
    0
 42
1e-007
 43
1e-007
 40
0
 40
0
 40
0
 40
1
 40
1
 40
1
 10
5.592556497931483
 20
-19.35536796568343
 30
0
 10
8.115163787039652
 20
-4.042632677447671
 30
0
 10
5.755302586950215
 20
16.14645242078958
 30
0
  0
SPLINE
  5
D0
100
AcDbEntity
  8
0
  6
ByLayer
 62
    1
370
   -1
100
AcDbSpline
210
0
220
0
230
0
 70
    8
 71
    2
 72
    7
 73
    4
 74
    0
 42
1e-007
 43
1e-007
 40
0
 40
0
 40
0
 40
0.5
 40
1
 40
1
 40
1
 10
5.257203630512585
 20
-26.50289613800992
 30
0
 10
5.250234109350174
 20
-24.65380861930927
 30
0
 10
5.365074972163562
 20
-21.07154723887715
 30
0
 10
5.592556497931483
 20
-19.35536796568343
 30
0
  0
SPLINE
  5
D1
100
AcDbEntity
  8
0
  6
ByLayer
 62
    3
370
   -1
100
AcDbSpline
210
0
220
0
230
0
 70
    8
 71
    2
 72
    9
 73
    6
 74
    0
 42
1e-007
 43
1e-007
 40
0
 40
0
 40
0
 40
0.25
 40
0.5
 40
0.75
 40
1
 40
1
 40
1
 10
-12.25141791645446
 20
-10.73563398187118
 30
0
 10
-9.344876969772571
 20
-10.73830109960664
 30
0
 10
-4.340736184116766
 20
-13.20087083271108
 30
0
 10
-1.059965801315116
 20
-16.1635486237203
 30
0
 10
4.468510700218754
 20
-23.50262049815015
 30
0
 10
4.369204517144954
 20
-26.50415099192797
 30
0
  0
SPLINE
  5
D2
100
AcDbEntity
  8
0
  6
ByLayer
 62
    1
370
   -1
100
AcDbSpline
210
0
220
0
230
0
 70
    8
 71
    2
 72
    6
 73
    3
 74
    0
 42
1e-007
 43
1e-007
 40
0
 40
0
 40
0
 40
1
 40
1
 40
1
 10
3.105124997545634
 20
-21.72729901422766
 30
0
 10
-10.24347905503395
 20
0.1546932523907927
 30
0
 10
3.108846599520245
 20
20.23208069728514
 30
0
  0
SPLINE
  5
D3
100
AcDbEntity
  8
0
  6
ByLayer
 62
    1
370
   -1
100
AcDbSpline
210
0
220
0
230
0
 70
    8
 71
    2
 72
    7
 73
    4
 74
    0
 42
1e-007
 43
1e-007
 40
0
 40
0
 40
0
 40
0.5
 40
1
 40
1
 40
1
 10
4.480204406315853
 20
-26.50399413518822
 30
0
 10
4.519941892364834
 20
-25.35782301742935
 30
0
 10
3.834569217899634
 20
-22.89323004153905
 30
0
 10
3.105124997545634
 20
-21.72729901422766
 30
0
  0
SPLINE
  5
D4
100
AcDbEntity
  8
0
  6
ByLayer
 62
    1
370
   -1
100
AcDbSpline
210
0
220
0
230
0
 70
    8
 71
    2
 72
    6
 73
    3
 74
    0
 42
1e-007
 43
1e-007
 40
0
 40
0
 40
0
 40
1
 40
1
 40
1
 10
3.607476463450084
 20
-21.26336055503108
 30
0
 10
-4.298790750276886
 20
-0.3709938618223774
 30
0
 10
4.217571236139953
 20
21.53060330800964
 30
0
  0
SPLINE
  5
D5
100
AcDbEntity
  8
0
  6
ByLayer
 62
    1
370
   -1
100
AcDbSpline
210
0
220
0
230
0
 70
    8
 71
    2
 72
    7
 73
    4
 74
    0
 42
1e-007
 43
1e-007
 40
0
 40
0
 40
0
 40
0.5
 40
1
 40
1
 40
1
 10
4.813204073828715
 20
-26.50352356496894
 30
0
 10
4.857947508159423
 20
-25.10313538533245
 30
0
 10
4.065462588811833
 20
-22.48161349876946
 30
0
 10
3.607476463450084
 20
-21.26336055503108
 30
0
  0
SPLINE
  5
D6
100
AcDbEntity
  8
0
  6
ByLayer
 62
    4
370
   -1
100
AcDbSpline
210
0
220
0
230
0
 70
    8
 71
    2
 72
   10
 73
    7
 74
    0
 42
1e-007
 43
1e-007
 40
0
 40
0
 40
0
 40
0.2
 40
0.4
 40
0.6
 40
0.8
 40
1
 40
1
 40
1
 10
4.702204184657795
 20
-26.50368042170875
 30
0
 10
4.860734847698364
 20
-23.64106287340271
 30
0
 10
-0.151991799309986
 20
-14.93528871549559
 30
0
 10
-3.206253255611536
 20
-11.43986837917379
 30
0
 10
-6.648290639978349
 20
-8.284916876368008
 30
0
 10
-10.72070254605205
 20
-5.848122480447842
 30
0
 10
-12.34016368773465
 20
-5.236066036843376
 30
0
  0
SPLINE
  5
D7
100
AcDbEntity
  8
0
  6
ByLayer
 62
    4
370
   -1
100
AcDbSpline
210
0
220
0
230
0
 70
    8
 71
    2
 72
   18
 73
   15
 74
    0
 42
1e-007
 43
1e-007
 40
0
 40
0
 40
0
 40
0.07692307692307693
 40
0.1538461538461539
 40
0.2307692307692308
 40
0.3076923076923077
 40
0.3846153846153846
 40
0.4615384615384616
 40
0.5384615384615384
 40
0.6153846153846154
 40
0.6923076923076923
 40
0.7692307692307693
 40
0.8461538461538461
 40
0.9230769230769231
 40
1
 40
1
 40
1
 10
4.924203962999734
 20
-26.50336670822919
 30
0
 10
4.936854052020635
 20
-24.46911104780174
 30
0
 10
3.347419260926515
 20
-20.13121457832405
 30
0
 10
2.769427672444152
 20
-18.68563037730812
 30
0
 10
2.092075963654974
 20
-17.09370338915195
 30
0
 10
1.341144785332695
 20
-15.46574425578387
 30
0
 10
0.620433498077535
 20
-14.01956391892784
 30
0
 10
-0.05104093020488776
 20
-12.76209659609489
 30
0
 10
-0.8622596150972459
 20
-11.3087969326853
 30
0
 10
-2.081994220942066
 20
-9.336101628739748
 30
0
 10
-3.640614055987337
 20
-7.093109570454367
 30
0
 10
-5.496410072087246
 20
-4.764547585709366
 30
0
 10
-7.570502995214603
 20
-2.491529305201247
 30
0
 10
-10.15422235575178
 20
-0.09575111590189778
 30
0
 10
-11.77796315164335
 20
1.129212900634563
 30
0
  0
SPLINE
  5
D8
100
AcDbEntity
  8
0
  6
ByLayer
 62
    4
370
   -1
100
AcDbSpline
210
0
220
0
230
0
 70
    8
 71
    2
 72
    9
 73
    6
 74
    0
 42
1e-007
 43
1e-007
 40
0
 40
0
 40
0
 40
0.25
 40
0.5
 40
0.75
 40
1
 40
1
 40
1
 10
-10.07816032500029
 20
8.942052990952863
 30
0
 10
-8.103725378167269
 20
6.321196402441714
 30
0
 10
-2.062788779926366
 20
-3.459690556121345
 30
0
 10
1.778145388285015
 20
-12.90719715698332
 30
0
 10
5.103804458089552
 20
-24.30324593765692
 30
0
 10
5.035203852170643
 20
-26.50320985148944
 30
0
  0
SPLINE
  5
D9
100
AcDbEntity
  8
0
  6
ByLayer
 62
    1
370
   -1
100
AcDbSpline
210
0
220
0
230
0
 70
    8
 71
    2
 72
    6
 73
    3
 74
    0
 42
1e-007
 43
1e-007
 40
0
 40
0
 40
0
 40
1
 40
1
 40
1
 10
3.369578695413654
 20
-7.435114641759817
 30
0
 10
2.670787576871163
 20
6.172566151769075
 30
0
 10
4.370621698009252
 20
19.2064004835154
 30
0
  0
SPLINE
  5
DA
100
AcDbEntity
  8
0
  6
ByLayer
 62
    1
370
   -1
100
AcDbSpline
210
0
220
0
230
0
 70
    8
 71
    2
 72
    7
 73
    4
 74
    0
 42
1e-007
 43
1e-007
 40
0
 40
0
 40
0
 40
0.5
 40
1
 40
1
 40
1
 10
5.146203741341555
 20
-26.50305299474969
 30
0
 10
5.174420383981005
 20
-24.33448413575127
 30
0
 10
4.095109105409314
 20
-16.69480934878772
 30
0
 10
3.369578695413654
 20
-7.435114641759817
 30
0
  0
SPLINE
  5
DB
100
AcDbEntity
  8
0
  6
ByLayer
 62
    3
370
   -1
100
AcDbSpline
210
0
220
0
230
0
 70
    8
 71
    2
 72
   19
 73
   16
 74
    0
 42
1e-007
 43
1e-007
 40
0
 40
0
 40
0
 40
0.07142857142857142
 40
0.1428571428571428
 40
0.2142857142857143
 40
0.2857142857142857
 40
0.3571428571428572
 40
0.4285714285714285
 40
0.5
 40
0.5714285714285714
 40
0.6428571428571429
 40
0.7142857142857143
 40
0.7857142857142857
 40
0.8571428571428571
 40
0.9285714285714286
 40
1
 40
1
 40
1
 10
4.591204295486822
 20
-26.50383727844847
 30
0
 10
4.622362990569183
 20
-24.54773259309632
 30
0
 10
3.355508781422152
 20
-21.66632813108728
 30
0
 10
2.446473308036072
 20
-20.12059607477448
 30
0
 10
1.422843715536775
 20
-18.54682574976607
 30
0
 10
0.3736158574386437
 20
-17.08207743397413
 30
0
 10
-0.6985863391362255
 20
-15.79210311326341
 30
0
 10
-1.847559800611917
 20
-14.58466125218366
 30
0
 10
-3.197886446308896
 20
-13.26363009938522
 30
0
 10
-4.655003663297247
 20
-12.0038497647063
 30
0
 10
-6.272138312345607
 20
-10.85347982238743
 30
0
 10
-8.077310774101583
 20
-9.805043538049958
 30
0
 10
-9.640856043856459
 20
-9.036571435994588
 30
0
 10
-10.67859336983109
 20
-8.592749498831267
 30
0
 10
-11.70443505868398
 20
-8.240680161428791
 30
0
 10
-12.36037294883978
 20
-8.087760954333795
 30
0
  0
ENDBLK
  5
55
330
53
100
AcDbEntity
  8
0
100
AcDbBlockEnd
  0
BLOCK
  5
57
330
56
100
AcDbEntity
  8
0
100
AcDbBlockBegin
  2
Stiffener
 70
    0
 10
0
 20
0
  3
Stiffener
  1

  0
MTEXT
  5
DC
100
AcDbEntity
  8
0
  6
ByLayer
 62
  256
370
   -1
100
AcDbMText
 10
0.05307445117674803
 20
10.71621936195253
 30
0
 40
1
 41
0.7777777777778243
 71
    1
 72
    1
  1
in
  7
standard
210
0
220
0
230
1
 50
0
 73
    2
 44
1
  0
MTEXT
  5
DD
100
AcDbEntity
  8
0
  6
ByLayer
 62
  256
370
   -1
100
AcDbMText
 10
-1.506462860896391
 20
-10.66106329408656
 30
0
 40
1
 41
1.888888888888889
 71
    1
 72
    1
  1
out
  7
standard
210
0
220
0
230
1
 50
0
 73
    2
 44
1
  0
MTEXT
  5
DE
100
AcDbEntity
  8
0
  6
ByLayer
 62
  256
370
   -1
100
AcDbMText
 10
7.509349056939589
 20
1.558168975507996
 30
0
 40
1
 41
2.777777777777871
 71
    1
 72
    1
  1
edge
  7
standard
210
0
220
0
230
1
 50
-90
 73
    2
 44
1
  0
LINE
  5
DF
100
AcDbEntity
  8
0
  6
ByLayer
 62
  256
370
   -1
100
AcDbLine
 10
-8.299154710896415
 20
0.4083047452274258
 11
-8.296683466767595
 21
-5.869249638851485
  0
LINE
  5
E0
100
AcDbEntity
  8
0
  6
ByLayer
 62
  256
370
   -1
100
AcDbLine
 10
-1.540268018206739
 20
10.99722723044128
 11
2.502550685342859
 21
10.98913716830323
  0
LINE
  5
E1
100
AcDbEntity
  8
0
  6
ByLayer
 62
  256
370
   -1
100
AcDbLine
 10
2.961031950696158
 20
-12.01077303971987
 11
-0.0709025501807421
 21
-12.00026647109014
  0
SPLINE
  5
E2
100
AcDbEntity
  8
0
  6
ByLayer
 62
  256
370
   -1
100
AcDbSpline
210
0
220
0
230
0
 70
    8
 71
    2
 72
    8
 73
    5
 74
    0
 42
1e-007
 43
1e-007
 40
0
 40
0
 40
0
 40
0.3333333333333333
 40
0.6666666666666666
 40
1
 40
1
 40
1
 10
-8.299154710896415
 20
0.4083047452274258
 30
0
 10
-8.30400522634309
 20
3.970155569647474
 30
0
 10
-7.849447088075708
 20
8.015252261715375
 30
0
 10
-4.574098908527084
 20
11.10414670779677
 30
0
 10
-1.540268018206739
 20
10.99722723044128
 30
0
  0
SPLINE
  5
E3
100
AcDbEntity
  8
0
  6
ByLayer
 62
  256
370
   -1
100
AcDbSpline
210
0
220
0
230
0
 70
    8
 71
    2
 72
   10
 73
    7
 74
    0
 42
1e-007
 43
1e-007
 40
0
 40
0
 40
0
 40
0.2
 40
0.4
 40
0.6
 40
0.8
 40
1
 40
1
 40
1
 10
-8.296683466767595
 20
-5.869249638851485
 30
0
 10
-8.304005226343081
 20
-7.271330014346901
 30
0
 10
-7.861506722748919
 20
-9.222420999095263
 30
0
 10
-6.798775133390809
 20
-10.6718106570756
 30
0
 10
-5.032275315849459
 20
-11.75040709185724
 30
0
 10
-2.211660655156031
 20
-12.08746572492687
 30
0
 10
-0.0709025501807421
 20
-12.00026647109014
 30
0
  0
SPLINE
  5
E4
100
AcDbEntity
  8
0
  6
ByLayer
 62
  256
370
   -1
100
AcDbSpline
210
0
220
0
230
0
 70
    8
 71
    2
 72
   11
 73
    8
 74
    0
 42
1e-007
 43
1e-007
 40
0
 40
0
 40
0
 40
0.1666666666666667
 40
0.3333333333333333
 40
0.5
 40
0.6666666666666666
 40
0.8333333333333334
 40
1
 40
1
 40
1
 10
7.705595715817969
 20
0.463599721963206
 30
0
 10
7.702753479663469
 20
-3.028582296057422
 30
0
 10
7.455607535825058
 20
-6.466157696719065
 30
0
 10
7.032693762206568
 20
-9.653170908683805
 30
0
 10
6.741936295414268
 20
-10.73627132522792
 30
0
 10
6.112676020988948
 20
-11.57916691587035
 30
0
 10
4.610062872569328
 20
-11.98194944397402
 30
0
 10
2.961031950696158
 20
-12.01077303971987
 30
0
  0
SPLINE
  5
E5
100
AcDbEntity
  8
0
  6
ByLayer
 62
  256
370
   -1
100
AcDbSpline
210
0
220
0
230
0
 70
    8
 71
    2
 72
   10
 73
    7
 74
    0
 42
1e-007
 43
1e-007
 40
0
 40
0
 40
0
 40
0.2
 40
0.4
 40
0.6
 40
0.8
 40
1
 40
1
 40
1
 10
7.716431837246779
 20
0.4570972414573333
 30
0
 10
7.675317385555788
 20
3.065628477398448
 30
0
 10
7.161624916255347
 20
7.270326704809939
 30
0
 10
6.911820556244697
 20
8.909210178174575
 30
0
 10
6.258986463702199
 20
10.12469318184648
 30
0
 10
4.778061301481269
 20
10.97093613168702
 30
0
 10
2.502550685342859
 20
10.98913716830323
 30
0
  0
ENDBLK
  5
58
330
56
100
AcDbEntity
  8
0
100
AcDbBlockEnd
  0
BLOCK
  5
5A
330
59
100
AcDbEntity
  8
0
100
AcDbBlockBegin
  2
A4 Grid
 70
    0
 10
0
 20
0
  3
A4 Grid
  1

  0
LINE
  5
E6
100
AcDbEntity
  8
0
  6
ByLayer
 62
  256
370
   -1
100
AcDbLine
 10
-29.99346042139107
 20
41.5947045466461
 11
-0.2934604213910674
 21
41.5947045466461
  0
LINE
  5
E7
100
AcDbEntity
  8
0
  6
ByLayer
 62
  256
370
   -1
100
AcDbLine
 10
-0.2934604213910674
 20
41.5947045466461
 11
29.40653957860893
 21
41.5947045466461
  0
MTEXT
  5
E8
100
AcDbEntity
  8
0
  6
ByLayer
 62
  256
370
   -1
100
AcDbMText
 10
-28.07154471544715
 20
39.46829268292682
 30
0
 40
3
 41
15
 71
    1
 72
    1
  1
PARKER\PV3
  7
standard
210
0
220
0
230
1
 50
0
 73
    2
 44
1
  0
LINE
  5
E9
100
AcDbEntity
  8
0
  6
ByLayer
 62
  256
370
   -1
100
AcDbLine
 10
-29.99346042139107
 20
41.5947045466461
 11
-29.99346042139107
 21
-0.4052954533539008
  0
LINE
  5
EA
100
AcDbEntity
  8
0
  6
ByLayer
 62
  256
370
   -1
100
AcDbLine
 10
-29.99346042139107
 20
-0.4052954533539008
 11
-29.99346042139108
 21
-42.4052954533539
  0
LINE
  5
EB
100
AcDbEntity
  8
0
  6
ByLayer
 62
  256
370
   -1
100
AcDbLine
 10
-0.2934604213910674
 20
41.5947045466461
 11
-0.29346042139107
 21
-0.4052954533539008
  0
LINE
  5
EC
100
AcDbEntity
  8
0
  6
ByLayer
 62
  256
370
   -1
100
AcDbLine
 10
-0.29346042139107
 20
-0.4052954533539008
 11
-0.2934604213910725
 21
-42.4052954533539
  0
LINE
  5
ED
100
AcDbEntity
  8
0
  6
ByLayer
 62
  256
370
   -1
100
AcDbLine
 10
29.40653957860893
 20
41.5947045466461
 11
29.40653957860892
 21
-0.4052954533539008
  0
LINE
  5
EE
100
AcDbEntity
  8
0
  6
ByLayer
 62
  256
370
   -1
100
AcDbLine
 10
29.40653957860892
 20
-0.4052954533539008
 11
29.40653957860892
 21
-42.4052954533539
  0
LINE
  5
EF
100
AcDbEntity
  8
0
  6
ByLayer
 62
  256
370
   -1
100
AcDbLine
 10
-29.99346042139107
 20
-0.4052954533539008
 11
-0.29346042139107
 21
-0.4052954533539008
  0
LINE
  5
F0
100
AcDbEntity
  8
0
  6
ByLayer
 62
  256
370
   -1
100
AcDbLine
 10
-0.29346042139107
 20
-0.4052954533539008
 11
29.40653957860892
 21
-0.4052954533539008
  0
LINE
  5
F1
100
AcDbEntity
  8
0
  6
ByLayer
 62
  256
370
   -1
100
AcDbLine
 10
29.40653957860892
 20
-42.4052954533539
 11
-0.2934604213910725
 21
-42.4052954533539
  0
LINE
  5
F2
100
AcDbEntity
  8
0
  6
ByLayer
 62
  256
370
   -1
100
AcDbLine
 10
-0.2934604213910725
 20
-42.4052954533539
 11
-29.99346042139108
 21
-42.4052954533539
  0
LINE
  5
F3
100
AcDbEntity
  8
0
  6
ByLayer
 62
  256
370
   -1
100
AcDbLine
 10
-29.99346042139107
 20
20.5947045466461
 11
-0.2934604213910687
 21
20.5947045466461
  0
LINE
  5
F4
100
AcDbEntity
  8
0
  6
ByLayer
 62
  256
370
   -1
100
AcDbLine
 10
-0.2934604213910687
 20
20.5947045466461
 11
29.40653957860893
 21
20.5947045466461
  0
LINE
  5
F5
100
AcDbEntity
  8
0
  6
ByLayer
 62
  256
370
   -1
100
AcDbLine
 10
29.40653957860892
 20
-21.4052954533539
 11
-0.2934604213910713
 21
-21.4052954533539
  0
LINE
  5
F6
100
AcDbEntity
  8
0
  6
ByLayer
 62
  256
370
   -1
100
AcDbLine
 10
-0.2934604213910713
 20
-21.4052954533539
 11
-29.99346042139108
 21
-21.4052954533539
  0
ENDBLK
  5
5B
330
59
100
AcDbEntity
  8
0
100
AcDbBlockEnd
  0
ENDSEC
  0
SECTION
  2
ENTITIES
  0
INSERT
  5
F7
100
AcDbEntity
  8
0
  6
ByLayer
 62
  256
370
   -1
100
AcDbBlockReference
  2
Back
 10
42.928348203544
 20
-22.90795262879702
 30
0
 41
1
 42
1
 43
0
 50
0
 70
    1
 71
    1
 44
0
 45
0
  0
INSERT
  5
F8
100
AcDbEntity
  8
0
  6
ByLayer
 62
  256
370
   -1
100
AcDbBlockReference
  2
Leg
 10
16.5288015105331
 20
-38.64165758543548
 30
0
 41
1
 42
1
 43
0
 50
0
 70
    1
 71
    1
 44
0
 45
0
  0
INSERT
  5
F9
100
AcDbEntity
  8
0
  6
ByLayer
 62
  256
370
   -1
100
AcDbBlockReference
  2
Stiffener
 10
10.42427921410906
 20
-69.9175412482232
 30
0
 41
1
 42
1
 43
0
 50
0
 70
    1
 71
    1
 44
0
 45
0
  0
INSERT
  5
FA
100
AcDbEntity
  8
0
  6
ByLayer
 62
  256
370
   -1
100
AcDbBlockReference
  2
A4 Grid
 10
29.99346042139107
 20
-41.5947045466461
 30
0
 41
1
 42
1
 43
0
 50
0
 70
    1
 71
    1
 44
0
 45
0
  0
INSERT
  5
FB
100
AcDbEntity
  8
0
  6
ByLayer
 62
  256
370
   -1
100
AcDbBlockReference
  2
Pelvis
 10
45.64887667882265
 20
-63.17020663605238
 30
0
 41
1
 42
1
 43
0
 50
0
 70
    1
 71
    1
 44
0
 45
0
  0
ENDSEC
  0
SECTION
  2
OBJECTS
  0
DICTIONARY
  5
C
330
0
100
AcDbDictionary
281
    1
  3
ACAD_GROUP
350
D
  0
DICTIONARY
  5
D
330
C
100
AcDbDictionary
281
    1
  0
ENDSEC
  0
EOF
