0
SECTION
2
HEADER
9
$EXTMAX
10
    -670.000
20
   -3630.000
9
$EXTMIN
10
    7000.000
20
     120.000
0
ENDSEC
0
SECTION
2
ENTITIES
0
LINE
8
default
6
CONTINUOUS
10
  21.333
20
 291.402
30
   0.377
11
  21.359
21
 288.023
31
  -0.377
39
 0
62
  5
 0
LINE
8
default
6
CONTINUOUS
10
 -21.333
20
 291.402
30
   0.377
11
 -21.359
21
 288.023
31
  -0.377
39
 0
62
  5
 0
LINE
8
default
6
CONTINUOUS
10
  21.359
20
 288.023
30
  -0.377
11
  21.402
21
 282.265
31
  -1.648
39
 0
62
  5
 0
LINE
8
default
6
CONTINUOUS
10
 -21.359
20
 288.023
30
  -0.377
11
 -21.402
21
 282.265
31
  -1.648
39
 0
62
  5
 0
LINE
8
default
6
CONTINUOUS
10
  21.402
20
 282.265
30
  -1.648
11
  21.453
21
 275.517
31
  -3.129
39
 0
62
  5
 0
LINE
8
default
6
CONTINUOUS
10
 -21.402
20
 282.265
30
  -1.648
11
 -21.453
21
 275.517
31
  -3.129
39
 0
62
  5
 0
LINE
8
default
6
CONTINUOUS
10
  21.453
20
 275.517
30
  -3.129
11
  21.510
21
 267.735
31
  -4.814
39
 0
62
  5
 0
LINE
8
default
6
CONTINUOUS
10
 -21.453
20
 275.517
30
  -3.129
11
 -21.510
21
 267.735
31
  -4.814
39
 0
62
  5
 0
LINE
8
default
6
CONTINUOUS
10
  21.510
20
 267.735
30
  -4.814
11
  21.572
21
 259.210
31
  -6.638
39
 0
62
  5
 0
LINE
8
default
6
CONTINUOUS
10
 -21.510
20
 267.735
30
  -4.814
11
 -21.572
21
 259.210
31
  -6.638
39
 0
62
  5
 0
LINE
8
default
6
CONTINUOUS
10
  21.572
20
 259.210
30
  -6.638
11
  21.635
21
 250.440
31
  -8.488
39
 0
62
  5
 0
LINE
8
default
6
CONTINUOUS
10
 -21.572
20
 259.210
30
  -6.638
11
 -21.635
21
 250.440
31
  -8.488
39
 0
62
  5
 0
LINE
8
default
6
CONTINUOUS
10
  21.635
20
 250.440
30
  -8.488
11
  21.697
21
 241.735
31
 -10.293
39
 0
62
  5
 0
LINE
8
default
6
CONTINUOUS
10
 -21.635
20
 250.440
30
  -8.488
11
 -21.697
21
 241.735
31
 -10.293
39
 0
62
  5
 0
LINE
8
default
6
CONTINUOUS
10
  21.697
20
 241.735
30
 -10.293
11
  21.757
21
 233.093
31
 -12.052
39
 0
62
  5
 0
LINE
8
default
6
CONTINUOUS
10
 -21.697
20
 241.735
30
 -10.293
11
 -21.757
21
 233.093
31
 -12.052
39
 0
62
  5
 0
LINE
8
default
6
CONTINUOUS
10
  21.757
20
 233.093
30
 -12.052
11
  21.815
21
 224.432
31
 -13.782
39
 0
62
  5
 0
LINE
8
default
6
CONTINUOUS
10
 -21.757
20
 233.093
30
 -12.052
11
 -21.815
21
 224.432
31
 -13.782
39
 0
62
  5
 0
LINE
8
default
6
CONTINUOUS
10
  21.815
20
 224.432
30
 -13.782
11
  21.873
21
 215.709
31
 -15.484
39
 0
62
  5
 0
LINE
8
default
6
CONTINUOUS
10
 -21.815
20
 224.432
30
 -13.782
11
 -21.873
21
 215.709
31
 -15.484
39
 0
62
  5
 0
LINE
8
default
6
CONTINUOUS
10
  21.873
20
 215.709
30
 -15.484
11
  21.930
21
 206.910
31
 -17.153
39
 0
62
  5
 0
LINE
8
default
6
CONTINUOUS
10
 -21.873
20
 215.709
30
 -15.484
11
 -21.930
21
 206.910
31
 -17.153
39
 0
62
  5
 0
LINE
8
default
6
CONTINUOUS
10
  21.930
20
 206.910
30
 -17.153
11
  21.986
21
 198.068
31
 -18.789
39
 0
62
  5
 0
LINE
8
default
6
CONTINUOUS
10
 -21.930
20
 206.910
30
 -17.153
11
 -21.986
21
 198.068
31
 -18.789
39
 0
62
  5
 0
LINE
8
default
6
CONTINUOUS
10
  21.986
20
 198.068
30
 -18.789
11
  22.040
21
 189.202
31
 -20.380
39
 0
62
  5
 0
LINE
8
default
6
CONTINUOUS
10
 -21.986
20
 198.068
30
 -18.789
11
 -22.040
21
 189.202
31
 -20.380
39
 0
62
  5
 0
LINE
8
default
6
CONTINUOUS
10
  22.040
20
 189.202
30
 -20.380
11
  22.093
21
 180.333
31
 -21.933
39
 0
62
  5
 0
LINE
8
default
6
CONTINUOUS
10
 -22.040
20
 189.202
30
 -20.380
11
 -22.093
21
 180.333
31
 -21.933
39
 0
62
  5
 0
LINE
8
default
6
CONTINUOUS
10
  22.093
20
 180.333
30
 -21.933
11
  22.144
21
 171.476
31
 -23.443
39
 0
62
  5
 0
LINE
8
default
6
CONTINUOUS
10
 -22.093
20
 180.333
30
 -21.933
11
 -22.144
21
 171.476
31
 -23.443
39
 0
62
  5
 0
LINE
8
default
6
CONTINUOUS
10
  22.144
20
 171.476
30
 -23.443
11
  22.195
21
 162.640
31
 -24.918
39
 0
62
  5
 0
LINE
8
default
6
CONTINUOUS
10
 -22.144
20
 171.476
30
 -23.443
11
 -22.195
21
 162.640
31
 -24.918
39
 0
62
  5
 0
LINE
8
default
6
CONTINUOUS
10
  22.195
20
 162.640
30
 -24.918
11
  22.243
21
 153.829
31
 -26.348
39
 0
62
  5
 0
LINE
8
default
6
CONTINUOUS
10
 -22.195
20
 162.640
30
 -24.918
11
 -22.243
21
 153.829
31
 -26.348
39
 0
62
  5
 0
LINE
8
default
6
CONTINUOUS
10
  22.243
20
 153.829
30
 -26.348
11
  22.290
21
 145.054
31
 -27.732
39
 0
62
  5
 0
LINE
8
default
6
CONTINUOUS
10
 -22.243
20
 153.829
30
 -26.348
11
 -22.290
21
 145.054
31
 -27.732
39
 0
62
  5
 0
LINE
8
default
6
CONTINUOUS
10
  22.290
20
 145.054
30
 -27.732
11
  22.336
21
 136.319
31
 -29.064
39
 0
62
  5
 0
LINE
8
default
6
CONTINUOUS
10
 -22.290
20
 145.054
30
 -27.732
11
 -22.336
21
 136.319
31
 -29.064
39
 0
62
  5
 0
LINE
8
default
6
CONTINUOUS
10
  22.336
20
 136.319
30
 -29.064
11
  22.379
21
 127.637
31
 -30.339
39
 0
62
  5
 0
LINE
8
default
6
CONTINUOUS
10
 -22.336
20
 136.319
30
 -29.064
11
 -22.379
21
 127.637
31
 -30.339
39
 0
62
  5
 0
LINE
8
default
6
CONTINUOUS
10
  22.379
20
 127.637
30
 -30.339
11
  22.420
21
 119.034
31
 -31.548
39
 0
62
  5
 0
LINE
8
default
6
CONTINUOUS
10
 -22.379
20
 127.637
30
 -30.339
11
 -22.420
21
 119.034
31
 -31.548
39
 0
62
  5
 0
LINE
8
default
6
CONTINUOUS
10
  22.420
20
 119.034
30
 -31.548
11
  22.459
21
 110.523
31
 -32.684
39
 0
62
  5
 0
LINE
8
default
6
CONTINUOUS
10
 -22.420
20
 119.034
30
 -31.548
11
 -22.459
21
 110.523
31
 -32.684
39
 0
62
  5
 0
LINE
8
default
6
CONTINUOUS
10
  22.459
20
 110.523
30
 -32.684
11
  22.495
21
 102.147
31
 -33.744
39
 0
62
  5
 0
LINE
8
default
6
CONTINUOUS
10
 -22.459
20
 110.523
30
 -32.684
11
 -22.495
21
 102.147
31
 -33.744
39
 0
62
  5
 0
LINE
8
default
6
CONTINUOUS
10
  22.495
20
 102.147
30
 -33.744
11
  22.528
21
  93.963
31
 -34.708
39
 0
62
  5
 0
LINE
8
default
6
CONTINUOUS
10
 -22.495
20
 102.147
30
 -33.744
11
 -22.528
21
  93.963
31
 -34.708
39
 0
62
  5
 0
LINE
8
default
6
CONTINUOUS
10
  22.528
20
  93.963
30
 -34.708
11
  22.557
21
  86.038
31
 -35.552
39
 0
62
  5
 0
LINE
8
default
6
CONTINUOUS
10
 -22.528
20
  93.963
30
 -34.708
11
 -22.557
21
  86.038
31
 -35.552
39
 0
62
  5
 0
LINE
8
default
6
CONTINUOUS
10
  22.557
20
  86.038
30
 -35.552
11
  22.581
21
  78.454
31
 -36.254
39
 0
62
  5
 0
LINE
8
default
6
CONTINUOUS
10
 -22.557
20
  86.038
30
 -35.552
11
 -22.581
21
  78.454
31
 -36.254
39
 0
62
  5
 0
LINE
8
default
6
CONTINUOUS
10
  22.581
20
  78.454
30
 -36.254
11
  22.599
21
  71.266
31
 -36.801
39
 0
62
  5
 0
LINE
8
default
6
CONTINUOUS
10
 -22.581
20
  78.454
30
 -36.254
11
 -22.599
21
  71.266
31
 -36.801
39
 0
62
  5
 0
LINE
8
default
6
CONTINUOUS
10
  22.599
20
  71.266
30
 -36.801
11
  22.611
21
  64.506
31
 -37.160
39
 0
62
  5
 0
LINE
8
default
6
CONTINUOUS
10
 -22.599
20
  71.266
30
 -36.801
11
 -22.611
21
  64.506
31
 -37.160
39
 0
62
  5
 0
LINE
8
default
6
CONTINUOUS
10
  22.611
20
  64.506
30
 -37.160
11
  22.617
21
  58.180
31
 -37.312
39
 0
62
  5
 0
LINE
8
default
6
CONTINUOUS
10
 -22.611
20
  64.506
30
 -37.160
11
 -22.617
21
  58.180
31
 -37.312
39
 0
62
  5
 0
LINE
8
default
6
CONTINUOUS
10
  22.617
20
  58.180
30
 -37.312
11
  22.614
21
  52.291
31
 -37.234
39
 0
62
  5
 0
LINE
8
default
6
CONTINUOUS
10
 -22.617
20
  58.180
30
 -37.312
11
 -22.614
21
  52.291
31
 -37.234
39
 0
62
  5
 0
LINE
8
default
6
CONTINUOUS
10
  22.614
20
  52.291
30
 -37.234
11
  22.603
21
  46.835
31
 -36.927
39
 0
62
  5
 0
LINE
8
default
6
CONTINUOUS
10
 -22.614
20
  52.291
30
 -37.234
11
 -22.603
21
  46.835
31
 -36.927
39
 0
62
  5
 0
LINE
8
default
6
CONTINUOUS
10
  22.603
20
  46.835
30
 -36.927
11
  22.585
21
  41.800
31
 -36.380
39
 0
62
  5
 0
LINE
8
default
6
CONTINUOUS
10
 -22.603
20
  46.835
30
 -36.927
11
 -22.585
21
  41.800
31
 -36.380
39
 0
62
  5
 0
LINE
8
default
6
CONTINUOUS
10
  22.585
20
  41.800
30
 -36.380
11
  22.559
21
  37.175
31
 -35.607
39
 0
62
  5
 0
LINE
8
default
6
CONTINUOUS
10
 -22.585
20
  41.800
30
 -36.380
11
 -22.559
21
  37.175
31
 -35.607
39
 0
62
  5
 0
LINE
8
default
6
CONTINUOUS
10
  22.559
20
  37.175
30
 -35.607
11
  22.525
21
  32.934
31
 -34.611
39
 0
62
  5
 0
LINE
8
default
6
CONTINUOUS
10
 -22.559
20
  37.175
30
 -35.607
11
 -22.525
21
  32.934
31
 -34.611
39
 0
62
  5
 0
LINE
8
default
6
CONTINUOUS
10
  22.525
20
  32.934
30
 -34.611
11
  22.483
21
  29.057
31
 -33.398
39
 0
62
  5
 0
LINE
8
default
6
CONTINUOUS
10
 -22.525
20
  32.934
30
 -34.611
11
 -22.483
21
  29.057
31
 -33.398
39
 0
62
  5
 0
LINE
8
default
6
CONTINUOUS
10
  22.483
20
  29.057
30
 -33.398
11
  22.435
21
  25.516
31
 -31.982
39
 0
62
  5
 0
LINE
8
default
6
CONTINUOUS
10
 -22.483
20
  29.057
30
 -33.398
11
 -22.435
21
  25.516
31
 -31.982
39
 0
62
  5
 0
LINE
8
default
6
CONTINUOUS
10
  22.435
20
  25.516
30
 -31.982
11
  22.381
21
  22.297
31
 -30.394
39
 0
62
  5
 0
LINE
8
default
6
CONTINUOUS
10
 -22.435
20
  25.516
30
 -31.982
11
 -22.381
21
  22.297
31
 -30.394
39
 0
62
  5
 0
LINE
8
default
6
CONTINUOUS
10
  22.381
20
  22.297
30
 -30.394
11
  22.323
21
  19.391
31
 -28.686
39
 0
62
  5
 0
LINE
8
default
6
CONTINUOUS
10
 -22.381
20
  22.297
30
 -30.394
11
 -22.323
21
  19.391
31
 -28.686
39
 0
62
  5
 0
LINE
8
default
6
CONTINUOUS
10
  22.323
20
  19.391
30
 -28.686
11
  22.262
21
  16.775
31
 -26.901
39
 0
62
  5
 0
LINE
8
default
6
CONTINUOUS
10
 -22.323
20
  19.391
30
 -28.686
11
 -22.262
21
  16.775
31
 -26.901
39
 0
62
  5
 0
LINE
8
default
6
CONTINUOUS
10
  22.262
20
  16.775
30
 -26.901
11
  22.200
21
  14.440
31
 -25.083
39
 0
62
  5
 0
LINE
8
default
6
CONTINUOUS
10
 -22.262
20
  16.775
30
 -26.901
11
 -22.200
21
  14.440
31
 -25.083
39
 0
62
  5
 0
LINE
8
default
6
CONTINUOUS
10
  22.200
20
  14.440
30
 -25.083
11
  22.138
21
  12.354
31
 -23.249
39
 0
62
  5
 0
LINE
8
default
6
CONTINUOUS
10
 -22.200
20
  14.440
30
 -25.083
11
 -22.138
21
  12.354
31
 -23.249
39
 0
62
  5
 0
LINE
8
default
6
CONTINUOUS
10
  22.138
20
  12.354
30
 -23.249
11
  22.076
21
  10.502
31
 -21.425
39
 0
62
  5
 0
LINE
8
default
6
CONTINUOUS
10
 -22.138
20
  12.354
30
 -23.249
11
 -22.076
21
  10.502
31
 -21.425
39
 0
62
  5
 0
LINE
8
default
6
CONTINUOUS
10
  22.076
20
  10.502
30
 -21.425
11
  22.014
21
   8.862
31
 -19.624
39
 0
62
  5
 0
LINE
8
default
6
CONTINUOUS
10
 -22.076
20
  10.502
30
 -21.425
11
 -22.014
21
   8.862
31
 -19.624
39
 0
62
  5
 0
LINE
8
default
6
CONTINUOUS
10
  22.014
20
   8.862
30
 -19.624
11
  21.954
21
   7.412
31
 -17.861
39
 0
62
  5
 0
LINE
8
default
6
CONTINUOUS
10
 -22.014
20
   8.862
30
 -19.624
11
 -21.954
21
   7.412
31
 -17.861
39
 0
62
  5
 0
LINE
8
default
6
CONTINUOUS
10
  21.954
20
   7.412
30
 -17.861
11
  21.895
21
   6.136
31
 -16.134
39
 0
62
  5
 0
LINE
8
default
6
CONTINUOUS
10
 -21.954
20
   7.412
30
 -17.861
11
 -21.895
21
   6.136
31
 -16.134
39
 0
62
  5
 0
LINE
8
default
6
CONTINUOUS
10
  21.895
20
   6.136
30
 -16.134
11
  21.838
21
   5.018
31
 -14.452
39
 0
62
  5
 0
LINE
8
default
6
CONTINUOUS
10
 -21.895
20
   6.136
30
 -16.134
11
 -21.838
21
   5.018
31
 -14.452
39
 0
62
  5
 0
LINE
8
default
6
CONTINUOUS
10
  21.838
20
   5.018
30
 -14.452
11
  21.782
21
   4.039
31
 -12.803
39
 0
62
  5
 0
LINE
8
default
6
CONTINUOUS
10
 -21.838
20
   5.018
30
 -14.452
11
 -21.782
21
   4.039
31
 -12.803
39
 0
62
  5
 0
LINE
8
default
6
CONTINUOUS
10
  21.782
20
   4.039
30
 -12.803
11
  21.727
21
   3.191
31
 -11.192
39
 0
62
  5
 0
LINE
8
default
6
CONTINUOUS
10
 -21.782
20
   4.039
30
 -12.803
11
 -21.727
21
   3.191
31
 -11.192
39
 0
62
  5
 0
LINE
8
default
6
CONTINUOUS
10
  21.727
20
   3.191
30
 -11.192
11
  21.674
21
   2.469
31
  -9.624
39
 0
62
  5
 0
LINE
8
default
6
CONTINUOUS
10
 -21.727
20
   3.191
30
 -11.192
11
 -21.674
21
   2.469
31
  -9.624
39
 0
62
  5
 0
LINE
8
default
6
CONTINUOUS
10
  21.674
20
   2.469
30
  -9.624
11
  21.622
21
   1.863
31
  -8.103
39
 0
62
  5
 0
LINE
8
default
6
CONTINUOUS
10
 -21.674
20
   2.469
30
  -9.624
11
 -21.622
21
   1.863
31
  -8.103
39
 0
62
  5
 0
LINE
8
default
6
CONTINUOUS
10
  21.622
20
   1.863
30
  -8.103
11
  21.572
21
   1.371
31
  -6.641
39
 0
62
  5
 0
LINE
8
default
6
CONTINUOUS
10
 -21.622
20
   1.863
30
  -8.103
11
 -21.572
21
   1.371
31
  -6.641
39
 0
62
  5
 0
LINE
8
default
6
CONTINUOUS
10
  21.572
20
   1.371
30
  -6.641
11
  21.524
21
   0.978
31
  -5.218
39
 0
62
  5
 0
LINE
8
default
6
CONTINUOUS
10
 -21.572
20
   1.371
30
  -6.641
11
 -21.524
21
   0.978
31
  -5.218
39
 0
62
  5
 0
LINE
8
default
6
CONTINUOUS
10
  21.524
20
   0.978
30
  -5.218
11
  21.478
21
   0.666
31
  -3.860
39
 0
62
  5
 0
LINE
8
default
6
CONTINUOUS
10
 -21.524
20
   0.978
30
  -5.218
11
 -21.478
21
   0.666
31
  -3.860
39
 0
62
  5
 0
LINE
8
default
6
CONTINUOUS
10
  21.478
20
   0.666
30
  -3.860
11
  21.430
21
   0.425
31
  -2.472
39
 0
62
  5
 0
LINE
8
default
6
CONTINUOUS
10
 -21.478
20
   0.666
30
  -3.860
11
 -21.430
21
   0.425
31
  -2.472
39
 0
62
  5
 0
LINE
8
default
6
CONTINUOUS
10
  21.430
20
   0.425
30
  -2.472
11
  21.390
21
   0.247
31
  -1.299
39
 0
62
  5
 0
LINE
8
default
6
CONTINUOUS
10
 -21.430
20
   0.425
30
  -2.472
11
 -21.390
21
   0.247
31
  -1.299
39
 0
62
  5
 0
LINE
8
default
6
CONTINUOUS
10
  21.390
20
   0.247
30
  -1.299
11
  21.333
21
   0.151
31
   0.377
39
 0
62
  5
 0
LINE
8
default
6
CONTINUOUS
10
 -21.390
20
   0.247
30
  -1.299
11
 -21.333
21
   0.151
31
   0.377
39
 0
62
  5
 0
LINE
8
default
6
CONTINUOUS
10
  21.333
20
   0.151
30
   0.377
11
  21.329
21
   0.157
31
   0.510
39
 0
62
  5
 0
LINE
8
default
6
CONTINUOUS
10
 -21.333
20
   0.151
30
   0.377
11
 -21.329
21
   0.157
31
   0.510
39
 0
62
  5
 0
LINE
8
default
6
CONTINUOUS
10
  21.329
20
   0.157
30
   0.510
11
  21.265
21
   0.291
31
   2.385
39
 0
62
  5
 0
LINE
8
default
6
CONTINUOUS
10
 -21.329
20
   0.157
30
   0.510
11
 -21.265
21
   0.291
31
   2.385
39
 0
62
  5
 0
LINE
8
default
6
CONTINUOUS
10
  21.265
20
   0.291
30
   2.385
11
  21.237
21
   0.567
31
   3.220
39
 0
62
  5
 0
LINE
8
default
6
CONTINUOUS
10
 -21.265
20
   0.291
30
   2.385
11
 -21.237
21
   0.567
31
   3.220
39
 0
62
  5
 0
LINE
8
default
6
CONTINUOUS
10
  21.237
20
   0.567
30
   3.220
11
  21.201
21
   0.990
31
   4.252
39
 0
62
  5
 0
LINE
8
default
6
CONTINUOUS
10
 -21.237
20
   0.567
30
   3.220
11
 -21.201
21
   0.990
31
   4.252
39
 0
62
  5
 0
LINE
8
default
6
CONTINUOUS
10
  21.201
20
   0.990
30
   4.252
11
  21.169
21
   1.560
31
   5.189
39
 0
62
  5
 0
LINE
8
default
6
CONTINUOUS
10
 -21.201
20
   0.990
30
   4.252
11
 -21.169
21
   1.560
31
   5.189
39
 0
62
  5
 0
LINE
8
default
6
CONTINUOUS
10
  21.169
20
   1.560
30
   5.189
11
  21.140
21
   2.283
31
   6.066
39
 0
62
  5
 0
LINE
8
default
6
CONTINUOUS
10
 -21.169
20
   1.560
30
   5.189
11
 -21.140
21
   2.283
31
   6.066
39
 0
62
  5
 0
LINE
8
default
6
CONTINUOUS
10
  21.140
20
   2.283
30
   6.066
11
  21.112
21
   3.154
31
   6.865
39
 0
62
  5
 0
LINE
8
default
6
CONTINUOUS
10
 -21.140
20
   2.283
30
   6.066
11
 -21.112
21
   3.154
31
   6.865
39
 0
62
  5
 0
LINE
8
default
6
CONTINUOUS
10
  21.112
20
   3.154
30
   6.865
11
  21.087
21
   4.173
31
   7.622
39
 0
62
  5
 0
LINE
8
default
6
CONTINUOUS
10
 -21.112
20
   3.154
30
   6.865
11
 -21.087
21
   4.173
31
   7.622
39
 0
62
  5
 0
LINE
8
default
6
CONTINUOUS
10
  21.087
20
   4.173
30
   7.622
11
  21.073
21
   4.811
31
   8.032
39
 0
62
  5
 0
LINE
8
default
6
CONTINUOUS
10
 -21.087
20
   4.173
30
   7.622
11
 -21.073
21
   4.811
31
   8.032
39
 0
62
  5
 0
LINE
8
default
6
CONTINUOUS
10
 -21.333
20
 291.402
30
   0.377
11
  21.333
21
 291.402
31
   0.377
39
 0
62
  5
 0
LINE
8
default
6
CONTINUOUS
10
  21.333
20
 291.402
30
   0.377
11
 -21.333
21
 291.402
31
   0.377
39
 0
62
  5
 0
LINE
8
default
6
CONTINUOUS
10
 -21.359
20
 288.023
30
  -0.377
11
  21.359
21
 288.023
31
  -0.377
39
 0
62
  5
 0
LINE
8
default
6
CONTINUOUS
10
  21.359
20
 288.023
30
  -0.377
11
 -21.359
21
 288.023
31
  -0.377
39
 0
62
  5
 0
LINE
8
default
6
CONTINUOUS
10
 -21.402
20
 282.265
30
  -1.648
11
  21.402
21
 282.265
31
  -1.648
39
 0
62
  5
 0
LINE
8
default
6
CONTINUOUS
10
  21.402
20
 282.265
30
  -1.648
11
 -21.402
21
 282.265
31
  -1.648
39
 0
62
  5
 0
LINE
8
default
6
CONTINUOUS
10
 -21.453
20
 275.517
30
  -3.129
11
  21.453
21
 275.517
31
  -3.129
39
 0
62
  5
 0
LINE
8
default
6
CONTINUOUS
10
  21.453
20
 275.517
30
  -3.129
11
 -21.453
21
 275.517
31
  -3.129
39
 0
62
  5
 0
LINE
8
default
6
CONTINUOUS
10
 -21.510
20
 267.735
30
  -4.814
11
  21.510
21
 267.735
31
  -4.814
39
 0
62
  5
 0
LINE
8
default
6
CONTINUOUS
10
  21.510
20
 267.735
30
  -4.814
11
 -21.510
21
 267.735
31
  -4.814
39
 0
62
  5
 0
LINE
8
default
6
CONTINUOUS
10
 -21.572
20
 259.210
30
  -6.638
11
  21.572
21
 259.210
31
  -6.638
39
 0
62
  5
 0
LINE
8
default
6
CONTINUOUS
10
  21.572
20
 259.210
30
  -6.638
11
 -21.572
21
 259.210
31
  -6.638
39
 0
62
  5
 0
LINE
8
default
6
CONTINUOUS
10
 -21.635
20
 250.440
30
  -8.488
11
  21.635
21
 250.440
31
  -8.488
39
 0
62
  5
 0
LINE
8
default
6
CONTINUOUS
10
  21.635
20
 250.440
30
  -8.488
11
 -21.635
21
 250.440
31
  -8.488
39
 0
62
  5
 0
LINE
8
default
6
CONTINUOUS
10
 -21.697
20
 241.735
30
 -10.293
11
  21.697
21
 241.735
31
 -10.293
39
 0
62
  5
 0
LINE
8
default
6
CONTINUOUS
10
  21.697
20
 241.735
30
 -10.293
11
 -21.697
21
 241.735
31
 -10.293
39
 0
62
  5
 0
LINE
8
default
6
CONTINUOUS
10
 -21.757
20
 233.093
30
 -12.052
11
  21.757
21
 233.093
31
 -12.052
39
 0
62
  5
 0
LINE
8
default
6
CONTINUOUS
10
  21.757
20
 233.093
30
 -12.052
11
 -21.757
21
 233.093
31
 -12.052
39
 0
62
  5
 0
LINE
8
default
6
CONTINUOUS
10
 -21.815
20
 224.432
30
 -13.782
11
  21.815
21
 224.432
31
 -13.782
39
 0
62
  5
 0
LINE
8
default
6
CONTINUOUS
10
  21.815
20
 224.432
30
 -13.782
11
 -21.815
21
 224.432
31
 -13.782
39
 0
62
  5
 0
LINE
8
default
6
CONTINUOUS
10
 -21.873
20
 215.709
30
 -15.484
11
  21.873
21
 215.709
31
 -15.484
39
 0
62
  5
 0
LINE
8
default
6
CONTINUOUS
10
  21.873
20
 215.709
30
 -15.484
11
 -21.873
21
 215.709
31
 -15.484
39
 0
62
  5
 0
LINE
8
default
6
CONTINUOUS
10
 -21.930
20
 206.910
30
 -17.153
11
  21.930
21
 206.910
31
 -17.153
39
 0
62
  5
 0
LINE
8
default
6
CONTINUOUS
10
  21.930
20
 206.910
30
 -17.153
11
 -21.930
21
 206.910
31
 -17.153
39
 0
62
  5
 0
LINE
8
default
6
CONTINUOUS
10
 -21.986
20
 198.068
30
 -18.789
11
  21.986
21
 198.068
31
 -18.789
39
 0
62
  5
 0
LINE
8
default
6
CONTINUOUS
10
  21.986
20
 198.068
30
 -18.789
11
 -21.986
21
 198.068
31
 -18.789
39
 0
62
  5
 0
LINE
8
default
6
CONTINUOUS
10
 -22.040
20
 189.202
30
 -20.380
11
  22.040
21
 189.202
31
 -20.380
39
 0
62
  5
 0
LINE
8
default
6
CONTINUOUS
10
  22.040
20
 189.202
30
 -20.380
11
 -22.040
21
 189.202
31
 -20.380
39
 0
62
  5
 0
LINE
8
default
6
CONTINUOUS
10
 -22.093
20
 180.333
30
 -21.933
11
  22.093
21
 180.333
31
 -21.933
39
 0
62
  5
 0
LINE
8
default
6
CONTINUOUS
10
  22.093
20
 180.333
30
 -21.933
11
 -22.093
21
 180.333
31
 -21.933
39
 0
62
  5
 0
LINE
8
default
6
CONTINUOUS
10
 -22.144
20
 171.476
30
 -23.443
11
  22.144
21
 171.476
31
 -23.443
39
 0
62
  5
 0
LINE
8
default
6
CONTINUOUS
10
  22.144
20
 171.476
30
 -23.443
11
 -22.144
21
 171.476
31
 -23.443
39
 0
62
  5
 0
LINE
8
default
6
CONTINUOUS
10
 -22.195
20
 162.640
30
 -24.918
11
  22.195
21
 162.640
31
 -24.918
39
 0
62
  5
 0
LINE
8
default
6
CONTINUOUS
10
  22.195
20
 162.640
30
 -24.918
11
 -22.195
21
 162.640
31
 -24.918
39
 0
62
  5
 0
LINE
8
default
6
CONTINUOUS
10
 -22.243
20
 153.829
30
 -26.348
11
  22.243
21
 153.829
31
 -26.348
39
 0
62
  5
 0
LINE
8
default
6
CONTINUOUS
10
  22.243
20
 153.829
30
 -26.348
11
 -22.243
21
 153.829
31
 -26.348
39
 0
62
  5
 0
LINE
8
default
6
CONTINUOUS
10
 -22.290
20
 145.054
30
 -27.732
11
  22.290
21
 145.054
31
 -27.732
39
 0
62
  5
 0
LINE
8
default
6
CONTINUOUS
10
  22.290
20
 145.054
30
 -27.732
11
 -22.290
21
 145.054
31
 -27.732
39
 0
62
  5
 0
LINE
8
default
6
CONTINUOUS
10
 -22.336
20
 136.319
30
 -29.064
11
  22.336
21
 136.319
31
 -29.064
39
 0
62
  5
 0
LINE
8
default
6
CONTINUOUS
10
  22.336
20
 136.319
30
 -29.064
11
 -22.336
21
 136.319
31
 -29.064
39
 0
62
  5
 0
LINE
8
default
6
CONTINUOUS
10
 -22.379
20
 127.637
30
 -30.339
11
  22.379
21
 127.637
31
 -30.339
39
 0
62
  5
 0
LINE
8
default
6
CONTINUOUS
10
  22.379
20
 127.637
30
 -30.339
11
 -22.379
21
 127.637
31
 -30.339
39
 0
62
  5
 0
LINE
8
default
6
CONTINUOUS
10
 -22.420
20
 119.034
30
 -31.548
11
  22.420
21
 119.034
31
 -31.548
39
 0
62
  5
 0
LINE
8
default
6
CONTINUOUS
10
  22.420
20
 119.034
30
 -31.548
11
 -22.420
21
 119.034
31
 -31.548
39
 0
62
  5
 0
LINE
8
default
6
CONTINUOUS
10
 -22.459
20
 110.523
30
 -32.684
11
  22.459
21
 110.523
31
 -32.684
39
 0
62
  5
 0
LINE
8
default
6
CONTINUOUS
10
  22.459
20
 110.523
30
 -32.684
11
 -22.459
21
 110.523
31
 -32.684
39
 0
62
  5
 0
LINE
8
default
6
CONTINUOUS
10
 -22.495
20
 102.147
30
 -33.744
11
  22.495
21
 102.147
31
 -33.744
39
 0
62
  5
 0
LINE
8
default
6
CONTINUOUS
10
  22.495
20
 102.147
30
 -33.744
11
 -22.495
21
 102.147
31
 -33.744
39
 0
62
  5
 0
LINE
8
default
6
CONTINUOUS
10
 -22.528
20
  93.963
30
 -34.708
11
  22.528
21
  93.963
31
 -34.708
39
 0
62
  5
 0
LINE
8
default
6
CONTINUOUS
10
  22.528
20
  93.963
30
 -34.708
11
 -22.528
21
  93.963
31
 -34.708
39
 0
62
  5
 0
LINE
8
default
6
CONTINUOUS
10
 -22.557
20
  86.038
30
 -35.552
11
  22.557
21
  86.038
31
 -35.552
39
 0
62
  5
 0
LINE
8
default
6
CONTINUOUS
10
  22.557
20
  86.038
30
 -35.552
11
 -22.557
21
  86.038
31
 -35.552
39
 0
62
  5
 0
LINE
8
default
6
CONTINUOUS
10
 -22.581
20
  78.454
30
 -36.254
11
  22.581
21
  78.454
31
 -36.254
39
 0
62
  5
 0
LINE
8
default
6
CONTINUOUS
10
  22.581
20
  78.454
30
 -36.254
11
 -22.581
21
  78.454
31
 -36.254
39
 0
62
  5
 0
LINE
8
default
6
CONTINUOUS
10
 -22.599
20
  71.266
30
 -36.801
11
  22.599
21
  71.266
31
 -36.801
39
 0
62
  5
 0
LINE
8
default
6
CONTINUOUS
10
  22.599
20
  71.266
30
 -36.801
11
 -22.599
21
  71.266
31
 -36.801
39
 0
62
  5
 0
LINE
8
default
6
CONTINUOUS
10
 -22.611
20
  64.506
30
 -37.160
11
  22.611
21
  64.506
31
 -37.160
39
 0
62
  5
 0
LINE
8
default
6
CONTINUOUS
10
  22.611
20
  64.506
30
 -37.160
11
 -22.611
21
  64.506
31
 -37.160
39
 0
62
  5
 0
LINE
8
default
6
CONTINUOUS
10
 -22.617
20
  58.180
30
 -37.312
11
  22.617
21
  58.180
31
 -37.312
39
 0
62
  5
 0
LINE
8
default
6
CONTINUOUS
10
  22.617
20
  58.180
30
 -37.312
11
 -22.617
21
  58.180
31
 -37.312
39
 0
62
  5
 0
LINE
8
default
6
CONTINUOUS
10
 -22.614
20
  52.291
30
 -37.234
11
  22.614
21
  52.291
31
 -37.234
39
 0
62
  5
 0
LINE
8
default
6
CONTINUOUS
10
  22.614
20
  52.291
30
 -37.234
11
 -22.614
21
  52.291
31
 -37.234
39
 0
62
  5
 0
LINE
8
default
6
CONTINUOUS
10
 -22.603
20
  46.835
30
 -36.927
11
  22.603
21
  46.835
31
 -36.927
39
 0
62
  5
 0
LINE
8
default
6
CONTINUOUS
10
  22.603
20
  46.835
30
 -36.927
11
 -22.603
21
  46.835
31
 -36.927
39
 0
62
  5
 0
LINE
8
default
6
CONTINUOUS
10
 -22.585
20
  41.800
30
 -36.380
11
  22.585
21
  41.800
31
 -36.380
39
 0
62
  5
 0
LINE
8
default
6
CONTINUOUS
10
  22.585
20
  41.800
30
 -36.380
11
 -22.585
21
  41.800
31
 -36.380
39
 0
62
  5
 0
LINE
8
default
6
CONTINUOUS
10
 -22.559
20
  37.175
30
 -35.607
11
  22.559
21
  37.175
31
 -35.607
39
 0
62
  5
 0
LINE
8
default
6
CONTINUOUS
10
  22.559
20
  37.175
30
 -35.607
11
 -22.559
21
  37.175
31
 -35.607
39
 0
62
  5
 0
LINE
8
default
6
CONTINUOUS
10
 -22.525
20
  32.934
30
 -34.611
11
  22.525
21
  32.934
31
 -34.611
39
 0
62
  5
 0
LINE
8
default
6
CONTINUOUS
10
  22.525
20
  32.934
30
 -34.611
11
 -22.525
21
  32.934
31
 -34.611
39
 0
62
  5
 0
LINE
8
default
6
CONTINUOUS
10
 -22.483
20
  29.057
30
 -33.398
11
  22.483
21
  29.057
31
 -33.398
39
 0
62
  5
 0
LINE
8
default
6
CONTINUOUS
10
  22.483
20
  29.057
30
 -33.398
11
 -22.483
21
  29.057
31
 -33.398
39
 0
62
  5
 0
LINE
8
default
6
CONTINUOUS
10
 -22.435
20
  25.516
30
 -31.982
11
  22.435
21
  25.516
31
 -31.982
39
 0
62
  5
 0
LINE
8
default
6
CONTINUOUS
10
  22.435
20
  25.516
30
 -31.982
11
 -22.435
21
  25.516
31
 -31.982
39
 0
62
  5
 0
LINE
8
default
6
CONTINUOUS
10
 -22.381
20
  22.297
30
 -30.394
11
  22.381
21
  22.297
31
 -30.394
39
 0
62
  5
 0
LINE
8
default
6
CONTINUOUS
10
  22.381
20
  22.297
30
 -30.394
11
 -22.381
21
  22.297
31
 -30.394
39
 0
62
  5
 0
LINE
8
default
6
CONTINUOUS
10
 -22.323
20
  19.391
30
 -28.686
11
  22.323
21
  19.391
31
 -28.686
39
 0
62
  5
 0
LINE
8
default
6
CONTINUOUS
10
  22.323
20
  19.391
30
 -28.686
11
 -22.323
21
  19.391
31
 -28.686
39
 0
62
  5
 0
LINE
8
default
6
CONTINUOUS
10
 -22.262
20
  16.775
30
 -26.901
11
  22.262
21
  16.775
31
 -26.901
39
 0
62
  5
 0
LINE
8
default
6
CONTINUOUS
10
  22.262
20
  16.775
30
 -26.901
11
 -22.262
21
  16.775
31
 -26.901
39
 0
62
  5
 0
LINE
8
default
6
CONTINUOUS
10
 -22.200
20
  14.440
30
 -25.083
11
  22.200
21
  14.440
31
 -25.083
39
 0
62
  5
 0
LINE
8
default
6
CONTINUOUS
10
  22.200
20
  14.440
30
 -25.083
11
 -22.200
21
  14.440
31
 -25.083
39
 0
62
  5
 0
LINE
8
default
6
CONTINUOUS
10
 -22.138
20
  12.354
30
 -23.249
11
  22.138
21
  12.354
31
 -23.249
39
 0
62
  5
 0
LINE
8
default
6
CONTINUOUS
10
  22.138
20
  12.354
30
 -23.249
11
 -22.138
21
  12.354
31
 -23.249
39
 0
62
  5
 0
LINE
8
default
6
CONTINUOUS
10
 -22.076
20
  10.502
30
 -21.425
11
  22.076
21
  10.502
31
 -21.425
39
 0
62
  5
 0
LINE
8
default
6
CONTINUOUS
10
  22.076
20
  10.502
30
 -21.425
11
 -22.076
21
  10.502
31
 -21.425
39
 0
62
  5
 0
LINE
8
default
6
CONTINUOUS
10
 -22.014
20
   8.862
30
 -19.624
11
  22.014
21
   8.862
31
 -19.624
39
 0
62
  5
 0
LINE
8
default
6
CONTINUOUS
10
  22.014
20
   8.862
30
 -19.624
11
 -22.014
21
   8.862
31
 -19.624
39
 0
62
  5
 0
LINE
8
default
6
CONTINUOUS
10
 -21.954
20
   7.412
30
 -17.861
11
  21.954
21
   7.412
31
 -17.861
39
 0
62
  5
 0
LINE
8
default
6
CONTINUOUS
10
  21.954
20
   7.412
30
 -17.861
11
 -21.954
21
   7.412
31
 -17.861
39
 0
62
  5
 0
LINE
8
default
6
CONTINUOUS
10
 -21.895
20
   6.136
30
 -16.134
11
  21.895
21
   6.136
31
 -16.134
39
 0
62
  5
 0
LINE
8
default
6
CONTINUOUS
10
  21.895
20
   6.136
30
 -16.134
11
 -21.895
21
   6.136
31
 -16.134
39
 0
62
  5
 0
LINE
8
default
6
CONTINUOUS
10
 -21.838
20
   5.018
30
 -14.452
11
  21.838
21
   5.018
31
 -14.452
39
 0
62
  5
 0
LINE
8
default
6
CONTINUOUS
10
  21.838
20
   5.018
30
 -14.452
11
 -21.838
21
   5.018
31
 -14.452
39
 0
62
  5
 0
LINE
8
default
6
CONTINUOUS
10
 -21.782
20
   4.039
30
 -12.803
11
  21.782
21
   4.039
31
 -12.803
39
 0
62
  5
 0
LINE
8
default
6
CONTINUOUS
10
  21.782
20
   4.039
30
 -12.803
11
 -21.782
21
   4.039
31
 -12.803
39
 0
62
  5
 0
LINE
8
default
6
CONTINUOUS
10
 -21.727
20
   3.191
30
 -11.192
11
  21.727
21
   3.191
31
 -11.192
39
 0
62
  5
 0
LINE
8
default
6
CONTINUOUS
10
  21.727
20
   3.191
30
 -11.192
11
 -21.727
21
   3.191
31
 -11.192
39
 0
62
  5
 0
LINE
8
default
6
CONTINUOUS
10
 -21.674
20
   2.469
30
  -9.624
11
  21.674
21
   2.469
31
  -9.624
39
 0
62
  5
 0
LINE
8
default
6
CONTINUOUS
10
  21.674
20
   2.469
30
  -9.624
11
 -21.674
21
   2.469
31
  -9.624
39
 0
62
  5
 0
LINE
8
default
6
CONTINUOUS
10
 -21.622
20
   1.863
30
  -8.103
11
  21.622
21
   1.863
31
  -8.103
39
 0
62
  5
 0
LINE
8
default
6
CONTINUOUS
10
  21.622
20
   1.863
30
  -8.103
11
 -21.622
21
   1.863
31
  -8.103
39
 0
62
  5
 0
LINE
8
default
6
CONTINUOUS
10
 -21.572
20
   1.371
30
  -6.641
11
  21.572
21
   1.371
31
  -6.641
39
 0
62
  5
 0
LINE
8
default
6
CONTINUOUS
10
  21.572
20
   1.371
30
  -6.641
11
 -21.572
21
   1.371
31
  -6.641
39
 0
62
  5
 0
LINE
8
default
6
CONTINUOUS
10
 -21.524
20
   0.978
30
  -5.218
11
  21.524
21
   0.978
31
  -5.218
39
 0
62
  5
 0
LINE
8
default
6
CONTINUOUS
10
  21.524
20
   0.978
30
  -5.218
11
 -21.524
21
   0.978
31
  -5.218
39
 0
62
  5
 0
LINE
8
default
6
CONTINUOUS
10
 -21.478
20
   0.666
30
  -3.860
11
  21.478
21
   0.666
31
  -3.860
39
 0
62
  5
 0
LINE
8
default
6
CONTINUOUS
10
  21.478
20
   0.666
30
  -3.860
11
 -21.478
21
   0.666
31
  -3.860
39
 0
62
  5
 0
LINE
8
default
6
CONTINUOUS
10
 -21.430
20
   0.425
30
  -2.472
11
  21.430
21
   0.425
31
  -2.472
39
 0
62
  5
 0
LINE
8
default
6
CONTINUOUS
10
  21.430
20
   0.425
30
  -2.472
11
 -21.430
21
   0.425
31
  -2.472
39
 0
62
  5
 0
LINE
8
default
6
CONTINUOUS
10
 -21.390
20
   0.247
30
  -1.299
11
  21.390
21
   0.247
31
  -1.299
39
 0
62
  5
 0
LINE
8
default
6
CONTINUOUS
10
  21.390
20
   0.247
30
  -1.299
11
 -21.390
21
   0.247
31
  -1.299
39
 0
62
  5
 0
LINE
8
default
6
CONTINUOUS
10
 -21.333
20
   0.151
30
   0.377
11
  21.333
21
   0.151
31
   0.377
39
 0
62
  5
 0
LINE
8
default
6
CONTINUOUS
10
  21.333
20
   0.151
30
   0.377
11
 -21.333
21
   0.151
31
   0.377
39
 0
62
  5
 0
LINE
8
default
6
CONTINUOUS
10
 -21.329
20
   0.157
30
   0.510
11
  21.329
21
   0.157
31
   0.510
39
 0
62
  5
 0
LINE
8
default
6
CONTINUOUS
10
  21.329
20
   0.157
30
   0.510
11
 -21.329
21
   0.157
31
   0.510
39
 0
62
  5
 0
LINE
8
default
6
CONTINUOUS
10
 -21.265
20
   0.291
30
   2.385
11
  21.265
21
   0.291
31
   2.385
39
 0
62
  5
 0
LINE
8
default
6
CONTINUOUS
10
  21.265
20
   0.291
30
   2.385
11
 -21.265
21
   0.291
31
   2.385
39
 0
62
  5
 0
LINE
8
default
6
CONTINUOUS
10
 -21.237
20
   0.567
30
   3.220
11
  21.237
21
   0.567
31
   3.220
39
 0
62
  5
 0
LINE
8
default
6
CONTINUOUS
10
  21.237
20
   0.567
30
   3.220
11
 -21.237
21
   0.567
31
   3.220
39
 0
62
  5
 0
LINE
8
default
6
CONTINUOUS
10
 -21.201
20
   0.990
30
   4.252
11
  21.201
21
   0.990
31
   4.252
39
 0
62
  5
 0
LINE
8
default
6
CONTINUOUS
10
  21.201
20
   0.990
30
   4.252
11
 -21.201
21
   0.990
31
   4.252
39
 0
62
  5
 0
LINE
8
default
6
CONTINUOUS
10
 -21.169
20
   1.560
30
   5.189
11
  21.169
21
   1.560
31
   5.189
39
 0
62
  5
 0
LINE
8
default
6
CONTINUOUS
10
  21.169
20
   1.560
30
   5.189
11
 -21.169
21
   1.560
31
   5.189
39
 0
62
  5
 0
LINE
8
default
6
CONTINUOUS
10
 -21.140
20
   2.283
30
   6.066
11
  21.140
21
   2.283
31
   6.066
39
 0
62
  5
 0
LINE
8
default
6
CONTINUOUS
10
  21.140
20
   2.283
30
   6.066
11
 -21.140
21
   2.283
31
   6.066
39
 0
62
  5
 0
LINE
8
default
6
CONTINUOUS
10
 -21.112
20
   3.154
30
   6.865
11
  21.112
21
   3.154
31
   6.865
39
 0
62
  5
 0
LINE
8
default
6
CONTINUOUS
10
  21.112
20
   3.154
30
   6.865
11
 -21.112
21
   3.154
31
   6.865
39
 0
62
  5
 0
LINE
8
default
6
CONTINUOUS
10
 -21.087
20
   4.173
30
   7.622
11
  21.087
21
   4.173
31
   7.622
39
 0
62
  5
 0
LINE
8
default
6
CONTINUOUS
10
  21.087
20
   4.173
30
   7.622
11
 -21.087
21
   4.173
31
   7.622
39
 0
62
  5
 0
LINE
8
default
6
CONTINUOUS
10
  21.073
20
   4.811
30
   8.032
11
  21.061
21
   5.329
31
   8.365
39
 0
62
  1
 0
LINE
8
default
6
CONTINUOUS
10
 -21.073
20
   4.811
30
   8.032
11
 -21.061
21
   5.329
31
   8.365
39
 0
62
  1
 0
LINE
8
default
6
CONTINUOUS
10
  21.061
20
   5.329
30
   8.365
11
  21.036
21
   6.608
31
   9.100
39
 0
62
  1
 0
LINE
8
default
6
CONTINUOUS
10
 -21.061
20
   5.329
30
   8.365
11
 -21.036
21
   6.608
31
   9.100
39
 0
62
  1
 0
LINE
8
default
6
CONTINUOUS
10
  21.036
20
   6.608
30
   9.100
11
  21.012
21
   8.020
31
   9.821
39
 0
62
  1
 0
LINE
8
default
6
CONTINUOUS
10
 -21.036
20
   6.608
30
   9.100
11
 -21.012
21
   8.020
31
   9.821
39
 0
62
  1
 0
LINE
8
default
6
CONTINUOUS
10
  21.012
20
   8.020
30
   9.821
11
  20.988
21
   9.590
31
  10.526
39
 0
62
  1
 0
LINE
8
default
6
CONTINUOUS
10
 -21.012
20
   8.020
30
   9.821
11
 -20.988
21
   9.590
31
  10.526
39
 0
62
  1
 0
LINE
8
default
6
CONTINUOUS
10
  20.988
20
   9.590
30
  10.526
11
  20.964
21
  11.338
31
  11.221
39
 0
62
  1
 0
LINE
8
default
6
CONTINUOUS
10
 -20.988
20
   9.590
30
  10.526
11
 -20.964
21
  11.338
31
  11.221
39
 0
62
  1
 0
LINE
8
default
6
CONTINUOUS
10
  20.964
20
  11.338
30
  11.221
11
  20.941
21
  13.298
31
  11.910
39
 0
62
  1
 0
LINE
8
default
6
CONTINUOUS
10
 -20.964
20
  11.338
30
  11.221
11
 -20.941
21
  13.298
31
  11.910
39
 0
62
  1
 0
LINE
8
default
6
CONTINUOUS
10
  20.941
20
  13.298
30
  11.910
11
  20.919
21
  15.296
31
  12.541
39
 0
62
  1
 0
LINE
8
default
6
CONTINUOUS
10
 -20.941
20
  13.298
30
  11.910
11
 -20.919
21
  15.296
31
  12.541
39
 0
62
  1
 0
LINE
8
default
6
CONTINUOUS
10
  20.919
20
  15.296
30
  12.541
11
  20.889
21
  18.500
31
  13.439
39
 0
62
  1
 0
LINE
8
default
6
CONTINUOUS
10
 -20.919
20
  15.296
30
  12.541
11
 -20.889
21
  18.500
31
  13.439
39
 0
62
  1
 0
LINE
8
default
6
CONTINUOUS
10
  20.889
20
  18.500
30
  13.439
11
  20.868
21
  20.841
31
  14.032
39
 0
62
  3
 0
LINE
8
default
6
CONTINUOUS
10
 -20.889
20
  18.500
30
  13.439
11
 -20.868
21
  20.841
31
  14.032
39
 0
62
  3
 0
LINE
8
default
6
CONTINUOUS
10
  20.868
20
  20.841
30
  14.032
11
  20.843
21
  24.089
31
  14.776
39
 0
62
  3
 0
LINE
8
default
6
CONTINUOUS
10
 -20.868
20
  20.841
30
  14.032
11
 -20.843
21
  24.089
31
  14.776
39
 0
62
  3
 0
LINE
8
default
6
CONTINUOUS
10
  20.843
20
  24.089
30
  14.776
11
  20.817
21
  27.814
31
  15.546
39
 0
62
  3
 0
LINE
8
default
6
CONTINUOUS
10
 -20.843
20
  24.089
30
  14.776
11
 -20.817
21
  27.814
31
  15.546
39
 0
62
  3
 0
LINE
8
default
6
CONTINUOUS
10
  20.817
20
  27.814
30
  15.546
11
  20.790
21
  32.113
31
  16.341
39
 0
62
  3
 0
LINE
8
default
6
CONTINUOUS
10
 -20.817
20
  27.814
30
  15.546
11
 -20.790
21
  32.113
31
  16.341
39
 0
62
  3
 0
LINE
8
default
6
CONTINUOUS
10
  20.790
20
  32.113
30
  16.341
11
  20.762
21
  37.064
31
  17.153
39
 0
62
  3
 0
LINE
8
default
6
CONTINUOUS
10
 -20.790
20
  32.113
30
  16.341
11
 -20.762
21
  37.064
31
  17.153
39
 0
62
  3
 0
LINE
8
default
6
CONTINUOUS
10
  20.762
20
  37.064
30
  17.153
11
  20.735
21
  42.723
31
  17.961
39
 0
62
  3
 0
LINE
8
default
6
CONTINUOUS
10
 -20.762
20
  37.064
30
  17.153
11
 -20.735
21
  42.723
31
  17.961
39
 0
62
  3
 0
LINE
8
default
6
CONTINUOUS
10
  20.735
20
  42.723
30
  17.961
11
  20.709
21
  49.078
31
  18.722
39
 0
62
  3
 0
LINE
8
default
6
CONTINUOUS
10
 -20.735
20
  42.723
30
  17.961
11
 -20.709
21
  49.078
31
  18.722
39
 0
62
  3
 0
LINE
8
default
6
CONTINUOUS
10
  20.709
20
  49.078
30
  18.722
11
  20.685
21
  56.045
31
  19.407
39
 0
62
  3
 0
LINE
8
default
6
CONTINUOUS
10
 -20.709
20
  49.078
30
  18.722
11
 -20.685
21
  56.045
31
  19.407
39
 0
62
  3
 0
LINE
8
default
6
CONTINUOUS
10
  20.685
20
  56.045
30
  19.407
11
  20.665
21
  63.466
31
  19.996
39
 0
62
  3
 0
LINE
8
default
6
CONTINUOUS
10
 -20.685
20
  56.045
30
  19.407
11
 -20.665
21
  63.466
31
  19.996
39
 0
62
  3
 0
LINE
8
default
6
CONTINUOUS
10
  20.665
20
  63.466
30
  19.996
11
  20.649
21
  71.236
31
  20.481
39
 0
62
  3
 0
LINE
8
default
6
CONTINUOUS
10
 -20.665
20
  63.466
30
  19.996
11
 -20.649
21
  71.236
31
  20.481
39
 0
62
  3
 0
LINE
8
default
6
CONTINUOUS
10
  20.649
20
  71.236
30
  20.481
11
  20.636
21
  79.263
31
  20.853
39
 0
62
  3
 0
LINE
8
default
6
CONTINUOUS
10
 -20.649
20
  71.236
30
  20.481
11
 -20.636
21
  79.263
31
  20.853
39
 0
62
  3
 0
LINE
8
default
6
CONTINUOUS
10
  20.636
20
  79.263
30
  20.853
11
  20.627
21
  87.459
31
  21.112
39
 0
62
  3
 0
LINE
8
default
6
CONTINUOUS
10
 -20.636
20
  79.263
30
  20.853
11
 -20.627
21
  87.459
31
  21.112
39
 0
62
  3
 0
LINE
8
default
6
CONTINUOUS
10
  20.627
20
  87.459
30
  21.112
11
  20.623
21
  95.742
31
  21.248
39
 0
62
  3
 0
LINE
8
default
6
CONTINUOUS
10
 -20.627
20
  87.459
30
  21.112
11
 -20.623
21
  95.742
31
  21.248
39
 0
62
  3
 0
LINE
8
default
6
CONTINUOUS
10
  20.623
20
  95.742
30
  21.248
11
  20.622
21
 104.049
31
  21.257
39
 0
62
  3
 0
LINE
8
default
6
CONTINUOUS
10
 -20.623
20
  95.742
30
  21.248
11
 -20.622
21
 104.049
31
  21.257
39
 0
62
  3
 0
LINE
8
default
6
CONTINUOUS
10
  20.622
20
 104.049
30
  21.257
11
  20.627
21
 112.358
31
  21.131
39
 0
62
  3
 0
LINE
8
default
6
CONTINUOUS
10
 -20.622
20
 104.049
30
  21.257
11
 -20.627
21
 112.358
31
  21.131
39
 0
62
  3
 0
LINE
8
default
6
CONTINUOUS
10
  20.627
20
 112.358
30
  21.131
11
  20.635
21
 120.682
31
  20.882
39
 0
62
  3
 0
LINE
8
default
6
CONTINUOUS
10
 -20.627
20
 112.358
30
  21.131
11
 -20.635
21
 120.682
31
  20.882
39
 0
62
  3
 0
LINE
8
default
6
CONTINUOUS
10
  20.635
20
 120.682
30
  20.882
11
  20.648
21
 129.047
31
  20.517
39
 0
62
  3
 0
LINE
8
default
6
CONTINUOUS
10
 -20.635
20
 120.682
30
  20.882
11
 -20.648
21
 129.047
31
  20.517
39
 0
62
  3
 0
LINE
8
default
6
CONTINUOUS
10
  20.648
20
 129.047
30
  20.517
11
  20.664
21
 137.490
31
  20.051
39
 0
62
  3
 0
LINE
8
default
6
CONTINUOUS
10
 -20.648
20
 129.047
30
  20.517
11
 -20.664
21
 137.490
31
  20.051
39
 0
62
  3
 0
LINE
8
default
6
CONTINUOUS
10
  20.664
20
 137.490
30
  20.051
11
  20.683
21
 146.021
31
  19.491
39
 0
62
  3
 0
LINE
8
default
6
CONTINUOUS
10
 -20.664
20
 137.490
30
  20.051
11
 -20.683
21
 146.021
31
  19.491
39
 0
62
  3
 0
LINE
8
default
6
CONTINUOUS
10
  20.683
20
 146.021
30
  19.491
11
  20.705
21
 154.616
31
  18.841
39
 0
62
  3
 0
LINE
8
default
6
CONTINUOUS
10
 -20.683
20
 146.021
30
  19.491
11
 -20.705
21
 154.616
31
  18.841
39
 0
62
  3
 0
LINE
8
default
6
CONTINUOUS
10
  20.705
20
 154.616
30
  18.841
11
  20.730
21
 163.248
31
  18.110
39
 0
62
  3
 0
LINE
8
default
6
CONTINUOUS
10
 -20.705
20
 154.616
30
  18.841
11
 -20.730
21
 163.248
31
  18.110
39
 0
62
  3
 0
LINE
8
default
6
CONTINUOUS
10
  20.730
20
 163.248
30
  18.110
11
  20.757
21
 171.893
31
  17.298
39
 0
62
  3
 0
LINE
8
default
6
CONTINUOUS
10
 -20.730
20
 163.248
30
  18.110
11
 -20.757
21
 171.893
31
  17.298
39
 0
62
  3
 0
LINE
8
default
6
CONTINUOUS
10
  20.757
20
 171.893
30
  17.298
11
  20.787
21
 180.546
31
  16.409
39
 0
62
  3
 0
LINE
8
default
6
CONTINUOUS
10
 -20.757
20
 171.893
30
  17.298
11
 -20.787
21
 180.546
31
  16.409
39
 0
62
  3
 0
LINE
8
default
6
CONTINUOUS
10
  20.787
20
 180.546
30
  16.409
11
  20.820
21
 189.222
31
  15.445
39
 0
62
  3
 0
LINE
8
default
6
CONTINUOUS
10
 -20.787
20
 180.546
30
  16.409
11
 -20.820
21
 189.222
31
  15.445
39
 0
62
  3
 0
LINE
8
default
6
CONTINUOUS
10
  20.820
20
 189.222
30
  15.445
11
  20.856
21
 197.928
31
  14.410
39
 0
62
  3
 0
LINE
8
default
6
CONTINUOUS
10
 -20.820
20
 189.222
30
  15.445
11
 -20.856
21
 197.928
31
  14.410
39
 0
62
  3
 0
LINE
8
default
6
CONTINUOUS
10
  20.856
20
 197.928
30
  14.410
11
  20.893
21
 206.657
31
  13.304
39
 0
62
  3
 0
LINE
8
default
6
CONTINUOUS
10
 -20.856
20
 197.928
30
  14.410
11
 -20.893
21
 206.657
31
  13.304
39
 0
62
  3
 0
LINE
8
default
6
CONTINUOUS
10
  20.893
20
 206.657
30
  13.304
11
  20.933
21
 215.391
31
  12.140
39
 0
62
  3
 0
LINE
8
default
6
CONTINUOUS
10
 -20.893
20
 206.657
30
  13.304
11
 -20.933
21
 215.391
31
  12.140
39
 0
62
  3
 0
LINE
8
default
6
CONTINUOUS
10
  20.933
20
 215.391
30
  12.140
11
  20.974
21
 224.100
31
  10.921
39
 0
62
  3
 0
LINE
8
default
6
CONTINUOUS
10
 -20.933
20
 215.391
30
  12.140
11
 -20.974
21
 224.100
31
  10.921
39
 0
62
  3
 0
LINE
8
default
6
CONTINUOUS
10
  20.974
20
 224.100
30
  10.921
11
  21.017
21
 232.770
31
   9.662
39
 0
62
  3
 0
LINE
8
default
6
CONTINUOUS
10
 -20.974
20
 224.100
30
  10.921
11
 -21.017
21
 232.770
31
   9.662
39
 0
62
  3
 0
LINE
8
default
6
CONTINUOUS
10
  21.017
20
 232.770
30
   9.662
11
  21.061
21
 241.444
31
   8.365
39
 0
62
  3
 0
LINE
8
default
6
CONTINUOUS
10
 -21.017
20
 232.770
30
   9.662
11
 -21.061
21
 241.444
31
   8.365
39
 0
62
  3
 0
LINE
8
default
6
CONTINUOUS
10
  21.061
20
 241.444
30
   8.365
11
  21.107
21
 250.184
31
   7.030
39
 0
62
  3
 0
LINE
8
default
6
CONTINUOUS
10
 -21.061
20
 241.444
30
   8.365
11
 -21.107
21
 250.184
31
   7.030
39
 0
62
  3
 0
LINE
8
default
6
CONTINUOUS
10
  21.107
20
 250.184
30
   7.030
11
  21.154
21
 258.997
31
   5.652
39
 0
62
  3
 0
LINE
8
default
6
CONTINUOUS
10
 -21.107
20
 250.184
30
   7.030
11
 -21.154
21
 258.997
31
   5.652
39
 0
62
  3
 0
LINE
8
default
6
CONTINUOUS
10
  21.154
20
 258.997
30
   5.652
11
  21.200
21
 267.566
31
   4.287
39
 0
62
  3
 0
LINE
8
default
6
CONTINUOUS
10
 -21.154
20
 258.997
30
   5.652
11
 -21.200
21
 267.566
31
   4.287
39
 0
62
  3
 0
LINE
8
default
6
CONTINUOUS
10
  21.200
20
 267.566
30
   4.287
11
  21.243
21
 275.401
31
   3.023
39
 0
62
  3
 0
LINE
8
default
6
CONTINUOUS
10
 -21.200
20
 267.566
30
   4.287
11
 -21.243
21
 275.401
31
   3.023
39
 0
62
  3
 0
LINE
8
default
6
CONTINUOUS
10
  21.243
20
 275.401
30
   3.023
11
  21.281
21
 282.201
31
   1.907
39
 0
62
  3
 0
LINE
8
default
6
CONTINUOUS
10
 -21.243
20
 275.401
30
   3.023
11
 -21.281
21
 282.201
31
   1.907
39
 0
62
  3
 0
LINE
8
default
6
CONTINUOUS
10
  21.281
20
 282.201
30
   1.907
11
  21.314
21
 288.000
31
   0.946
39
 0
62
  3
 0
LINE
8
default
6
CONTINUOUS
10
 -21.281
20
 282.201
30
   1.907
11
 -21.314
21
 288.000
31
   0.946
39
 0
62
  3
 0
LINE
8
default
6
CONTINUOUS
10
  21.314
20
 288.000
30
   0.946
11
  21.333
21
 291.402
31
   0.377
39
 0
62
  3
 0
LINE
8
default
6
CONTINUOUS
10
 -21.314
20
 288.000
30
   0.946
11
 -21.333
21
 291.402
31
   0.377
39
 0
62
  3
 0
LINE
8
default
6
CONTINUOUS
10
 -20.889
20
  18.500
30
  13.439
11
  20.889
21
  18.500
31
  13.439
39
 0
62
  3
 0
LINE
8
default
6
CONTINUOUS
10
  20.889
20
  18.500
30
  13.439
11
 -20.889
21
  18.500
31
  13.439
39
 0
62
  3
 0
LINE
8
default
6
CONTINUOUS
10
 -20.868
20
  20.841
30
  14.032
11
  20.868
21
  20.841
31
  14.032
39
 0
62
  3
 0
LINE
8
default
6
CONTINUOUS
10
  20.868
20
  20.841
30
  14.032
11
 -20.868
21
  20.841
31
  14.032
39
 0
62
  3
 0
LINE
8
default
6
CONTINUOUS
10
 -20.843
20
  24.089
30
  14.776
11
  20.843
21
  24.089
31
  14.776
39
 0
62
  3
 0
LINE
8
default
6
CONTINUOUS
10
  20.843
20
  24.089
30
  14.776
11
 -20.843
21
  24.089
31
  14.776
39
 0
62
  3
 0
LINE
8
default
6
CONTINUOUS
10
 -20.817
20
  27.814
30
  15.546
11
  20.817
21
  27.814
31
  15.546
39
 0
62
  3
 0
LINE
8
default
6
CONTINUOUS
10
  20.817
20
  27.814
30
  15.546
11
 -20.817
21
  27.814
31
  15.546
39
 0
62
  3
 0
LINE
8
default
6
CONTINUOUS
10
 -20.790
20
  32.113
30
  16.341
11
  20.790
21
  32.113
31
  16.341
39
 0
62
  3
 0
LINE
8
default
6
CONTINUOUS
10
  20.790
20
  32.113
30
  16.341
11
 -20.790
21
  32.113
31
  16.341
39
 0
62
  3
 0
LINE
8
default
6
CONTINUOUS
10
 -20.762
20
  37.064
30
  17.153
11
  20.762
21
  37.064
31
  17.153
39
 0
62
  3
 0
LINE
8
default
6
CONTINUOUS
10
  20.762
20
  37.064
30
  17.153
11
 -20.762
21
  37.064
31
  17.153
39
 0
62
  3
 0
LINE
8
default
6
CONTINUOUS
10
 -20.735
20
  42.723
30
  17.961
11
  20.735
21
  42.723
31
  17.961
39
 0
62
  3
 0
LINE
8
default
6
CONTINUOUS
10
  20.735
20
  42.723
30
  17.961
11
 -20.735
21
  42.723
31
  17.961
39
 0
62
  3
 0
LINE
8
default
6
CONTINUOUS
10
 -20.709
20
  49.078
30
  18.722
11
  20.709
21
  49.078
31
  18.722
39
 0
62
  3
 0
LINE
8
default
6
CONTINUOUS
10
  20.709
20
  49.078
30
  18.722
11
 -20.709
21
  49.078
31
  18.722
39
 0
62
  3
 0
LINE
8
default
6
CONTINUOUS
10
 -20.685
20
  56.045
30
  19.407
11
  20.685
21
  56.045
31
  19.407
39
 0
62
  3
 0
LINE
8
default
6
CONTINUOUS
10
  20.685
20
  56.045
30
  19.407
11
 -20.685
21
  56.045
31
  19.407
39
 0
62
  3
 0
LINE
8
default
6
CONTINUOUS
10
 -20.665
20
  63.466
30
  19.996
11
  20.665
21
  63.466
31
  19.996
39
 0
62
  3
 0
LINE
8
default
6
CONTINUOUS
10
  20.665
20
  63.466
30
  19.996
11
 -20.665
21
  63.466
31
  19.996
39
 0
62
  3
 0
LINE
8
default
6
CONTINUOUS
10
 -20.649
20
  71.236
30
  20.481
11
  20.649
21
  71.236
31
  20.481
39
 0
62
  3
 0
LINE
8
default
6
CONTINUOUS
10
  20.649
20
  71.236
30
  20.481
11
 -20.649
21
  71.236
31
  20.481
39
 0
62
  3
 0
LINE
8
default
6
CONTINUOUS
10
 -20.636
20
  79.263
30
  20.853
11
  20.636
21
  79.263
31
  20.853
39
 0
62
  3
 0
LINE
8
default
6
CONTINUOUS
10
  20.636
20
  79.263
30
  20.853
11
 -20.636
21
  79.263
31
  20.853
39
 0
62
  3
 0
LINE
8
default
6
CONTINUOUS
10
 -20.627
20
  87.459
30
  21.112
11
  20.627
21
  87.459
31
  21.112
39
 0
62
  3
 0
LINE
8
default
6
CONTINUOUS
10
  20.627
20
  87.459
30
  21.112
11
 -20.627
21
  87.459
31
  21.112
39
 0
62
  3
 0
LINE
8
default
6
CONTINUOUS
10
 -20.623
20
  95.742
30
  21.248
11
  20.623
21
  95.742
31
  21.248
39
 0
62
  3
 0
LINE
8
default
6
CONTINUOUS
10
  20.623
20
  95.742
30
  21.248
11
 -20.623
21
  95.742
31
  21.248
39
 0
62
  3
 0
LINE
8
default
6
CONTINUOUS
10
 -20.622
20
 104.049
30
  21.257
11
  20.622
21
 104.049
31
  21.257
39
 0
62
  3
 0
LINE
8
default
6
CONTINUOUS
10
  20.622
20
 104.049
30
  21.257
11
 -20.622
21
 104.049
31
  21.257
39
 0
62
  3
 0
LINE
8
default
6
CONTINUOUS
10
 -20.627
20
 112.358
30
  21.131
11
  20.627
21
 112.358
31
  21.131
39
 0
62
  3
 0
LINE
8
default
6
CONTINUOUS
10
  20.627
20
 112.358
30
  21.131
11
 -20.627
21
 112.358
31
  21.131
39
 0
62
  3
 0
LINE
8
default
6
CONTINUOUS
10
 -20.635
20
 120.682
30
  20.882
11
  20.635
21
 120.682
31
  20.882
39
 0
62
  3
 0
LINE
8
default
6
CONTINUOUS
10
  20.635
20
 120.682
30
  20.882
11
 -20.635
21
 120.682
31
  20.882
39
 0
62
  3
 0
LINE
8
default
6
CONTINUOUS
10
 -20.648
20
 129.047
30
  20.517
11
  20.648
21
 129.047
31
  20.517
39
 0
62
  3
 0
LINE
8
default
6
CONTINUOUS
10
  20.648
20
 129.047
30
  20.517
11
 -20.648
21
 129.047
31
  20.517
39
 0
62
  3
 0
LINE
8
default
6
CONTINUOUS
10
 -20.664
20
 137.490
30
  20.051
11
  20.664
21
 137.490
31
  20.051
39
 0
62
  3
 0
LINE
8
default
6
CONTINUOUS
10
  20.664
20
 137.490
30
  20.051
11
 -20.664
21
 137.490
31
  20.051
39
 0
62
  3
 0
LINE
8
default
6
CONTINUOUS
10
 -20.683
20
 146.021
30
  19.491
11
  20.683
21
 146.021
31
  19.491
39
 0
62
  3
 0
LINE
8
default
6
CONTINUOUS
10
  20.683
20
 146.021
30
  19.491
11
 -20.683
21
 146.021
31
  19.491
39
 0
62
  3
 0
LINE
8
default
6
CONTINUOUS
10
 -20.705
20
 154.616
30
  18.841
11
  20.705
21
 154.616
31
  18.841
39
 0
62
  3
 0
LINE
8
default
6
CONTINUOUS
10
  20.705
20
 154.616
30
  18.841
11
 -20.705
21
 154.616
31
  18.841
39
 0
62
  3
 0
LINE
8
default
6
CONTINUOUS
10
 -20.730
20
 163.248
30
  18.110
11
  20.730
21
 163.248
31
  18.110
39
 0
62
  3
 0
LINE
8
default
6
CONTINUOUS
10
  20.730
20
 163.248
30
  18.110
11
 -20.730
21
 163.248
31
  18.110
39
 0
62
  3
 0
LINE
8
default
6
CONTINUOUS
10
 -20.757
20
 171.893
30
  17.298
11
  20.757
21
 171.893
31
  17.298
39
 0
62
  3
 0
LINE
8
default
6
CONTINUOUS
10
  20.757
20
 171.893
30
  17.298
11
 -20.757
21
 171.893
31
  17.298
39
 0
62
  3
 0
LINE
8
default
6
CONTINUOUS
10
 -20.787
20
 180.546
30
  16.409
11
  20.787
21
 180.546
31
  16.409
39
 0
62
  3
 0
LINE
8
default
6
CONTINUOUS
10
  20.787
20
 180.546
30
  16.409
11
 -20.787
21
 180.546
31
  16.409
39
 0
62
  3
 0
LINE
8
default
6
CONTINUOUS
10
 -20.820
20
 189.222
30
  15.445
11
  20.820
21
 189.222
31
  15.445
39
 0
62
  3
 0
LINE
8
default
6
CONTINUOUS
10
  20.820
20
 189.222
30
  15.445
11
 -20.820
21
 189.222
31
  15.445
39
 0
62
  3
 0
LINE
8
default
6
CONTINUOUS
10
 -20.856
20
 197.928
30
  14.410
11
  20.856
21
 197.928
31
  14.410
39
 0
62
  3
 0
LINE
8
default
6
CONTINUOUS
10
  20.856
20
 197.928
30
  14.410
11
 -20.856
21
 197.928
31
  14.410
39
 0
62
  3
 0
LINE
8
default
6
CONTINUOUS
10
 -20.893
20
 206.657
30
  13.304
11
  20.893
21
 206.657
31
  13.304
39
 0
62
  3
 0
LINE
8
default
6
CONTINUOUS
10
  20.893
20
 206.657
30
  13.304
11
 -20.893
21
 206.657
31
  13.304
39
 0
62
  3
 0
LINE
8
default
6
CONTINUOUS
10
 -20.933
20
 215.391
30
  12.140
11
  20.933
21
 215.391
31
  12.140
39
 0
62
  3
 0
LINE
8
default
6
CONTINUOUS
10
  20.933
20
 215.391
30
  12.140
11
 -20.933
21
 215.391
31
  12.140
39
 0
62
  3
 0
LINE
8
default
6
CONTINUOUS
10
 -20.974
20
 224.100
30
  10.921
11
  20.974
21
 224.100
31
  10.921
39
 0
62
  3
 0
LINE
8
default
6
CONTINUOUS
10
  20.974
20
 224.100
30
  10.921
11
 -20.974
21
 224.100
31
  10.921
39
 0
62
  3
 0
LINE
8
default
6
CONTINUOUS
10
 -21.017
20
 232.770
30
   9.662
11
  21.017
21
 232.770
31
   9.662
39
 0
62
  3
 0
LINE
8
default
6
CONTINUOUS
10
  21.017
20
 232.770
30
   9.662
11
 -21.017
21
 232.770
31
   9.662
39
 0
62
  3
 0
LINE
8
default
6
CONTINUOUS
10
 -21.061
20
 241.444
30
   8.365
11
  21.061
21
 241.444
31
   8.365
39
 0
62
  3
 0
LINE
8
default
6
CONTINUOUS
10
  21.061
20
 241.444
30
   8.365
11
 -21.061
21
 241.444
31
   8.365
39
 0
62
  3
 0
LINE
8
default
6
CONTINUOUS
10
 -21.107
20
 250.184
30
   7.030
11
  21.107
21
 250.184
31
   7.030
39
 0
62
  3
 0
LINE
8
default
6
CONTINUOUS
10
  21.107
20
 250.184
30
   7.030
11
 -21.107
21
 250.184
31
   7.030
39
 0
62
  3
 0
LINE
8
default
6
CONTINUOUS
10
 -21.154
20
 258.997
30
   5.652
11
  21.154
21
 258.997
31
   5.652
39
 0
62
  3
 0
LINE
8
default
6
CONTINUOUS
10
  21.154
20
 258.997
30
   5.652
11
 -21.154
21
 258.997
31
   5.652
39
 0
62
  3
 0
LINE
8
default
6
CONTINUOUS
10
 -21.200
20
 267.566
30
   4.287
11
  21.200
21
 267.566
31
   4.287
39
 0
62
  3
 0
LINE
8
default
6
CONTINUOUS
10
  21.200
20
 267.566
30
   4.287
11
 -21.200
21
 267.566
31
   4.287
39
 0
62
  3
 0
LINE
8
default
6
CONTINUOUS
10
 -21.243
20
 275.401
30
   3.023
11
  21.243
21
 275.401
31
   3.023
39
 0
62
  3
 0
LINE
8
default
6
CONTINUOUS
10
  21.243
20
 275.401
30
   3.023
11
 -21.243
21
 275.401
31
   3.023
39
 0
62
  3
 0
LINE
8
default
6
CONTINUOUS
10
 -21.281
20
 282.201
30
   1.907
11
  21.281
21
 282.201
31
   1.907
39
 0
62
  3
 0
LINE
8
default
6
CONTINUOUS
10
  21.281
20
 282.201
30
   1.907
11
 -21.281
21
 282.201
31
   1.907
39
 0
62
  3
 0
LINE
8
default
6
CONTINUOUS
10
 -21.314
20
 288.000
30
   0.946
11
  21.314
21
 288.000
31
   0.946
39
 0
62
  3
 0
LINE
8
default
6
CONTINUOUS
10
  21.314
20
 288.000
30
   0.946
11
 -21.314
21
 288.000
31
   0.946
39
 0
62
  3
 0
LINE
8
default
6
CONTINUOUS
10
  62.119
20
 290.194
30
  18.384
11
  62.210
21
 286.894
31
  17.528
39
 0
62
  5
 0
LINE
8
default
6
CONTINUOUS
10
 -62.119
20
 290.194
30
  18.384
11
 -62.210
21
 286.894
31
  17.528
39
 0
62
  5
 0
LINE
8
default
6
CONTINUOUS
10
  62.210
20
 286.894
30
  17.528
11
  62.364
21
 281.268
31
  16.078
39
 0
62
  5
 0
LINE
8
default
6
CONTINUOUS
10
 -62.210
20
 286.894
30
  17.528
11
 -62.364
21
 281.268
31
  16.078
39
 0
62
  5
 0
LINE
8
default
6
CONTINUOUS
10
  62.364
20
 281.268
30
  16.078
11
  62.543
21
 274.674
31
  14.387
39
 0
62
  5
 0
LINE
8
default
6
CONTINUOUS
10
 -62.364
20
 281.268
30
  16.078
11
 -62.543
21
 274.674
31
  14.387
39
 0
62
  5
 0
LINE
8
default
6
CONTINUOUS
10
  62.543
20
 274.674
30
  14.387
11
  62.748
21
 267.068
31
  12.455
39
 0
62
  5
 0
LINE
8
default
6
CONTINUOUS
10
 -62.543
20
 274.674
30
  14.387
11
 -62.748
21
 267.068
31
  12.455
39
 0
62
  5
 0
LINE
8
default
6
CONTINUOUS
10
  62.748
20
 267.068
30
  12.455
11
  62.971
21
 258.735
31
  10.355
39
 0
62
  5
 0
LINE
8
default
6
CONTINUOUS
10
 -62.748
20
 267.068
30
  12.455
11
 -62.971
21
 258.735
31
  10.355
39
 0
62
  5
 0
LINE
8
default
6
CONTINUOUS
10
  62.971
20
 258.735
30
  10.355
11
  63.198
21
 250.161
31
   8.215
39
 0
62
  5
 0
LINE
8
default
6
CONTINUOUS
10
 -62.971
20
 258.735
30
  10.355
11
 -63.198
21
 250.161
31
   8.215
39
 0
62
  5
 0
LINE
8
default
6
CONTINUOUS
10
  63.198
20
 250.161
30
   8.215
11
  63.421
21
 241.648
31
   6.117
39
 0
62
  5
 0
LINE
8
default
6
CONTINUOUS
10
 -63.198
20
 250.161
30
   8.215
11
 -63.421
21
 241.648
31
   6.117
39
 0
62
  5
 0
LINE
8
default
6
CONTINUOUS
10
  63.421
20
 241.648
30
   6.117
11
  63.640
21
 233.195
31
   4.059
39
 0
62
  5
 0
LINE
8
default
6
CONTINUOUS
10
 -63.421
20
 241.648
30
   6.117
11
 -63.640
21
 233.195
31
   4.059
39
 0
62
  5
 0
LINE
8
default
6
CONTINUOUS
10
  63.640
20
 233.195
30
   4.059
11
  63.856
21
 224.721
31
   2.023
39
 0
62
  5
 0
LINE
8
default
6
CONTINUOUS
10
 -63.640
20
 233.195
30
   4.059
11
 -63.856
21
 224.721
31
   2.023
39
 0
62
  5
 0
LINE
8
default
6
CONTINUOUS
10
  63.856
20
 224.721
30
   2.023
11
  64.070
21
 216.184
31
   0.005
39
 0
62
  5
 0
LINE
8
default
6
CONTINUOUS
10
 -63.856
20
 224.721
30
   2.023
11
 -64.070
21
 216.184
31
   0.005
39
 0
62
  5
 0
LINE
8
default
6
CONTINUOUS
10
  64.070
20
 216.184
30
   0.005
11
  64.282
21
 207.569
31
  -1.994
39
 0
62
  5
 0
LINE
8
default
6
CONTINUOUS
10
 -64.070
20
 216.184
30
   0.005
11
 -64.282
21
 207.569
31
  -1.994
39
 0
62
  5
 0
LINE
8
default
6
CONTINUOUS
10
  64.282
20
 207.569
30
  -1.994
11
  64.492
21
 198.910
31
  -3.970
39
 0
62
  5
 0
LINE
8
default
6
CONTINUOUS
10
 -64.282
20
 207.569
30
  -1.994
11
 -64.492
21
 198.910
31
  -3.970
39
 0
62
  5
 0
LINE
8
default
6
CONTINUOUS
10
  64.492
20
 198.910
30
  -3.970
11
  64.698
21
 190.225
31
  -5.913
39
 0
62
  5
 0
LINE
8
default
6
CONTINUOUS
10
 -64.492
20
 198.910
30
  -3.970
11
 -64.698
21
 190.225
31
  -5.913
39
 0
62
  5
 0
LINE
8
default
6
CONTINUOUS
10
  64.698
20
 190.225
30
  -5.913
11
  64.901
21
 181.534
31
  -7.825
39
 0
62
  5
 0
LINE
8
default
6
CONTINUOUS
10
 -64.698
20
 190.225
30
  -5.913
11
 -64.901
21
 181.534
31
  -7.825
39
 0
62
  5
 0
LINE
8
default
6
CONTINUOUS
10
  64.901
20
 181.534
30
  -7.825
11
  65.101
21
 172.853
31
  -9.703
39
 0
62
  5
 0
LINE
8
default
6
CONTINUOUS
10
 -64.901
20
 181.534
30
  -7.825
11
 -65.101
21
 172.853
31
  -9.703
39
 0
62
  5
 0
LINE
8
default
6
CONTINUOUS
10
  65.101
20
 172.853
30
  -9.703
11
  65.297
21
 164.189
31
 -11.552
39
 0
62
  5
 0
LINE
8
default
6
CONTINUOUS
10
 -65.101
20
 172.853
30
  -9.703
11
 -65.297
21
 164.189
31
 -11.552
39
 0
62
  5
 0
LINE
8
default
6
CONTINUOUS
10
  65.297
20
 164.189
30
 -11.552
11
  65.489
21
 155.548
31
 -13.362
39
 0
62
  5
 0
LINE
8
default
6
CONTINUOUS
10
 -65.297
20
 164.189
30
 -11.552
11
 -65.489
21
 155.548
31
 -13.362
39
 0
62
  5
 0
LINE
8
default
6
CONTINUOUS
10
  65.489
20
 155.548
30
 -13.362
11
  65.677
21
 146.940
31
 -15.135
39
 0
62
  5
 0
LINE
8
default
6
CONTINUOUS
10
 -65.489
20
 155.548
30
 -13.362
11
 -65.677
21
 146.940
31
 -15.135
39
 0
62
  5
 0
LINE
8
default
6
CONTINUOUS
10
  65.677
20
 146.940
30
 -15.135
11
  65.861
21
 138.368
31
 -16.863
39
 0
62
  5
 0
LINE
8
default
6
CONTINUOUS
10
 -65.677
20
 146.940
30
 -15.135
11
 -65.861
21
 138.368
31
 -16.863
39
 0
62
  5
 0
LINE
8
default
6
CONTINUOUS
10
  65.861
20
 138.368
30
 -16.863
11
  66.039
21
 129.845
31
 -18.541
39
 0
62
  5
 0
LINE
8
default
6
CONTINUOUS
10
 -65.861
20
 138.368
30
 -16.863
11
 -66.039
21
 129.845
31
 -18.541
39
 0
62
  5
 0
LINE
8
default
6
CONTINUOUS
10
  66.039
20
 129.845
30
 -18.541
11
  66.211
21
 121.396
31
 -20.162
39
 0
62
  5
 0
LINE
8
default
6
CONTINUOUS
10
 -66.039
20
 129.845
30
 -18.541
11
 -66.211
21
 121.396
31
 -20.162
39
 0
62
  5
 0
LINE
8
default
6
CONTINUOUS
10
  66.211
20
 121.396
30
 -20.162
11
  66.376
21
 113.034
31
 -21.718
39
 0
62
  5
 0
LINE
8
default
6
CONTINUOUS
10
 -66.211
20
 121.396
30
 -20.162
11
 -66.376
21
 113.034
31
 -21.718
39
 0
62
  5
 0
LINE
8
default
6
CONTINUOUS
10
  66.376
20
 113.034
30
 -21.718
11
  66.534
21
 104.800
31
 -23.204
39
 0
62
  5
 0
LINE
8
default
6
CONTINUOUS
10
 -66.376
20
 113.034
30
 -21.718
11
 -66.534
21
 104.800
31
 -23.204
39
 0
62
  5
 0
LINE
8
default
6
CONTINUOUS
10
  66.534
20
 104.800
30
 -23.204
11
  66.682
21
  96.751
31
 -24.599
39
 0
62
  5
 0
LINE
8
default
6
CONTINUOUS
10
 -66.534
20
 104.800
30
 -23.204
11
 -66.682
21
  96.751
31
 -24.599
39
 0
62
  5
 0
LINE
8
default
6
CONTINUOUS
10
  66.682
20
  96.751
30
 -24.599
11
  66.818
21
  88.951
31
 -25.879
39
 0
62
  5
 0
LINE
8
default
6
CONTINUOUS
10
 -66.682
20
  96.751
30
 -24.599
11
 -66.818
21
  88.951
31
 -25.879
39
 0
62
  5
 0
LINE
8
default
6
CONTINUOUS
10
  66.818
20
  88.951
30
 -25.879
11
  66.939
21
  81.480
31
 -27.021
39
 0
62
  5
 0
LINE
8
default
6
CONTINUOUS
10
 -66.818
20
  88.951
30
 -25.879
11
 -66.939
21
  81.480
31
 -27.021
39
 0
62
  5
 0
LINE
8
default
6
CONTINUOUS
10
  66.939
20
  81.480
30
 -27.021
11
  67.044
21
  74.392
31
 -28.009
39
 0
62
  5
 0
LINE
8
default
6
CONTINUOUS
10
 -66.939
20
  81.480
30
 -27.021
11
 -67.044
21
  74.392
31
 -28.009
39
 0
62
  5
 0
LINE
8
default
6
CONTINUOUS
10
  67.044
20
  74.392
30
 -28.009
11
  67.130
21
  67.717
31
 -28.817
39
 0
62
  5
 0
LINE
8
default
6
CONTINUOUS
10
 -67.044
20
  74.392
30
 -28.009
11
 -67.130
21
  67.717
31
 -28.817
39
 0
62
  5
 0
LINE
8
default
6
CONTINUOUS
10
  67.130
20
  67.717
30
 -28.817
11
  67.195
21
  61.458
31
 -29.427
39
 0
62
  5
 0
LINE
8
default
6
CONTINUOUS
10
 -67.130
20
  67.717
30
 -28.817
11
 -67.195
21
  61.458
31
 -29.427
39
 0
62
  5
 0
LINE
8
default
6
CONTINUOUS
10
  67.195
20
  61.458
30
 -29.427
11
  67.237
21
  55.618
31
 -29.822
39
 0
62
  5
 0
LINE
8
default
6
CONTINUOUS
10
 -67.195
20
  61.458
30
 -29.427
11
 -67.237
21
  55.618
31
 -29.822
39
 0
62
  5
 0
LINE
8
default
6
CONTINUOUS
10
  67.237
20
  55.618
30
 -29.822
11
  67.256
21
  50.193
31
 -30.003
39
 0
62
  5
 0
LINE
8
default
6
CONTINUOUS
10
 -67.237
20
  55.618
30
 -29.822
11
 -67.256
21
  50.193
31
 -30.003
39
 0
62
  5
 0
LINE
8
default
6
CONTINUOUS
10
  67.256
20
  50.193
30
 -30.003
11
  67.251
21
  45.170
31
 -29.963
39
 0
62
  5
 0
LINE
8
default
6
CONTINUOUS
10
 -67.256
20
  50.193
30
 -30.003
11
 -67.251
21
  45.170
31
 -29.963
39
 0
62
  5
 0
LINE
8
default
6
CONTINUOUS
10
  67.251
20
  45.170
30
 -29.963
11
  67.225
21
  40.539
31
 -29.711
39
 0
62
  5
 0
LINE
8
default
6
CONTINUOUS
10
 -67.251
20
  45.170
30
 -29.963
11
 -67.225
21
  40.539
31
 -29.711
39
 0
62
  5
 0
LINE
8
default
6
CONTINUOUS
10
  67.225
20
  40.539
30
 -29.711
11
  67.176
21
  36.275
31
 -29.255
39
 0
62
  5
 0
LINE
8
default
6
CONTINUOUS
10
 -67.225
20
  40.539
30
 -29.711
11
 -67.176
21
  36.275
31
 -29.255
39
 0
62
  5
 0
LINE
8
default
6
CONTINUOUS
10
  67.176
20
  36.275
30
 -29.255
11
  67.107
21
  32.358
31
 -28.599
39
 0
62
  5
 0
LINE
8
default
6
CONTINUOUS
10
 -67.176
20
  36.275
30
 -29.255
11
 -67.107
21
  32.358
31
 -28.599
39
 0
62
  5
 0
LINE
8
default
6
CONTINUOUS
10
  67.107
20
  32.358
30
 -28.599
11
  67.017
21
  28.760
31
 -27.756
39
 0
62
  5
 0
LINE
8
default
6
CONTINUOUS
10
 -67.107
20
  32.358
30
 -28.599
11
 -67.017
21
  28.760
31
 -27.756
39
 0
62
  5
 0
LINE
8
default
6
CONTINUOUS
10
  67.017
20
  28.760
30
 -27.756
11
  66.911
21
  25.472
31
 -26.753
39
 0
62
  5
 0
LINE
8
default
6
CONTINUOUS
10
 -67.017
20
  28.760
30
 -27.756
11
 -66.911
21
  25.472
31
 -26.753
39
 0
62
  5
 0
LINE
8
default
6
CONTINUOUS
10
  66.911
20
  25.472
30
 -26.753
11
  66.792
21
  22.485
31
 -25.632
39
 0
62
  5
 0
LINE
8
default
6
CONTINUOUS
10
 -66.911
20
  25.472
30
 -26.753
11
 -66.792
21
  22.485
31
 -25.632
39
 0
62
  5
 0
LINE
8
default
6
CONTINUOUS
10
  66.792
20
  22.485
30
 -25.632
11
  66.664
21
  19.782
31
 -24.426
39
 0
62
  5
 0
LINE
8
default
6
CONTINUOUS
10
 -66.792
20
  22.485
30
 -25.632
11
 -66.664
21
  19.782
31
 -24.426
39
 0
62
  5
 0
LINE
8
default
6
CONTINUOUS
10
  66.664
20
  19.782
30
 -24.426
11
  66.531
21
  17.355
31
 -23.174
39
 0
62
  5
 0
LINE
8
default
6
CONTINUOUS
10
 -66.664
20
  19.782
30
 -24.426
11
 -66.531
21
  17.355
31
 -23.174
39
 0
62
  5
 0
LINE
8
default
6
CONTINUOUS
10
  66.531
20
  17.355
30
 -23.174
11
  66.394
21
  15.174
31
 -21.889
39
 0
62
  5
 0
LINE
8
default
6
CONTINUOUS
10
 -66.531
20
  17.355
30
 -23.174
11
 -66.394
21
  15.174
31
 -21.889
39
 0
62
  5
 0
LINE
8
default
6
CONTINUOUS
10
  66.394
20
  15.174
30
 -21.889
11
  66.257
21
  13.225
31
 -20.594
39
 0
62
  5
 0
LINE
8
default
6
CONTINUOUS
10
 -66.394
20
  15.174
30
 -21.889
11
 -66.257
21
  13.225
31
 -20.594
39
 0
62
  5
 0
LINE
8
default
6
CONTINUOUS
10
  66.257
20
  13.225
30
 -20.594
11
  66.119
21
  11.487
31
 -19.301
39
 0
62
  5
 0
LINE
8
default
6
CONTINUOUS
10
 -66.257
20
  13.225
30
 -20.594
11
 -66.119
21
  11.487
31
 -19.301
39
 0
62
  5
 0
LINE
8
default
6
CONTINUOUS
10
  66.119
20
  11.487
30
 -19.301
11
  65.984
21
   9.940
31
 -18.023
39
 0
62
  5
 0
LINE
8
default
6
CONTINUOUS
10
 -66.119
20
  11.487
30
 -19.301
11
 -65.984
21
   9.940
31
 -18.023
39
 0
62
  5
 0
LINE
8
default
6
CONTINUOUS
10
  65.984
20
   9.940
30
 -18.023
11
  65.850
21
   8.568
31
 -16.760
39
 0
62
  5
 0
LINE
8
default
6
CONTINUOUS
10
 -65.984
20
   9.940
30
 -18.023
11
 -65.850
21
   8.568
31
 -16.760
39
 0
62
  5
 0
LINE
8
default
6
CONTINUOUS
10
  65.850
20
   8.568
30
 -16.760
11
  65.718
21
   7.355
31
 -15.520
39
 0
62
  5
 0
LINE
8
default
6
CONTINUOUS
10
 -65.850
20
   8.568
30
 -16.760
11
 -65.718
21
   7.355
31
 -15.520
39
 0
62
  5
 0
LINE
8
default
6
CONTINUOUS
10
  65.718
20
   7.355
30
 -15.520
11
  65.588
21
   6.283
31
 -14.295
39
 0
62
  5
 0
LINE
8
default
6
CONTINUOUS
10
 -65.718
20
   7.355
30
 -15.520
11
 -65.588
21
   6.283
31
 -14.295
39
 0
62
  5
 0
LINE
8
default
6
CONTINUOUS
10
  65.588
20
   6.283
30
 -14.295
11
  65.460
21
   5.342
31
 -13.090
39
 0
62
  5
 0
LINE
8
default
6
CONTINUOUS
10
 -65.588
20
   6.283
30
 -14.295
11
 -65.460
21
   5.342
31
 -13.090
39
 0
62
  5
 0
LINE
8
default
6
CONTINUOUS
10
  65.460
20
   5.342
30
 -13.090
11
  65.335
21
   4.529
31
 -11.909
39
 0
62
  5
 0
LINE
8
default
6
CONTINUOUS
10
 -65.460
20
   5.342
30
 -13.090
11
 -65.335
21
   4.529
31
 -11.909
39
 0
62
  5
 0
LINE
8
default
6
CONTINUOUS
10
  65.335
20
   4.529
30
 -11.909
11
  65.212
21
   3.833
31
 -10.757
39
 0
62
  5
 0
LINE
8
default
6
CONTINUOUS
10
 -65.335
20
   4.529
30
 -11.909
11
 -65.212
21
   3.833
31
 -10.757
39
 0
62
  5
 0
LINE
8
default
6
CONTINUOUS
10
  65.212
20
   3.833
30
 -10.757
11
  65.094
21
   3.254
31
  -9.642
39
 0
62
  5
 0
LINE
8
default
6
CONTINUOUS
10
 -65.212
20
   3.833
30
 -10.757
11
 -65.094
21
   3.254
31
  -9.642
39
 0
62
  5
 0
LINE
8
default
6
CONTINUOUS
10
  65.094
20
   3.254
30
  -9.642
11
  64.978
21
   2.776
31
  -8.550
39
 0
62
  5
 0
LINE
8
default
6
CONTINUOUS
10
 -65.094
20
   3.254
30
  -9.642
11
 -64.978
21
   2.776
31
  -8.550
39
 0
62
  5
 0
LINE
8
default
6
CONTINUOUS
10
  64.978
20
   2.776
30
  -8.550
11
  64.867
21
   2.382
31
  -7.503
39
 0
62
  5
 0
LINE
8
default
6
CONTINUOUS
10
 -64.978
20
   2.776
30
  -8.550
11
 -64.867
21
   2.382
31
  -7.503
39
 0
62
  5
 0
LINE
8
default
6
CONTINUOUS
10
  64.867
20
   2.382
30
  -7.503
11
  64.753
21
   2.056
31
  -6.428
39
 0
62
  5
 0
LINE
8
default
6
CONTINUOUS
10
 -64.867
20
   2.382
30
  -7.503
11
 -64.753
21
   2.056
31
  -6.428
39
 0
62
  5
 0
LINE
8
default
6
CONTINUOUS
10
  64.753
20
   2.056
30
  -6.428
11
  64.656
21
   1.807
31
  -5.515
39
 0
62
  5
 0
LINE
8
default
6
CONTINUOUS
10
 -64.753
20
   2.056
30
  -6.428
11
 -64.656
21
   1.807
31
  -5.515
39
 0
62
  5
 0
LINE
8
default
6
CONTINUOUS
10
  64.656
20
   1.807
30
  -5.515
11
  64.517
21
   1.607
31
  -4.201
39
 0
62
  5
 0
LINE
8
default
6
CONTINUOUS
10
 -64.656
20
   1.807
30
  -5.515
11
 -64.517
21
   1.607
31
  -4.201
39
 0
62
  5
 0
LINE
8
default
6
CONTINUOUS
10
  64.517
20
   1.607
30
  -4.201
11
  64.505
21
   1.605
31
  -4.096
39
 0
62
  5
 0
LINE
8
default
6
CONTINUOUS
10
 -64.517
20
   1.607
30
  -4.201
11
 -64.505
21
   1.605
31
  -4.096
39
 0
62
  5
 0
LINE
8
default
6
CONTINUOUS
10
  64.505
20
   1.605
30
  -4.096
11
  64.347
21
   1.620
31
  -2.607
39
 0
62
  5
 0
LINE
8
default
6
CONTINUOUS
10
 -64.505
20
   1.605
30
  -4.096
11
 -64.347
21
   1.620
31
  -2.607
39
 0
62
  5
 0
LINE
8
default
6
CONTINUOUS
10
  64.347
20
   1.620
30
  -2.607
11
  64.275
21
   1.842
31
  -1.927
39
 0
62
  5
 0
LINE
8
default
6
CONTINUOUS
10
 -64.347
20
   1.620
30
  -2.607
11
 -64.275
21
   1.842
31
  -1.927
39
 0
62
  5
 0
LINE
8
default
6
CONTINUOUS
10
  64.275
20
   1.842
30
  -1.927
11
  64.185
21
   2.196
31
  -1.080
39
 0
62
  5
 0
LINE
8
default
6
CONTINUOUS
10
 -64.275
20
   1.842
30
  -1.927
11
 -64.185
21
   2.196
31
  -1.080
39
 0
62
  5
 0
LINE
8
default
6
CONTINUOUS
10
  64.185
20
   2.196
30
  -1.080
11
  64.102
21
   2.704
31
  -0.296
39
 0
62
  5
 0
LINE
8
default
6
CONTINUOUS
10
 -64.185
20
   2.196
30
  -1.080
11
 -64.102
21
   2.704
31
  -0.296
39
 0
62
  5
 0
LINE
8
default
6
CONTINUOUS
10
  64.102
20
   2.704
30
  -0.296
11
  64.023
21
   3.365
31
   0.451
39
 0
62
  5
 0
LINE
8
default
6
CONTINUOUS
10
 -64.102
20
   2.704
30
  -0.296
11
 -64.023
21
   3.365
31
   0.451
39
 0
62
  5
 0
LINE
8
default
6
CONTINUOUS
10
  64.023
20
   3.365
30
   0.451
11
  63.949
21
   4.178
31
   1.149
39
 0
62
  5
 0
LINE
8
default
6
CONTINUOUS
10
 -64.023
20
   3.365
30
   0.451
11
 -63.949
21
   4.178
31
   1.149
39
 0
62
  5
 0
LINE
8
default
6
CONTINUOUS
10
  63.949
20
   4.178
30
   1.149
11
  63.877
21
   5.140
31
   1.824
39
 0
62
  5
 0
LINE
8
default
6
CONTINUOUS
10
 -63.949
20
   4.178
30
   1.149
11
 -63.877
21
   5.140
31
   1.824
39
 0
62
  5
 0
LINE
8
default
6
CONTINUOUS
10
  63.877
20
   5.140
30
   1.824
11
  63.837
21
   5.747
31
   2.198
39
 0
62
  5
 0
LINE
8
default
6
CONTINUOUS
10
 -63.877
20
   5.140
30
   1.824
11
 -63.837
21
   5.747
31
   2.198
39
 0
62
  5
 0
LINE
8
default
6
CONTINUOUS
10
  21.333
20
 291.402
30
   0.377
11
  62.119
21
 290.194
31
  18.384
39
 0
62
  5
 0
LINE
8
default
6
CONTINUOUS
10
 -21.333
20
 291.402
30
   0.377
11
 -62.119
21
 290.194
31
  18.384
39
 0
62
  5
 0
LINE
8
default
6
CONTINUOUS
10
  21.359
20
 288.023
30
  -0.377
11
  62.210
21
 286.894
31
  17.528
39
 0
62
  5
 0
LINE
8
default
6
CONTINUOUS
10
 -21.359
20
 288.023
30
  -0.377
11
 -62.210
21
 286.894
31
  17.528
39
 0
62
  5
 0
LINE
8
default
6
CONTINUOUS
10
  21.402
20
 282.265
30
  -1.648
11
  62.364
21
 281.268
31
  16.078
39
 0
62
  5
 0
LINE
8
default
6
CONTINUOUS
10
 -21.402
20
 282.265
30
  -1.648
11
 -62.364
21
 281.268
31
  16.078
39
 0
62
  5
 0
LINE
8
default
6
CONTINUOUS
10
  21.453
20
 275.517
30
  -3.129
11
  62.543
21
 274.674
31
  14.387
39
 0
62
  5
 0
LINE
8
default
6
CONTINUOUS
10
 -21.453
20
 275.517
30
  -3.129
11
 -62.543
21
 274.674
31
  14.387
39
 0
62
  5
 0
LINE
8
default
6
CONTINUOUS
10
  21.510
20
 267.735
30
  -4.814
11
  62.748
21
 267.068
31
  12.455
39
 0
62
  5
 0
LINE
8
default
6
CONTINUOUS
10
 -21.510
20
 267.735
30
  -4.814
11
 -62.748
21
 267.068
31
  12.455
39
 0
62
  5
 0
LINE
8
default
6
CONTINUOUS
10
  21.572
20
 259.210
30
  -6.638
11
  62.971
21
 258.735
31
  10.355
39
 0
62
  5
 0
LINE
8
default
6
CONTINUOUS
10
 -21.572
20
 259.210
30
  -6.638
11
 -62.971
21
 258.735
31
  10.355
39
 0
62
  5
 0
LINE
8
default
6
CONTINUOUS
10
  21.635
20
 250.440
30
  -8.488
11
  63.198
21
 250.161
31
   8.215
39
 0
62
  5
 0
LINE
8
default
6
CONTINUOUS
10
 -21.635
20
 250.440
30
  -8.488
11
 -63.198
21
 250.161
31
   8.215
39
 0
62
  5
 0
LINE
8
default
6
CONTINUOUS
10
  21.697
20
 241.735
30
 -10.293
11
  63.421
21
 241.648
31
   6.117
39
 0
62
  5
 0
LINE
8
default
6
CONTINUOUS
10
 -21.697
20
 241.735
30
 -10.293
11
 -63.421
21
 241.648
31
   6.117
39
 0
62
  5
 0
LINE
8
default
6
CONTINUOUS
10
  21.757
20
 233.093
30
 -12.052
11
  63.640
21
 233.195
31
   4.059
39
 0
62
  5
 0
LINE
8
default
6
CONTINUOUS
10
 -21.757
20
 233.093
30
 -12.052
11
 -63.640
21
 233.195
31
   4.059
39
 0
62
  5
 0
LINE
8
default
6
CONTINUOUS
10
  21.815
20
 224.432
30
 -13.782
11
  63.856
21
 224.721
31
   2.023
39
 0
62
  5
 0
LINE
8
default
6
CONTINUOUS
10
 -21.815
20
 224.432
30
 -13.782
11
 -63.856
21
 224.721
31
   2.023
39
 0
62
  5
 0
LINE
8
default
6
CONTINUOUS
10
  21.873
20
 215.709
30
 -15.484
11
  64.070
21
 216.184
31
   0.005
39
 0
62
  5
 0
LINE
8
default
6
CONTINUOUS
10
 -21.873
20
 215.709
30
 -15.484
11
 -64.070
21
 216.184
31
   0.005
39
 0
62
  5
 0
LINE
8
default
6
CONTINUOUS
10
  21.930
20
 206.910
30
 -17.153
11
  64.282
21
 207.569
31
  -1.994
39
 0
62
  5
 0
LINE
8
default
6
CONTINUOUS
10
 -21.930
20
 206.910
30
 -17.153
11
 -64.282
21
 207.569
31
  -1.994
39
 0
62
  5
 0
LINE
8
default
6
CONTINUOUS
10
  21.986
20
 198.068
30
 -18.789
11
  64.492
21
 198.910
31
  -3.970
39
 0
62
  5
 0
LINE
8
default
6
CONTINUOUS
10
 -21.986
20
 198.068
30
 -18.789
11
 -64.492
21
 198.910
31
  -3.970
39
 0
62
  5
 0
LINE
8
default
6
CONTINUOUS
10
  22.040
20
 189.202
30
 -20.380
11
  64.698
21
 190.225
31
  -5.913
39
 0
62
  5
 0
LINE
8
default
6
CONTINUOUS
10
 -22.040
20
 189.202
30
 -20.380
11
 -64.698
21
 190.225
31
  -5.913
39
 0
62
  5
 0
LINE
8
default
6
CONTINUOUS
10
  22.093
20
 180.333
30
 -21.933
11
  64.901
21
 181.534
31
  -7.825
39
 0
62
  5
 0
LINE
8
default
6
CONTINUOUS
10
 -22.093
20
 180.333
30
 -21.933
11
 -64.901
21
 181.534
31
  -7.825
39
 0
62
  5
 0
LINE
8
default
6
CONTINUOUS
10
  22.144
20
 171.476
30
 -23.443
11
  65.101
21
 172.853
31
  -9.703
39
 0
62
  5
 0
LINE
8
default
6
CONTINUOUS
10
 -22.144
20
 171.476
30
 -23.443
11
 -65.101
21
 172.853
31
  -9.703
39
 0
62
  5
 0
LINE
8
default
6
CONTINUOUS
10
  22.195
20
 162.640
30
 -24.918
11
  65.297
21
 164.189
31
 -11.552
39
 0
62
  5
 0
LINE
8
default
6
CONTINUOUS
10
 -22.195
20
 162.640
30
 -24.918
11
 -65.297
21
 164.189
31
 -11.552
39
 0
62
  5
 0
LINE
8
default
6
CONTINUOUS
10
  22.243
20
 153.829
30
 -26.348
11
  65.489
21
 155.548
31
 -13.362
39
 0
62
  5
 0
LINE
8
default
6
CONTINUOUS
10
 -22.243
20
 153.829
30
 -26.348
11
 -65.489
21
 155.548
31
 -13.362
39
 0
62
  5
 0
LINE
8
default
6
CONTINUOUS
10
  22.290
20
 145.054
30
 -27.732
11
  65.677
21
 146.940
31
 -15.135
39
 0
62
  5
 0
LINE
8
default
6
CONTINUOUS
10
 -22.290
20
 145.054
30
 -27.732
11
 -65.677
21
 146.940
31
 -15.135
39
 0
62
  5
 0
LINE
8
default
6
CONTINUOUS
10
  22.336
20
 136.319
30
 -29.064
11
  65.861
21
 138.368
31
 -16.863
39
 0
62
  5
 0
LINE
8
default
6
CONTINUOUS
10
 -22.336
20
 136.319
30
 -29.064
11
 -65.861
21
 138.368
31
 -16.863
39
 0
62
  5
 0
LINE
8
default
6
CONTINUOUS
10
  22.379
20
 127.637
30
 -30.339
11
  66.039
21
 129.845
31
 -18.541
39
 0
62
  5
 0
LINE
8
default
6
CONTINUOUS
10
 -22.379
20
 127.637
30
 -30.339
11
 -66.039
21
 129.845
31
 -18.541
39
 0
62
  5
 0
LINE
8
default
6
CONTINUOUS
10
  22.420
20
 119.034
30
 -31.548
11
  66.211
21
 121.396
31
 -20.162
39
 0
62
  5
 0
LINE
8
default
6
CONTINUOUS
10
 -22.420
20
 119.034
30
 -31.548
11
 -66.211
21
 121.396
31
 -20.162
39
 0
62
  5
 0
LINE
8
default
6
CONTINUOUS
10
  22.459
20
 110.523
30
 -32.684
11
  66.376
21
 113.034
31
 -21.718
39
 0
62
  5
 0
LINE
8
default
6
CONTINUOUS
10
 -22.459
20
 110.523
30
 -32.684
11
 -66.376
21
 113.034
31
 -21.718
39
 0
62
  5
 0
LINE
8
default
6
CONTINUOUS
10
  22.495
20
 102.147
30
 -33.744
11
  66.534
21
 104.800
31
 -23.204
39
 0
62
  5
 0
LINE
8
default
6
CONTINUOUS
10
 -22.495
20
 102.147
30
 -33.744
11
 -66.534
21
 104.800
31
 -23.204
39
 0
62
  5
 0
LINE
8
default
6
CONTINUOUS
10
  22.528
20
  93.963
30
 -34.708
11
  66.682
21
  96.751
31
 -24.599
39
 0
62
  5
 0
LINE
8
default
6
CONTINUOUS
10
 -22.528
20
  93.963
30
 -34.708
11
 -66.682
21
  96.751
31
 -24.599
39
 0
62
  5
 0
LINE
8
default
6
CONTINUOUS
10
  22.557
20
  86.038
30
 -35.552
11
  66.818
21
  88.951
31
 -25.879
39
 0
62
  5
 0
LINE
8
default
6
CONTINUOUS
10
 -22.557
20
  86.038
30
 -35.552
11
 -66.818
21
  88.951
31
 -25.879
39
 0
62
  5
 0
LINE
8
default
6
CONTINUOUS
10
  22.581
20
  78.454
30
 -36.254
11
  66.939
21
  81.480
31
 -27.021
39
 0
62
  5
 0
LINE
8
default
6
CONTINUOUS
10
 -22.581
20
  78.454
30
 -36.254
11
 -66.939
21
  81.480
31
 -27.021
39
 0
62
  5
 0
LINE
8
default
6
CONTINUOUS
10
  22.599
20
  71.266
30
 -36.801
11
  67.044
21
  74.392
31
 -28.009
39
 0
62
  5
 0
LINE
8
default
6
CONTINUOUS
10
 -22.599
20
  71.266
30
 -36.801
11
 -67.044
21
  74.392
31
 -28.009
39
 0
62
  5
 0
LINE
8
default
6
CONTINUOUS
10
  22.611
20
  64.506
30
 -37.160
11
  67.130
21
  67.717
31
 -28.817
39
 0
62
  5
 0
LINE
8
default
6
CONTINUOUS
10
 -22.611
20
  64.506
30
 -37.160
11
 -67.130
21
  67.717
31
 -28.817
39
 0
62
  5
 0
LINE
8
default
6
CONTINUOUS
10
  22.617
20
  58.180
30
 -37.312
11
  67.195
21
  61.458
31
 -29.427
39
 0
62
  5
 0
LINE
8
default
6
CONTINUOUS
10
 -22.617
20
  58.180
30
 -37.312
11
 -67.195
21
  61.458
31
 -29.427
39
 0
62
  5
 0
LINE
8
default
6
CONTINUOUS
10
  22.614
20
  52.291
30
 -37.234
11
  67.237
21
  55.618
31
 -29.822
39
 0
62
  5
 0
LINE
8
default
6
CONTINUOUS
10
 -22.614
20
  52.291
30
 -37.234
11
 -67.237
21
  55.618
31
 -29.822
39
 0
62
  5
 0
LINE
8
default
6
CONTINUOUS
10
  22.603
20
  46.835
30
 -36.927
11
  67.256
21
  50.193
31
 -30.003
39
 0
62
  5
 0
LINE
8
default
6
CONTINUOUS
10
 -22.603
20
  46.835
30
 -36.927
11
 -67.256
21
  50.193
31
 -30.003
39
 0
62
  5
 0
LINE
8
default
6
CONTINUOUS
10
  22.585
20
  41.800
30
 -36.380
11
  67.251
21
  45.170
31
 -29.963
39
 0
62
  5
 0
LINE
8
default
6
CONTINUOUS
10
 -22.585
20
  41.800
30
 -36.380
11
 -67.251
21
  45.170
31
 -29.963
39
 0
62
  5
 0
LINE
8
default
6
CONTINUOUS
10
  22.559
20
  37.175
30
 -35.607
11
  67.225
21
  40.539
31
 -29.711
39
 0
62
  5
 0
LINE
8
default
6
CONTINUOUS
10
 -22.559
20
  37.175
30
 -35.607
11
 -67.225
21
  40.539
31
 -29.711
39
 0
62
  5
 0
LINE
8
default
6
CONTINUOUS
10
  22.525
20
  32.934
30
 -34.611
11
  67.176
21
  36.275
31
 -29.255
39
 0
62
  5
 0
LINE
8
default
6
CONTINUOUS
10
 -22.525
20
  32.934
30
 -34.611
11
 -67.176
21
  36.275
31
 -29.255
39
 0
62
  5
 0
LINE
8
default
6
CONTINUOUS
10
  22.483
20
  29.057
30
 -33.398
11
  67.107
21
  32.358
31
 -28.599
39
 0
62
  5
 0
LINE
8
default
6
CONTINUOUS
10
 -22.483
20
  29.057
30
 -33.398
11
 -67.107
21
  32.358
31
 -28.599
39
 0
62
  5
 0
LINE
8
default
6
CONTINUOUS
10
  22.435
20
  25.516
30
 -31.982
11
  67.017
21
  28.760
31
 -27.756
39
 0
62
  5
 0
LINE
8
default
6
CONTINUOUS
10
 -22.435
20
  25.516
30
 -31.982
11
 -67.017
21
  28.760
31
 -27.756
39
 0
62
  5
 0
LINE
8
default
6
CONTINUOUS
10
  22.381
20
  22.297
30
 -30.394
11
  66.911
21
  25.472
31
 -26.753
39
 0
62
  5
 0
LINE
8
default
6
CONTINUOUS
10
 -22.381
20
  22.297
30
 -30.394
11
 -66.911
21
  25.472
31
 -26.753
39
 0
62
  5
 0
LINE
8
default
6
CONTINUOUS
10
  22.323
20
  19.391
30
 -28.686
11
  66.792
21
  22.485
31
 -25.632
39
 0
62
  5
 0
LINE
8
default
6
CONTINUOUS
10
 -22.323
20
  19.391
30
 -28.686
11
 -66.792
21
  22.485
31
 -25.632
39
 0
62
  5
 0
LINE
8
default
6
CONTINUOUS
10
  22.262
20
  16.775
30
 -26.901
11
  66.664
21
  19.782
31
 -24.426
39
 0
62
  5
 0
LINE
8
default
6
CONTINUOUS
10
 -22.262
20
  16.775
30
 -26.901
11
 -66.664
21
  19.782
31
 -24.426
39
 0
62
  5
 0
LINE
8
default
6
CONTINUOUS
10
  22.200
20
  14.440
30
 -25.083
11
  66.531
21
  17.355
31
 -23.174
39
 0
62
  5
 0
LINE
8
default
6
CONTINUOUS
10
 -22.200
20
  14.440
30
 -25.083
11
 -66.531
21
  17.355
31
 -23.174
39
 0
62
  5
 0
LINE
8
default
6
CONTINUOUS
10
  22.138
20
  12.354
30
 -23.249
11
  66.394
21
  15.174
31
 -21.889
39
 0
62
  5
 0
LINE
8
default
6
CONTINUOUS
10
 -22.138
20
  12.354
30
 -23.249
11
 -66.394
21
  15.174
31
 -21.889
39
 0
62
  5
 0
LINE
8
default
6
CONTINUOUS
10
  22.076
20
  10.502
30
 -21.425
11
  66.257
21
  13.225
31
 -20.594
39
 0
62
  5
 0
LINE
8
default
6
CONTINUOUS
10
 -22.076
20
  10.502
30
 -21.425
11
 -66.257
21
  13.225
31
 -20.594
39
 0
62
  5
 0
LINE
8
default
6
CONTINUOUS
10
  22.014
20
   8.862
30
 -19.624
11
  66.119
21
  11.487
31
 -19.301
39
 0
62
  5
 0
LINE
8
default
6
CONTINUOUS
10
 -22.014
20
   8.862
30
 -19.624
11
 -66.119
21
  11.487
31
 -19.301
39
 0
62
  5
 0
LINE
8
default
6
CONTINUOUS
10
  21.954
20
   7.412
30
 -17.861
11
  65.984
21
   9.940
31
 -18.023
39
 0
62
  5
 0
LINE
8
default
6
CONTINUOUS
10
 -21.954
20
   7.412
30
 -17.861
11
 -65.984
21
   9.940
31
 -18.023
39
 0
62
  5
 0
LINE
8
default
6
CONTINUOUS
10
  21.895
20
   6.136
30
 -16.134
11
  65.850
21
   8.568
31
 -16.760
39
 0
62
  5
 0
LINE
8
default
6
CONTINUOUS
10
 -21.895
20
   6.136
30
 -16.134
11
 -65.850
21
   8.568
31
 -16.760
39
 0
62
  5
 0
LINE
8
default
6
CONTINUOUS
10
  21.838
20
   5.018
30
 -14.452
11
  65.718
21
   7.355
31
 -15.520
39
 0
62
  5
 0
LINE
8
default
6
CONTINUOUS
10
 -21.838
20
   5.018
30
 -14.452
11
 -65.718
21
   7.355
31
 -15.520
39
 0
62
  5
 0
LINE
8
default
6
CONTINUOUS
10
  21.782
20
   4.039
30
 -12.803
11
  65.588
21
   6.283
31
 -14.295
39
 0
62
  5
 0
LINE
8
default
6
CONTINUOUS
10
 -21.782
20
   4.039
30
 -12.803
11
 -65.588
21
   6.283
31
 -14.295
39
 0
62
  5
 0
LINE
8
default
6
CONTINUOUS
10
  21.727
20
   3.191
30
 -11.192
11
  65.460
21
   5.342
31
 -13.090
39
 0
62
  5
 0
LINE
8
default
6
CONTINUOUS
10
 -21.727
20
   3.191
30
 -11.192
11
 -65.460
21
   5.342
31
 -13.090
39
 0
62
  5
 0
LINE
8
default
6
CONTINUOUS
10
  21.674
20
   2.469
30
  -9.624
11
  65.335
21
   4.529
31
 -11.909
39
 0
62
  5
 0
LINE
8
default
6
CONTINUOUS
10
 -21.674
20
   2.469
30
  -9.624
11
 -65.335
21
   4.529
31
 -11.909
39
 0
62
  5
 0
LINE
8
default
6
CONTINUOUS
10
  21.622
20
   1.863
30
  -8.103
11
  65.212
21
   3.833
31
 -10.757
39
 0
62
  5
 0
LINE
8
default
6
CONTINUOUS
10
 -21.622
20
   1.863
30
  -8.103
11
 -65.212
21
   3.833
31
 -10.757
39
 0
62
  5
 0
LINE
8
default
6
CONTINUOUS
10
  21.572
20
   1.371
30
  -6.641
11
  65.094
21
   3.254
31
  -9.642
39
 0
62
  5
 0
LINE
8
default
6
CONTINUOUS
10
 -21.572
20
   1.371
30
  -6.641
11
 -65.094
21
   3.254
31
  -9.642
39
 0
62
  5
 0
LINE
8
default
6
CONTINUOUS
10
  21.524
20
   0.978
30
  -5.218
11
  64.978
21
   2.776
31
  -8.550
39
 0
62
  5
 0
LINE
8
default
6
CONTINUOUS
10
 -21.524
20
   0.978
30
  -5.218
11
 -64.978
21
   2.776
31
  -8.550
39
 0
62
  5
 0
LINE
8
default
6
CONTINUOUS
10
  21.478
20
   0.666
30
  -3.860
11
  64.867
21
   2.382
31
  -7.503
39
 0
62
  5
 0
LINE
8
default
6
CONTINUOUS
10
 -21.478
20
   0.666
30
  -3.860
11
 -64.867
21
   2.382
31
  -7.503
39
 0
62
  5
 0
LINE
8
default
6
CONTINUOUS
10
  21.430
20
   0.425
30
  -2.472
11
  64.753
21
   2.056
31
  -6.428
39
 0
62
  5
 0
LINE
8
default
6
CONTINUOUS
10
 -21.430
20
   0.425
30
  -2.472
11
 -64.753
21
   2.056
31
  -6.428
39
 0
62
  5
 0
LINE
8
default
6
CONTINUOUS
10
  21.390
20
   0.247
30
  -1.299
11
  64.656
21
   1.807
31
  -5.515
39
 0
62
  5
 0
LINE
8
default
6
CONTINUOUS
10
 -21.390
20
   0.247
30
  -1.299
11
 -64.656
21
   1.807
31
  -5.515
39
 0
62
  5
 0
LINE
8
default
6
CONTINUOUS
10
  21.333
20
   0.151
30
   0.377
11
  64.517
21
   1.607
31
  -4.201
39
 0
62
  5
 0
LINE
8
default
6
CONTINUOUS
10
 -21.333
20
   0.151
30
   0.377
11
 -64.517
21
   1.607
31
  -4.201
39
 0
62
  5
 0
LINE
8
default
6
CONTINUOUS
10
  21.329
20
   0.157
30
   0.510
11
  64.505
21
   1.605
31
  -4.096
39
 0
62
  5
 0
LINE
8
default
6
CONTINUOUS
10
 -21.329
20
   0.157
30
   0.510
11
 -64.505
21
   1.605
31
  -4.096
39
 0
62
  5
 0
LINE
8
default
6
CONTINUOUS
10
  21.265
20
   0.291
30
   2.385
11
  64.347
21
   1.620
31
  -2.607
39
 0
62
  5
 0
LINE
8
default
6
CONTINUOUS
10
 -21.265
20
   0.291
30
   2.385
11
 -64.347
21
   1.620
31
  -2.607
39
 0
62
  5
 0
LINE
8
default
6
CONTINUOUS
10
  21.237
20
   0.567
30
   3.220
11
  64.275
21
   1.842
31
  -1.927
39
 0
62
  5
 0
LINE
8
default
6
CONTINUOUS
10
 -21.237
20
   0.567
30
   3.220
11
 -64.275
21
   1.842
31
  -1.927
39
 0
62
  5
 0
LINE
8
default
6
CONTINUOUS
10
  21.201
20
   0.990
30
   4.252
11
  64.185
21
   2.196
31
  -1.080
39
 0
62
  5
 0
LINE
8
default
6
CONTINUOUS
10
 -21.201
20
   0.990
30
   4.252
11
 -64.185
21
   2.196
31
  -1.080
39
 0
62
  5
 0
LINE
8
default
6
CONTINUOUS
10
  21.169
20
   1.560
30
   5.189
11
  64.102
21
   2.704
31
  -0.296
39
 0
62
  5
 0
LINE
8
default
6
CONTINUOUS
10
 -21.169
20
   1.560
30
   5.189
11
 -64.102
21
   2.704
31
  -0.296
39
 0
62
  5
 0
LINE
8
default
6
CONTINUOUS
10
  21.140
20
   2.283
30
   6.066
11
  64.023
21
   3.365
31
   0.451
39
 0
62
  5
 0
LINE
8
default
6
CONTINUOUS
10
 -21.140
20
   2.283
30
   6.066
11
 -64.023
21
   3.365
31
   0.451
39
 0
62
  5
 0
LINE
8
default
6
CONTINUOUS
10
  21.112
20
   3.154
30
   6.865
11
  63.949
21
   4.178
31
   1.149
39
 0
62
  5
 0
LINE
8
default
6
CONTINUOUS
10
 -21.112
20
   3.154
30
   6.865
11
 -63.949
21
   4.178
31
   1.149
39
 0
62
  5
 0
LINE
8
default
6
CONTINUOUS
10
  21.087
20
   4.173
30
   7.622
11
  63.877
21
   5.140
31
   1.824
39
 0
62
  5
 0
LINE
8
default
6
CONTINUOUS
10
 -21.087
20
   4.173
30
   7.622
11
 -63.877
21
   5.140
31
   1.824
39
 0
62
  5
 0
LINE
8
default
6
CONTINUOUS
10
  63.837
20
   5.747
30
   2.198
11
  63.805
21
   6.240
31
   2.501
39
 0
62
  1
 0
LINE
8
default
6
CONTINUOUS
10
 -63.837
20
   5.747
30
   2.198
11
 -63.805
21
   6.240
31
   2.501
39
 0
62
  1
 0
LINE
8
default
6
CONTINUOUS
10
  63.805
20
   6.240
30
   2.501
11
  63.733
21
   7.461
31
   3.179
39
 0
62
  1
 0
LINE
8
default
6
CONTINUOUS
10
 -63.805
20
   6.240
30
   2.501
11
 -63.733
21
   7.461
31
   3.179
39
 0
62
  1
 0
LINE
8
default
6
CONTINUOUS
10
  63.733
20
   7.461
30
   3.179
11
  63.661
21
   8.815
31
   3.857
39
 0
62
  1
 0
LINE
8
default
6
CONTINUOUS
10
 -63.733
20
   7.461
30
   3.179
11
 -63.661
21
   8.815
31
   3.857
39
 0
62
  1
 0
LINE
8
default
6
CONTINUOUS
10
  63.661
20
   8.815
30
   3.857
11
  63.589
21
  10.327
31
   4.535
39
 0
62
  1
 0
LINE
8
default
6
CONTINUOUS
10
 -63.661
20
   8.815
30
   3.857
11
 -63.589
21
  10.327
31
   4.535
39
 0
62
  1
 0
LINE
8
default
6
CONTINUOUS
10
  63.589
20
  10.327
30
   4.535
11
  63.516
21
  12.015
31
   5.219
39
 0
62
  1
 0
LINE
8
default
6
CONTINUOUS
10
 -63.589
20
  10.327
30
   4.535
11
 -63.516
21
  12.015
31
   5.219
39
 0
62
  1
 0
LINE
8
default
6
CONTINUOUS
10
  63.516
20
  12.015
30
   5.219
11
  63.443
21
  13.914
31
   5.914
39
 0
62
  1
 0
LINE
8
default
6
CONTINUOUS
10
 -63.516
20
  12.015
30
   5.219
11
 -63.443
21
  13.914
31
   5.914
39
 0
62
  1
 0
LINE
8
default
6
CONTINUOUS
10
  63.443
20
  13.914
30
   5.914
11
  63.373
21
  15.854
31
   6.567
39
 0
62
  1
 0
LINE
8
default
6
CONTINUOUS
10
 -63.443
20
  13.914
30
   5.914
11
 -63.373
21
  15.854
31
   6.567
39
 0
62
  1
 0
LINE
8
default
6
CONTINUOUS
10
  63.373
20
  15.854
30
   6.567
11
  63.272
21
  18.973
31
   7.524
39
 0
62
  1
 0
LINE
8
default
6
CONTINUOUS
10
 -63.373
20
  15.854
30
   6.567
11
 -63.272
21
  18.973
31
   7.524
39
 0
62
  1
 0
LINE
8
default
6
CONTINUOUS
10
  63.272
20
  18.973
30
   7.524
11
  63.203
21
  21.256
31
   8.173
39
 0
62
  3
 0
LINE
8
default
6
CONTINUOUS
10
 -63.272
20
  18.973
30
   7.524
11
 -63.203
21
  21.256
31
   8.173
39
 0
62
  3
 0
LINE
8
default
6
CONTINUOUS
10
  63.203
20
  21.256
30
   8.173
11
  63.114
21
  24.427
31
   9.011
39
 0
62
  3
 0
LINE
8
default
6
CONTINUOUS
10
 -63.203
20
  21.256
30
   8.173
11
 -63.114
21
  24.427
31
   9.011
39
 0
62
  3
 0
LINE
8
default
6
CONTINUOUS
10
  63.114
20
  24.427
30
   9.011
11
  63.019
21
  28.070
31
   9.907
39
 0
62
  3
 0
LINE
8
default
6
CONTINUOUS
10
 -63.114
20
  24.427
30
   9.011
11
 -63.019
21
  28.070
31
   9.907
39
 0
62
  3
 0
LINE
8
default
6
CONTINUOUS
10
  63.019
20
  28.070
30
   9.907
11
  62.917
21
  32.280
31
  10.868
39
 0
62
  3
 0
LINE
8
default
6
CONTINUOUS
10
 -63.019
20
  28.070
30
   9.907
11
 -62.917
21
  32.280
31
  10.868
39
 0
62
  3
 0
LINE
8
default
6
CONTINUOUS
10
  62.917
20
  32.280
30
  10.868
11
  62.808
21
  37.136
31
  11.892
39
 0
62
  3
 0
LINE
8
default
6
CONTINUOUS
10
 -62.917
20
  32.280
30
  10.868
11
 -62.808
21
  37.136
31
  11.892
39
 0
62
  3
 0
LINE
8
default
6
CONTINUOUS
10
  62.808
20
  37.136
30
  11.892
11
  62.694
21
  42.692
31
  12.969
39
 0
62
  3
 0
LINE
8
default
6
CONTINUOUS
10
 -62.808
20
  37.136
30
  11.892
11
 -62.694
21
  42.692
31
  12.969
39
 0
62
  3
 0
LINE
8
default
6
CONTINUOUS
10
  62.694
20
  42.692
30
  12.969
11
  62.578
21
  48.942
31
  14.061
39
 0
62
  3
 0
LINE
8
default
6
CONTINUOUS
10
 -62.694
20
  42.692
30
  12.969
11
 -62.578
21
  48.942
31
  14.061
39
 0
62
  3
 0
LINE
8
default
6
CONTINUOUS
10
  62.578
20
  48.942
30
  14.061
11
  62.463
21
  55.802
31
  15.142
39
 0
62
  3
 0
LINE
8
default
6
CONTINUOUS
10
 -62.578
20
  48.942
30
  14.061
11
 -62.463
21
  55.802
31
  15.142
39
 0
62
  3
 0
LINE
8
default
6
CONTINUOUS
10
  62.463
20
  55.802
30
  15.142
11
  62.353
21
  63.119
31
  16.182
39
 0
62
  3
 0
LINE
8
default
6
CONTINUOUS
10
 -62.463
20
  55.802
30
  15.142
11
 -62.353
21
  63.119
31
  16.182
39
 0
62
  3
 0
LINE
8
default
6
CONTINUOUS
10
  62.353
20
  63.119
30
  16.182
11
  62.248
21
  70.788
31
  17.167
39
 0
62
  3
 0
LINE
8
default
6
CONTINUOUS
10
 -62.353
20
  63.119
30
  16.182
11
 -62.248
21
  70.788
31
  17.167
39
 0
62
  3
 0
LINE
8
default
6
CONTINUOUS
10
  62.248
20
  70.788
30
  17.167
11
  62.151
21
  78.718
31
  18.083
39
 0
62
  3
 0
LINE
8
default
6
CONTINUOUS
10
 -62.248
20
  70.788
30
  17.167
11
 -62.151
21
  78.718
31
  18.083
39
 0
62
  3
 0
LINE
8
default
6
CONTINUOUS
10
  62.151
20
  78.718
30
  18.083
11
  62.062
21
  86.823
31
  18.923
39
 0
62
  3
 0
LINE
8
default
6
CONTINUOUS
10
 -62.151
20
  78.718
30
  18.083
11
 -62.062
21
  86.823
31
  18.923
39
 0
62
  3
 0
LINE
8
default
6
CONTINUOUS
10
  62.062
20
  86.823
30
  18.923
11
  61.982
21
  95.022
31
  19.672
39
 0
62
  3
 0
LINE
8
default
6
CONTINUOUS
10
 -62.062
20
  86.823
30
  18.923
11
 -61.982
21
  95.022
31
  19.672
39
 0
62
  3
 0
LINE
8
default
6
CONTINUOUS
10
  61.982
20
  95.022
30
  19.672
11
  61.913
21
 103.252
31
  20.324
39
 0
62
  3
 0
LINE
8
default
6
CONTINUOUS
10
 -61.982
20
  95.022
30
  19.672
11
 -61.913
21
 103.252
31
  20.324
39
 0
62
  3
 0
LINE
8
default
6
CONTINUOUS
10
  61.913
20
 103.252
30
  20.324
11
  61.855
21
 111.493
31
  20.869
39
 0
62
  3
 0
LINE
8
default
6
CONTINUOUS
10
 -61.913
20
 103.252
30
  20.324
11
 -61.855
21
 111.493
31
  20.869
39
 0
62
  3
 0
LINE
8
default
6
CONTINUOUS
10
  61.855
20
 111.493
30
  20.869
11
  61.807
21
 119.756
31
  21.318
39
 0
62
  3
 0
LINE
8
default
6
CONTINUOUS
10
 -61.855
20
 111.493
30
  20.869
11
 -61.807
21
 119.756
31
  21.318
39
 0
62
  3
 0
LINE
8
default
6
CONTINUOUS
10
  61.807
20
 119.756
30
  21.318
11
  61.769
21
 128.067
31
  21.678
39
 0
62
  3
 0
LINE
8
default
6
CONTINUOUS
10
 -61.807
20
 119.756
30
  21.318
11
 -61.769
21
 128.067
31
  21.678
39
 0
62
  3
 0
LINE
8
default
6
CONTINUOUS
10
  61.769
20
 128.067
30
  21.678
11
  61.739
21
 136.462
31
  21.966
39
 0
62
  3
 0
LINE
8
default
6
CONTINUOUS
10
 -61.769
20
 128.067
30
  21.678
11
 -61.739
21
 136.462
31
  21.966
39
 0
62
  3
 0
LINE
8
default
6
CONTINUOUS
10
  61.739
20
 136.462
30
  21.966
11
  61.715
21
 144.950
31
  22.186
39
 0
62
  3
 0
LINE
8
default
6
CONTINUOUS
10
 -61.739
20
 136.462
30
  21.966
11
 -61.715
21
 144.950
31
  22.186
39
 0
62
  3
 0
LINE
8
default
6
CONTINUOUS
10
  61.715
20
 144.950
30
  22.186
11
  61.699
21
 153.507
31
  22.340
39
 0
62
  3
 0
LINE
8
default
6
CONTINUOUS
10
 -61.715
20
 144.950
30
  22.186
11
 -61.699
21
 153.507
31
  22.340
39
 0
62
  3
 0
LINE
8
default
6
CONTINUOUS
10
  61.699
20
 153.507
30
  22.340
11
  61.689
21
 162.106
31
  22.433
39
 0
62
  3
 0
LINE
8
default
6
CONTINUOUS
10
 -61.699
20
 153.507
30
  22.340
11
 -61.689
21
 162.106
31
  22.433
39
 0
62
  3
 0
LINE
8
default
6
CONTINUOUS
10
  61.689
20
 162.106
30
  22.433
11
  61.686
21
 170.722
31
  22.463
39
 0
62
  3
 0
LINE
8
default
6
CONTINUOUS
10
 -61.689
20
 162.106
30
  22.433
11
 -61.686
21
 170.722
31
  22.463
39
 0
62
  3
 0
LINE
8
default
6
CONTINUOUS
10
  61.686
20
 170.722
30
  22.463
11
  61.689
21
 179.352
31
  22.432
39
 0
62
  3
 0
LINE
8
default
6
CONTINUOUS
10
 -61.686
20
 170.722
30
  22.463
11
 -61.689
21
 179.352
31
  22.432
39
 0
62
  3
 0
LINE
8
default
6
CONTINUOUS
10
  61.689
20
 179.352
30
  22.432
11
  61.698
21
 188.009
31
  22.345
39
 0
62
  3
 0
LINE
8
default
6
CONTINUOUS
10
 -61.689
20
 179.352
30
  22.432
11
 -61.698
21
 188.009
31
  22.345
39
 0
62
  3
 0
LINE
8
default
6
CONTINUOUS
10
  61.698
20
 188.009
30
  22.345
11
  61.713
21
 196.699
31
  22.204
39
 0
62
  3
 0
LINE
8
default
6
CONTINUOUS
10
 -61.698
20
 188.009
30
  22.345
11
 -61.713
21
 196.699
31
  22.204
39
 0
62
  3
 0
LINE
8
default
6
CONTINUOUS
10
  61.713
20
 196.699
30
  22.204
11
  61.734
21
 205.417
31
  22.008
39
 0
62
  3
 0
LINE
8
default
6
CONTINUOUS
10
 -61.713
20
 196.699
30
  22.204
11
 -61.734
21
 205.417
31
  22.008
39
 0
62
  3
 0
LINE
8
default
6
CONTINUOUS
10
  61.734
20
 205.417
30
  22.008
11
  61.760
21
 214.145
31
  21.767
39
 0
62
  3
 0
LINE
8
default
6
CONTINUOUS
10
 -61.734
20
 205.417
30
  22.008
11
 -61.760
21
 214.145
31
  21.767
39
 0
62
  3
 0
LINE
8
default
6
CONTINUOUS
10
  61.760
20
 214.145
30
  21.767
11
  61.790
21
 222.850
31
  21.481
39
 0
62
  3
 0
LINE
8
default
6
CONTINUOUS
10
 -61.760
20
 214.145
30
  21.767
11
 -61.790
21
 222.850
31
  21.481
39
 0
62
  3
 0
LINE
8
default
6
CONTINUOUS
10
  61.790
20
 222.850
30
  21.481
11
  61.824
21
 231.519
31
  21.161
39
 0
62
  3
 0
LINE
8
default
6
CONTINUOUS
10
 -61.790
20
 222.850
30
  21.481
11
 -61.824
21
 231.519
31
  21.161
39
 0
62
  3
 0
LINE
8
default
6
CONTINUOUS
10
  61.824
20
 231.519
30
  21.161
11
  61.861
21
 240.194
31
  20.810
39
 0
62
  3
 0
LINE
8
default
6
CONTINUOUS
10
 -61.824
20
 231.519
30
  21.161
11
 -61.861
21
 240.194
31
  20.810
39
 0
62
  3
 0
LINE
8
default
6
CONTINUOUS
10
  61.861
20
 240.194
30
  20.810
11
  61.901
21
 248.938
31
  20.435
39
 0
62
  3
 0
LINE
8
default
6
CONTINUOUS
10
 -61.861
20
 240.194
30
  20.810
11
 -61.901
21
 248.938
31
  20.435
39
 0
62
  3
 0
LINE
8
default
6
CONTINUOUS
10
  61.901
20
 248.938
30
  20.435
11
  61.944
21
 257.757
31
  20.032
39
 0
62
  3
 0
LINE
8
default
6
CONTINUOUS
10
 -61.901
20
 248.938
30
  20.435
11
 -61.944
21
 257.757
31
  20.032
39
 0
62
  3
 0
LINE
8
default
6
CONTINUOUS
10
  61.944
20
 257.757
30
  20.032
11
  61.988
21
 266.332
31
  19.620
39
 0
62
  3
 0
LINE
8
default
6
CONTINUOUS
10
 -61.944
20
 257.757
30
  20.032
11
 -61.988
21
 266.332
31
  19.620
39
 0
62
  3
 0
LINE
8
default
6
CONTINUOUS
10
  61.988
20
 266.332
30
  19.620
11
  62.029
21
 274.174
31
  19.230
39
 0
62
  3
 0
LINE
8
default
6
CONTINUOUS
10
 -61.988
20
 266.332
30
  19.620
11
 -62.029
21
 274.174
31
  19.230
39
 0
62
  3
 0
LINE
8
default
6
CONTINUOUS
10
  62.029
20
 274.174
30
  19.230
11
  62.066
21
 280.982
31
  18.877
39
 0
62
  3
 0
LINE
8
default
6
CONTINUOUS
10
 -62.029
20
 274.174
30
  19.230
11
 -62.066
21
 280.982
31
  18.877
39
 0
62
  3
 0
LINE
8
default
6
CONTINUOUS
10
  62.066
20
 280.982
30
  18.877
11
  62.099
21
 286.788
31
  18.569
39
 0
62
  3
 0
LINE
8
default
6
CONTINUOUS
10
 -62.066
20
 280.982
30
  18.877
11
 -62.099
21
 286.788
31
  18.569
39
 0
62
  3
 0
LINE
8
default
6
CONTINUOUS
10
  62.099
20
 286.788
30
  18.569
11
  62.119
21
 290.194
31
  18.384
39
 0
62
  3
 0
LINE
8
default
6
CONTINUOUS
10
 -62.099
20
 286.788
30
  18.569
11
 -62.119
21
 290.194
31
  18.384
39
 0
62
  3
 0
LINE
8
default
6
CONTINUOUS
10
  20.889
20
  18.500
30
  13.439
11
  63.272
21
  18.973
31
   7.524
39
 0
62
  3
 0
LINE
8
default
6
CONTINUOUS
10
 -20.889
20
  18.500
30
  13.439
11
 -63.272
21
  18.973
31
   7.524
39
 0
62
  3
 0
LINE
8
default
6
CONTINUOUS
10
  20.868
20
  20.841
30
  14.032
11
  63.203
21
  21.256
31
   8.173
39
 0
62
  3
 0
LINE
8
default
6
CONTINUOUS
10
 -20.868
20
  20.841
30
  14.032
11
 -63.203
21
  21.256
31
   8.173
39
 0
62
  3
 0
LINE
8
default
6
CONTINUOUS
10
  20.843
20
  24.089
30
  14.776
11
  63.114
21
  24.427
31
   9.011
39
 0
62
  3
 0
LINE
8
default
6
CONTINUOUS
10
 -20.843
20
  24.089
30
  14.776
11
 -63.114
21
  24.427
31
   9.011
39
 0
62
  3
 0
LINE
8
default
6
CONTINUOUS
10
  20.817
20
  27.814
30
  15.546
11
  63.019
21
  28.070
31
   9.907
39
 0
62
  3
 0
LINE
8
default
6
CONTINUOUS
10
 -20.817
20
  27.814
30
  15.546
11
 -63.019
21
  28.070
31
   9.907
39
 0
62
  3
 0
LINE
8
default
6
CONTINUOUS
10
  20.790
20
  32.113
30
  16.341
11
  62.917
21
  32.280
31
  10.868
39
 0
62
  3
 0
LINE
8
default
6
CONTINUOUS
10
 -20.790
20
  32.113
30
  16.341
11
 -62.917
21
  32.280
31
  10.868
39
 0
62
  3
 0
LINE
8
default
6
CONTINUOUS
10
  20.762
20
  37.064
30
  17.153
11
  62.808
21
  37.136
31
  11.892
39
 0
62
  3
 0
LINE
8
default
6
CONTINUOUS
10
 -20.762
20
  37.064
30
  17.153
11
 -62.808
21
  37.136
31
  11.892
39
 0
62
  3
 0
LINE
8
default
6
CONTINUOUS
10
  20.735
20
  42.723
30
  17.961
11
  62.694
21
  42.692
31
  12.969
39
 0
62
  3
 0
LINE
8
default
6
CONTINUOUS
10
 -20.735
20
  42.723
30
  17.961
11
 -62.694
21
  42.692
31
  12.969
39
 0
62
  3
 0
LINE
8
default
6
CONTINUOUS
10
  20.709
20
  49.078
30
  18.722
11
  62.578
21
  48.942
31
  14.061
39
 0
62
  3
 0
LINE
8
default
6
CONTINUOUS
10
 -20.709
20
  49.078
30
  18.722
11
 -62.578
21
  48.942
31
  14.061
39
 0
62
  3
 0
LINE
8
default
6
CONTINUOUS
10
  20.685
20
  56.045
30
  19.407
11
  62.463
21
  55.802
31
  15.142
39
 0
62
  3
 0
LINE
8
default
6
CONTINUOUS
10
 -20.685
20
  56.045
30
  19.407
11
 -62.463
21
  55.802
31
  15.142
39
 0
62
  3
 0
LINE
8
default
6
CONTINUOUS
10
  20.665
20
  63.466
30
  19.996
11
  62.353
21
  63.119
31
  16.182
39
 0
62
  3
 0
LINE
8
default
6
CONTINUOUS
10
 -20.665
20
  63.466
30
  19.996
11
 -62.353
21
  63.119
31
  16.182
39
 0
62
  3
 0
LINE
8
default
6
CONTINUOUS
10
  20.649
20
  71.236
30
  20.481
11
  62.248
21
  70.788
31
  17.167
39
 0
62
  3
 0
LINE
8
default
6
CONTINUOUS
10
 -20.649
20
  71.236
30
  20.481
11
 -62.248
21
  70.788
31
  17.167
39
 0
62
  3
 0
LINE
8
default
6
CONTINUOUS
10
  20.636
20
  79.263
30
  20.853
11
  62.151
21
  78.718
31
  18.083
39
 0
62
  3
 0
LINE
8
default
6
CONTINUOUS
10
 -20.636
20
  79.263
30
  20.853
11
 -62.151
21
  78.718
31
  18.083
39
 0
62
  3
 0
LINE
8
default
6
CONTINUOUS
10
  20.627
20
  87.459
30
  21.112
11
  62.062
21
  86.823
31
  18.923
39
 0
62
  3
 0
LINE
8
default
6
CONTINUOUS
10
 -20.627
20
  87.459
30
  21.112
11
 -62.062
21
  86.823
31
  18.923
39
 0
62
  3
 0
LINE
8
default
6
CONTINUOUS
10
  20.623
20
  95.742
30
  21.248
11
  61.982
21
  95.022
31
  19.672
39
 0
62
  3
 0
LINE
8
default
6
CONTINUOUS
10
 -20.623
20
  95.742
30
  21.248
11
 -61.982
21
  95.022
31
  19.672
39
 0
62
  3
 0
LINE
8
default
6
CONTINUOUS
10
  20.622
20
 104.049
30
  21.257
11
  61.913
21
 103.252
31
  20.324
39
 0
62
  3
 0
LINE
8
default
6
CONTINUOUS
10
 -20.622
20
 104.049
30
  21.257
11
 -61.913
21
 103.252
31
  20.324
39
 0
62
  3
 0
LINE
8
default
6
CONTINUOUS
10
  20.627
20
 112.358
30
  21.131
11
  61.855
21
 111.493
31
  20.869
39
 0
62
  3
 0
LINE
8
default
6
CONTINUOUS
10
 -20.627
20
 112.358
30
  21.131
11
 -61.855
21
 111.493
31
  20.869
39
 0
62
  3
 0
LINE
8
default
6
CONTINUOUS
10
  20.635
20
 120.682
30
  20.882
11
  61.807
21
 119.756
31
  21.318
39
 0
62
  3
 0
LINE
8
default
6
CONTINUOUS
10
 -20.635
20
 120.682
30
  20.882
11
 -61.807
21
 119.756
31
  21.318
39
 0
62
  3
 0
LINE
8
default
6
CONTINUOUS
10
  20.648
20
 129.047
30
  20.517
11
  61.769
21
 128.067
31
  21.678
39
 0
62
  3
 0
LINE
8
default
6
CONTINUOUS
10
 -20.648
20
 129.047
30
  20.517
11
 -61.769
21
 128.067
31
  21.678
39
 0
62
  3
 0
LINE
8
default
6
CONTINUOUS
10
  20.664
20
 137.490
30
  20.051
11
  61.739
21
 136.462
31
  21.966
39
 0
62
  3
 0
LINE
8
default
6
CONTINUOUS
10
 -20.664
20
 137.490
30
  20.051
11
 -61.739
21
 136.462
31
  21.966
39
 0
62
  3
 0
LINE
8
default
6
CONTINUOUS
10
  20.683
20
 146.021
30
  19.491
11
  61.715
21
 144.950
31
  22.186
39
 0
62
  3
 0
LINE
8
default
6
CONTINUOUS
10
 -20.683
20
 146.021
30
  19.491
11
 -61.715
21
 144.950
31
  22.186
39
 0
62
  3
 0
LINE
8
default
6
CONTINUOUS
10
  20.705
20
 154.616
30
  18.841
11
  61.699
21
 153.507
31
  22.340
39
 0
62
  3
 0
LINE
8
default
6
CONTINUOUS
10
 -20.705
20
 154.616
30
  18.841
11
 -61.699
21
 153.507
31
  22.340
39
 0
62
  3
 0
LINE
8
default
6
CONTINUOUS
10
  20.730
20
 163.248
30
  18.110
11
  61.689
21
 162.106
31
  22.433
39
 0
62
  3
 0
LINE
8
default
6
CONTINUOUS
10
 -20.730
20
 163.248
30
  18.110
11
 -61.689
21
 162.106
31
  22.433
39
 0
62
  3
 0
LINE
8
default
6
CONTINUOUS
10
  20.757
20
 171.893
30
  17.298
11
  61.686
21
 170.722
31
  22.463
39
 0
62
  3
 0
LINE
8
default
6
CONTINUOUS
10
 -20.757
20
 171.893
30
  17.298
11
 -61.686
21
 170.722
31
  22.463
39
 0
62
  3
 0
LINE
8
default
6
CONTINUOUS
10
  20.787
20
 180.546
30
  16.409
11
  61.689
21
 179.352
31
  22.432
39
 0
62
  3
 0
LINE
8
default
6
CONTINUOUS
10
 -20.787
20
 180.546
30
  16.409
11
 -61.689
21
 179.352
31
  22.432
39
 0
62
  3
 0
LINE
8
default
6
CONTINUOUS
10
  20.820
20
 189.222
30
  15.445
11
  61.698
21
 188.009
31
  22.345
39
 0
62
  3
 0
LINE
8
default
6
CONTINUOUS
10
 -20.820
20
 189.222
30
  15.445
11
 -61.698
21
 188.009
31
  22.345
39
 0
62
  3
 0
LINE
8
default
6
CONTINUOUS
10
  20.856
20
 197.928
30
  14.410
11
  61.713
21
 196.699
31
  22.204
39
 0
62
  3
 0
LINE
8
default
6
CONTINUOUS
10
 -20.856
20
 197.928
30
  14.410
11
 -61.713
21
 196.699
31
  22.204
39
 0
62
  3
 0
LINE
8
default
6
CONTINUOUS
10
  20.893
20
 206.657
30
  13.304
11
  61.734
21
 205.417
31
  22.008
39
 0
62
  3
 0
LINE
8
default
6
CONTINUOUS
10
 -20.893
20
 206.657
30
  13.304
11
 -61.734
21
 205.417
31
  22.008
39
 0
62
  3
 0
LINE
8
default
6
CONTINUOUS
10
  20.933
20
 215.391
30
  12.140
11
  61.760
21
 214.145
31
  21.767
39
 0
62
  3
 0
LINE
8
default
6
CONTINUOUS
10
 -20.933
20
 215.391
30
  12.140
11
 -61.760
21
 214.145
31
  21.767
39
 0
62
  3
 0
LINE
8
default
6
CONTINUOUS
10
  20.974
20
 224.100
30
  10.921
11
  61.790
21
 222.850
31
  21.481
39
 0
62
  3
 0
LINE
8
default
6
CONTINUOUS
10
 -20.974
20
 224.100
30
  10.921
11
 -61.790
21
 222.850
31
  21.481
39
 0
62
  3
 0
LINE
8
default
6
CONTINUOUS
10
  21.017
20
 232.770
30
   9.662
11
  61.824
21
 231.519
31
  21.161
39
 0
62
  3
 0
LINE
8
default
6
CONTINUOUS
10
 -21.017
20
 232.770
30
   9.662
11
 -61.824
21
 231.519
31
  21.161
39
 0
62
  3
 0
LINE
8
default
6
CONTINUOUS
10
  21.061
20
 241.444
30
   8.365
11
  61.861
21
 240.194
31
  20.810
39
 0
62
  3
 0
LINE
8
default
6
CONTINUOUS
10
 -21.061
20
 241.444
30
   8.365
11
 -61.861
21
 240.194
31
  20.810
39
 0
62
  3
 0
LINE
8
default
6
CONTINUOUS
10
  21.107
20
 250.184
30
   7.030
11
  61.901
21
 248.938
31
  20.435
39
 0
62
  3
 0
LINE
8
default
6
CONTINUOUS
10
 -21.107
20
 250.184
30
   7.030
11
 -61.901
21
 248.938
31
  20.435
39
 0
62
  3
 0
LINE
8
default
6
CONTINUOUS
10
  21.154
20
 258.997
30
   5.652
11
  61.944
21
 257.757
31
  20.032
39
 0
62
  3
 0
LINE
8
default
6
CONTINUOUS
10
 -21.154
20
 258.997
30
   5.652
11
 -61.944
21
 257.757
31
  20.032
39
 0
62
  3
 0
LINE
8
default
6
CONTINUOUS
10
  21.200
20
 267.566
30
   4.287
11
  61.988
21
 266.332
31
  19.620
39
 0
62
  3
 0
LINE
8
default
6
CONTINUOUS
10
 -21.200
20
 267.566
30
   4.287
11
 -61.988
21
 266.332
31
  19.620
39
 0
62
  3
 0
LINE
8
default
6
CONTINUOUS
10
  21.243
20
 275.401
30
   3.023
11
  62.029
21
 274.174
31
  19.230
39
 0
62
  3
 0
LINE
8
default
6
CONTINUOUS
10
 -21.243
20
 275.401
30
   3.023
11
 -62.029
21
 274.174
31
  19.230
39
 0
62
  3
 0
LINE
8
default
6
CONTINUOUS
10
  21.281
20
 282.201
30
   1.907
11
  62.066
21
 280.982
31
  18.877
39
 0
62
  3
 0
LINE
8
default
6
CONTINUOUS
10
 -21.281
20
 282.201
30
   1.907
11
 -62.066
21
 280.982
31
  18.877
39
 0
62
  3
 0
LINE
8
default
6
CONTINUOUS
10
  21.314
20
 288.000
30
   0.946
11
  62.099
21
 286.788
31
  18.569
39
 0
62
  3
 0
LINE
8
default
6
CONTINUOUS
10
 -21.314
20
 288.000
30
   0.946
11
 -62.099
21
 286.788
31
  18.569
39
 0
62
  3
 0
LINE
8
default
6
CONTINUOUS
10
  21.333
20
 291.402
30
   0.377
11
  62.119
21
 290.194
31
  18.384
39
 0
62
  5
 0
LINE
8
default
6
CONTINUOUS
10
 -21.333
20
 291.402
30
   0.377
11
 -62.119
21
 290.194
31
  18.384
39
 0
62
  5
 0
LINE
8
default
6
CONTINUOUS
10
  21.333
20
 291.402
30
   0.377
11
 -21.333
21
 291.402
31
   0.377
39
 0
62
  5
 0
LINE
8
default
6
CONTINUOUS
10
 -21.073
20
   4.811
30
   8.032
11
  21.073
21
   4.811
31
   8.032
39
 0
62
  1
 0
LINE
8
default
6
CONTINUOUS
10
  21.073
20
   4.811
30
   8.032
11
 -21.073
21
   4.811
31
   8.032
39
 0
62
  1
 0
LINE
8
default
6
CONTINUOUS
10
 -20.889
20
  18.500
30
  13.439
11
  20.889
21
  18.500
31
  13.439
39
 0
62
  1
 0
LINE
8
default
6
CONTINUOUS
10
  20.889
20
  18.500
30
  13.439
11
 -20.889
21
  18.500
31
  13.439
39
 0
62
  1
 0
LINE
8
default
6
CONTINUOUS
10
  21.073
20
   4.811
30
   8.032
11
  63.837
21
   5.747
31
   2.198
39
 0
62
  1
 0
LINE
8
default
6
CONTINUOUS
10
 -21.073
20
   4.811
30
   8.032
11
 -63.837
21
   5.747
31
   2.198
39
 0
62
  1
 0
LINE
8
default
6
CONTINUOUS
10
  20.889
20
  18.500
30
  13.439
11
  63.837
21
   5.747
31
   2.198
39
 0
62
  1
 0
LINE
8
default
6
CONTINUOUS
10
 -20.889
20
  18.500
30
  13.439
11
 -63.837
21
   5.747
31
   2.198
39
 0
62
  1
 0
LINE
8
default
6
CONTINUOUS
10
  20.000
20
  72.964
30
 687.754
11
  21.523
21
  69.642
31
 640.897
39
 0
62
  1
 0
LINE
8
default
6
CONTINUOUS
10
 -20.000
20
  72.964
30
 687.754
11
 -21.523
21
  69.642
31
 640.897
39
 0
62
  1
 0
LINE
8
default
6
CONTINUOUS
10
  21.523
20
  69.642
30
 640.897
11
  36.464
21
  37.062
31
 181.292
39
 0
62
  1
 0
LINE
8
default
6
CONTINUOUS
10
 -21.523
20
  69.642
30
 640.897
11
 -36.464
21
  37.062
31
 181.292
39
 0
62
  1
 0
LINE
8
default
6
CONTINUOUS
10
  36.464
20
  37.062
30
 181.292
11
  20.837
21
  24.907
31
  14.945
39
 0
62
  1
 0
LINE
8
default
6
CONTINUOUS
10
 -36.464
20
  37.062
30
 181.292
11
 -20.837
21
  24.907
31
  14.945
39
 0
62
  1
 0
LINE
8
default
6
CONTINUOUS
10
  36.464
20
  37.062
30
 181.292
11
  63.093
21
  25.228
31
   9.208
39
 0
62
  1
 0
LINE
8
default
6
CONTINUOUS
10
 -36.464
20
  37.062
30
 181.292
11
 -63.093
21
  25.228
31
   9.208
39
 0
62
  1
 0
LINE
8
default
6
CONTINUOUS
10
  20.000
20
  72.964
30
 687.754
11
  21.503
21
  73.456
31
 640.781
39
 0
62
 30
 0
LINE
8
default
6
CONTINUOUS
10
 -20.000
20
  72.964
30
 687.754
11
 -21.503
21
  73.456
31
 640.781
39
 0
62
 30
 0
LINE
8
default
6
CONTINUOUS
10
  21.503
20
  73.456
30
 640.781
11
  35.930
21
  78.180
31
 190.036
39
 0
62
 30
 0
LINE
8
default
6
CONTINUOUS
10
 -21.503
20
  73.456
30
 640.781
11
 -35.930
21
  78.180
31
 190.036
39
 0
62
 30
 0
LINE
8
default
6
CONTINUOUS
10
  35.930
20
  78.180
30
 190.036
11
  20.635
21
  80.245
31
  20.884
39
 0
62
 30
 0
LINE
8
default
6
CONTINUOUS
10
 -35.930
20
  78.180
30
 190.036
11
 -20.635
21
  80.245
31
  20.884
39
 0
62
 30
 0
LINE
8
default
6
CONTINUOUS
10
  35.930
20
  78.180
30
 190.036
11
  62.140
21
  79.689
31
  18.184
39
 0
62
 30
 0
LINE
8
default
6
CONTINUOUS
10
 -35.930
20
  78.180
30
 190.036
11
 -62.140
21
  79.689
31
  18.184
39
 0
62
 30
 0
LINE
8
default
6
CONTINUOUS
10
  20.000
20
  72.964
30
 687.754
11
  21.472
21
  80.979
31
 641.466
39
 0
62
  3
 0
LINE
8
default
6
CONTINUOUS
10
 -20.000
20
  72.964
30
 687.754
11
 -21.472
21
  80.979
31
 641.466
39
 0
62
  3
 0
LINE
8
default
6
CONTINUOUS
10
  21.472
20
  80.979
30
 641.466
11
  35.977
21
 159.939
31
 185.479
39
 0
62
  3
 0
LINE
8
default
6
CONTINUOUS
10
 -21.472
20
  80.979
30
 641.466
11
 -35.977
21
 159.939
31
 185.479
39
 0
62
  3
 0
LINE
8
default
6
CONTINUOUS
10
  35.977
20
 159.939
30
 185.479
11
  20.704
21
 154.514
31
  18.849
39
 0
62
  3
 0
LINE
8
default
6
CONTINUOUS
10
 -35.977
20
 159.939
30
 185.479
11
 -20.704
21
 154.514
31
  18.849
39
 0
62
  3
 0
LINE
8
default
6
CONTINUOUS
10
  35.977
20
 159.939
30
 185.479
11
  61.699
21
 153.405
31
  22.338
39
 0
62
  3
 0
LINE
8
default
6
CONTINUOUS
10
 -35.977
20
 159.939
30
 185.479
11
 -61.699
21
 153.405
31
  22.338
39
 0
62
  3
 0
LINE
8
default
6
CONTINUOUS
10
  35.977
20
 159.939
30
 185.479
11
  20.976
21
 224.414
31
  10.875
39
 0
62
  3
 0
LINE
8
default
6
CONTINUOUS
10
 -35.977
20
 159.939
30
 185.479
11
 -20.976
21
 224.414
31
  10.875
39
 0
62
  3
 0
LINE
8
default
6
CONTINUOUS
10
  35.977
20
 159.939
30
 185.479
11
  61.791
21
 223.164
31
  21.469
39
 0
62
  3
 0
LINE
8
default
6
CONTINUOUS
10
 -35.977
20
 159.939
30
 185.479
11
 -61.791
21
 223.164
31
  21.469
39
 0
62
  3
 0
LINE
8
default
6
CONTINUOUS
10
  21.472
20
  80.979
30
 641.466
11
  29.193
21
 160.963
31
 400.512
39
 0
62
  2
 0
LINE
8
default
6
CONTINUOUS
10
 -21.472
20
  80.979
30
 641.466
11
 -29.193
21
 160.963
31
 400.512
39
 0
62
  2
 0
LINE
8
default
6
CONTINUOUS
10
  29.193
20
 160.963
30
 400.512
11
  38.859
21
 261.101
31
  98.845
39
 0
62
  2
 0
LINE
8
default
6
CONTINUOUS
10
 -29.193
20
 160.963
30
 400.512
11
 -38.859
21
 261.101
31
  98.845
39
 0
62
  2
 0
LINE
8
default
6
CONTINUOUS
10
  38.859
20
 261.101
30
  98.845
11
  21.333
21
 291.402
31
   0.377
39
 0
62
  2
 0
LINE
8
default
6
CONTINUOUS
10
 -38.859
20
 261.101
30
  98.845
11
 -21.333
21
 291.402
31
   0.377
39
 0
62
  2
 0
LINE
8
default
6
CONTINUOUS
10
  38.859
20
 261.101
30
  98.845
11
  62.119
21
 290.194
31
  18.384
39
 0
62
  2
 0
LINE
8
default
6
CONTINUOUS
10
 -38.859
20
 261.101
30
  98.845
11
 -62.119
21
 290.194
31
  18.384
39
 0
62
  2
 0
LINE
8
default
6
CONTINUOUS
10
 -20.879
20
  19.580
30
  13.713
11
  21.787
21
  19.580
31
  13.713
39
 0
62
  2
 0
LINE
8
default
6
CONTINUOUS
10
  20.879
20
  19.580
30
  13.713
11
 -21.787
21
  19.580
31
  13.713
39
 0
62
  2
 0
LINE
8
default
6
CONTINUOUS
10
  21.787
20
  19.580
30
  13.713
11
  21.792
21
  20.112
31
  13.847
39
 0
62
  2
 0
LINE
8
default
6
CONTINUOUS
10
 -20.879
20
  19.580
30
  13.713
11
 -20.875
21
  19.580
31
  13.847
39
 0
62
  2
 0
LINE
8
default
6
CONTINUOUS
10
 -21.787
20
  19.580
30
  13.713
11
 -21.792
21
  20.112
31
  13.847
39
 0
62
  2
 0
LINE
8
default
6
CONTINUOUS
10
  20.879
20
  19.580
30
  13.713
11
  20.875
21
  19.580
31
  13.847
39
 0
62
  2
 0
LINE
8
default
6
CONTINUOUS
10
 -20.875
20
  20.112
30
  13.847
11
  21.792
21
  20.112
31
  13.847
39
 0
62
  2
 0
LINE
8
default
6
CONTINUOUS
10
  20.875
20
  20.112
30
  13.847
11
 -21.792
21
  20.112
31
  13.847
39
 0
62
  2
 0
LINE
8
default
6
CONTINUOUS
10
  21.792
20
  20.112
30
  13.847
11
  21.797
21
  20.645
31
  13.982
39
 0
62
  2
 0
LINE
8
default
6
CONTINUOUS
10
 -20.875
20
  20.112
30
  13.847
11
 -20.870
21
  20.112
31
  13.982
39
 0
62
  2
 0
LINE
8
default
6
CONTINUOUS
10
 -21.792
20
  20.112
30
  13.847
11
 -21.797
21
  20.645
31
  13.982
39
 0
62
  2
 0
LINE
8
default
6
CONTINUOUS
10
  20.875
20
  20.112
30
  13.847
11
  20.870
21
  20.112
31
  13.982
39
 0
62
  2
 0
LINE
8
default
6
CONTINUOUS
10
 -20.870
20
  20.645
30
  13.982
11
  21.797
21
  20.645
31
  13.982
39
 0
62
  2
 0
LINE
8
default
6
CONTINUOUS
10
  20.870
20
  20.645
30
  13.982
11
 -21.797
21
  20.645
31
  13.982
39
 0
62
  2
 0
LINE
8
default
6
CONTINUOUS
10
  21.797
20
  20.645
30
  13.982
11
  21.801
21
  21.178
31
  14.109
39
 0
62
  2
 0
LINE
8
default
6
CONTINUOUS
10
 -20.870
20
  20.645
30
  13.982
11
 -20.866
21
  20.645
31
  14.109
39
 0
62
  2
 0
LINE
8
default
6
CONTINUOUS
10
 -21.797
20
  20.645
30
  13.982
11
 -21.801
21
  21.178
31
  14.109
39
 0
62
  2
 0
LINE
8
default
6
CONTINUOUS
10
  20.870
20
  20.645
30
  13.982
11
  20.866
21
  20.645
31
  14.109
39
 0
62
  2
 0
LINE
8
default
6
CONTINUOUS
10
 -20.866
20
  21.178
30
  14.109
11
  21.801
21
  21.178
31
  14.109
39
 0
62
  2
 0
LINE
8
default
6
CONTINUOUS
10
  20.866
20
  21.178
30
  14.109
11
 -21.801
21
  21.178
31
  14.109
39
 0
62
  2
 0
LINE
8
default
6
CONTINUOUS
10
  21.801
20
  21.178
30
  14.109
11
  21.805
21
  21.711
31
  14.231
39
 0
62
  2
 0
LINE
8
default
6
CONTINUOUS
10
 -20.866
20
  21.178
30
  14.109
11
 -20.862
21
  21.178
31
  14.231
39
 0
62
  2
 0
LINE
8
default
6
CONTINUOUS
10
 -21.801
20
  21.178
30
  14.109
11
 -21.805
21
  21.711
31
  14.231
39
 0
62
  2
 0
LINE
8
default
6
CONTINUOUS
10
  20.866
20
  21.178
30
  14.109
11
  20.862
21
  21.178
31
  14.231
39
 0
62
  2
 0
LINE
8
default
6
CONTINUOUS
10
 -20.862
20
  21.711
30
  14.231
11
  21.805
21
  21.711
31
  14.231
39
 0
62
  2
 0
LINE
8
default
6
CONTINUOUS
10
  20.862
20
  21.711
30
  14.231
11
 -21.805
21
  21.711
31
  14.231
39
 0
62
  2
 0
LINE
8
default
6
CONTINUOUS
10
  21.805
20
  21.711
30
  14.231
11
  21.809
21
  22.243
31
  14.353
39
 0
62
  2
 0
LINE
8
default
6
CONTINUOUS
10
 -20.862
20
  21.711
30
  14.231
11
 -20.857
21
  21.711
31
  14.353
39
 0
62
  2
 0
LINE
8
default
6
CONTINUOUS
10
 -21.805
20
  21.711
30
  14.231
11
 -21.809
21
  22.243
31
  14.353
39
 0
62
  2
 0
LINE
8
default
6
CONTINUOUS
10
  20.862
20
  21.711
30
  14.231
11
  20.857
21
  21.711
31
  14.353
39
 0
62
  2
 0
LINE
8
default
6
CONTINUOUS
10
 -20.857
20
  22.243
30
  14.353
11
  21.809
21
  22.243
31
  14.353
39
 0
62
  2
 0
LINE
8
default
6
CONTINUOUS
10
  20.857
20
  22.243
30
  14.353
11
 -21.809
21
  22.243
31
  14.353
39
 0
62
  2
 0
LINE
8
default
6
CONTINUOUS
10
  21.809
20
  22.243
30
  14.353
11
  21.813
21
  22.776
31
  14.475
39
 0
62
  2
 0
LINE
8
default
6
CONTINUOUS
10
 -20.857
20
  22.243
30
  14.353
11
 -20.853
21
  22.243
31
  14.475
39
 0
62
  2
 0
LINE
8
default
6
CONTINUOUS
10
 -21.809
20
  22.243
30
  14.353
11
 -21.813
21
  22.776
31
  14.475
39
 0
62
  2
 0
LINE
8
default
6
CONTINUOUS
10
  20.857
20
  22.243
30
  14.353
11
  20.853
21
  22.243
31
  14.475
39
 0
62
  2
 0
LINE
8
default
6
CONTINUOUS
10
 -20.853
20
  22.776
30
  14.475
11
  21.813
21
  22.776
31
  14.475
39
 0
62
  2
 0
LINE
8
default
6
CONTINUOUS
10
  20.853
20
  22.776
30
  14.475
11
 -21.813
21
  22.776
31
  14.475
39
 0
62
  2
 0
LINE
8
default
6
CONTINUOUS
10
  21.813
20
  22.776
30
  14.475
11
  21.818
21
  23.309
31
  14.597
39
 0
62
  2
 0
LINE
8
default
6
CONTINUOUS
10
 -20.853
20
  22.776
30
  14.475
11
 -20.849
21
  22.776
31
  14.597
39
 0
62
  2
 0
LINE
8
default
6
CONTINUOUS
10
 -21.813
20
  22.776
30
  14.475
11
 -21.818
21
  23.309
31
  14.597
39
 0
62
  2
 0
LINE
8
default
6
CONTINUOUS
10
  20.853
20
  22.776
30
  14.475
11
  20.849
21
  22.776
31
  14.597
39
 0
62
  2
 0
LINE
8
default
6
CONTINUOUS
10
 -20.849
20
  23.309
30
  14.597
11
  21.818
21
  23.309
31
  14.597
39
 0
62
  2
 0
LINE
8
default
6
CONTINUOUS
10
  20.849
20
  23.309
30
  14.597
11
 -21.818
21
  23.309
31
  14.597
39
 0
62
  2
 0
LINE
8
default
6
CONTINUOUS
10
  21.818
20
  23.309
30
  14.597
11
  21.822
21
  23.842
31
  14.719
39
 0
62
  2
 0
LINE
8
default
6
CONTINUOUS
10
 -20.849
20
  23.309
30
  14.597
11
 -20.845
21
  23.309
31
  14.719
39
 0
62
  2
 0
LINE
8
default
6
CONTINUOUS
10
 -21.818
20
  23.309
30
  14.597
11
 -21.822
21
  23.842
31
  14.719
39
 0
62
  2
 0
LINE
8
default
6
CONTINUOUS
10
  20.849
20
  23.309
30
  14.597
11
  20.845
21
  23.309
31
  14.719
39
 0
62
  2
 0
LINE
8
default
6
CONTINUOUS
10
 -20.845
20
  23.842
30
  14.719
11
  21.822
21
  23.842
31
  14.719
39
 0
62
  2
 0
LINE
8
default
6
CONTINUOUS
10
  20.845
20
  23.842
30
  14.719
11
 -21.822
21
  23.842
31
  14.719
39
 0
62
  2
 0
LINE
8
default
6
CONTINUOUS
10
  21.822
20
  23.842
30
  14.719
11
  21.826
21
  24.374
31
  14.835
39
 0
62
  2
 0
LINE
8
default
6
CONTINUOUS
10
 -20.845
20
  23.842
30
  14.719
11
 -20.841
21
  23.842
31
  14.835
39
 0
62
  2
 0
LINE
8
default
6
CONTINUOUS
10
 -21.822
20
  23.842
30
  14.719
11
 -21.826
21
  24.374
31
  14.835
39
 0
62
  2
 0
LINE
8
default
6
CONTINUOUS
10
  20.845
20
  23.842
30
  14.719
11
  20.841
21
  23.842
31
  14.835
39
 0
62
  2
 0
LINE
8
default
6
CONTINUOUS
10
 -20.841
20
  24.374
30
  14.835
11
  21.826
21
  24.374
31
  14.835
39
 0
62
  2
 0
LINE
8
default
6
CONTINUOUS
10
  20.841
20
  24.374
30
  14.835
11
 -21.826
21
  24.374
31
  14.835
39
 0
62
  2
 0
LINE
8
default
6
CONTINUOUS
10
  21.826
20
  24.374
30
  14.835
11
  21.829
21
  24.907
31
  14.945
39
 0
62
  2
 0
LINE
8
default
6
CONTINUOUS
10
 -20.841
20
  24.374
30
  14.835
11
 -20.837
21
  24.374
31
  14.945
39
 0
62
  2
 0
LINE
8
default
6
CONTINUOUS
10
 -21.826
20
  24.374
30
  14.835
11
 -21.829
21
  24.907
31
  14.945
39
 0
62
  2
 0
LINE
8
default
6
CONTINUOUS
10
  20.841
20
  24.374
30
  14.835
11
  20.837
21
  24.374
31
  14.945
39
 0
62
  2
 0
LINE
8
default
6
CONTINUOUS
10
 -20.837
20
  24.907
30
  14.945
11
  21.829
21
  24.907
31
  14.945
39
 0
62
  2
 0
LINE
8
default
6
CONTINUOUS
10
  20.837
20
  24.907
30
  14.945
11
 -21.829
21
  24.907
31
  14.945
39
 0
62
  2
 0
LINE
8
default
6
CONTINUOUS
10
  21.829
20
  24.907
30
  14.945
11
  21.833
21
  25.440
31
  15.055
39
 0
62
  2
 0
LINE
8
default
6
CONTINUOUS
10
 -20.837
20
  24.907
30
  14.945
11
 -20.834
21
  24.907
31
  15.055
39
 0
62
  2
 0
LINE
8
default
6
CONTINUOUS
10
 -21.829
20
  24.907
30
  14.945
11
 -21.833
21
  25.440
31
  15.055
39
 0
62
  2
 0
LINE
8
default
6
CONTINUOUS
10
  20.837
20
  24.907
30
  14.945
11
  20.834
21
  24.907
31
  15.055
39
 0
62
  2
 0
LINE
8
default
6
CONTINUOUS
10
 -20.834
20
  25.440
30
  15.055
11
  21.833
21
  25.440
31
  15.055
39
 0
62
  2
 0
LINE
8
default
6
CONTINUOUS
10
  20.834
20
  25.440
30
  15.055
11
 -21.833
21
  25.440
31
  15.055
39
 0
62
  2
 0
LINE
8
default
6
CONTINUOUS
10
  21.833
20
  25.440
30
  15.055
11
  21.837
21
  25.973
31
  15.165
39
 0
62
  2
 0
LINE
8
default
6
CONTINUOUS
10
 -20.834
20
  25.440
30
  15.055
11
 -20.830
21
  25.440
31
  15.165
39
 0
62
  2
 0
LINE
8
default
6
CONTINUOUS
10
 -21.833
20
  25.440
30
  15.055
11
 -21.837
21
  25.973
31
  15.165
39
 0
62
  2
 0
LINE
8
default
6
CONTINUOUS
10
  20.834
20
  25.440
30
  15.055
11
  20.830
21
  25.440
31
  15.165
39
 0
62
  2
 0
LINE
8
default
6
CONTINUOUS
10
 -20.830
20
  25.973
30
  15.165
11
  21.837
21
  25.973
31
  15.165
39
 0
62
  2
 0
LINE
8
default
6
CONTINUOUS
10
  20.830
20
  25.973
30
  15.165
11
 -21.837
21
  25.973
31
  15.165
39
 0
62
  2
 0
LINE
8
default
6
CONTINUOUS
10
  21.837
20
  25.973
30
  15.165
11
  21.841
21
  26.505
31
  15.275
39
 0
62
  2
 0
LINE
8
default
6
CONTINUOUS
10
 -20.830
20
  25.973
30
  15.165
11
 -20.826
21
  25.973
31
  15.275
39
 0
62
  2
 0
LINE
8
default
6
CONTINUOUS
10
 -21.837
20
  25.973
30
  15.165
11
 -21.841
21
  26.505
31
  15.275
39
 0
62
  2
 0
LINE
8
default
6
CONTINUOUS
10
  20.830
20
  25.973
30
  15.165
11
  20.826
21
  25.973
31
  15.275
39
 0
62
  2
 0
LINE
8
default
6
CONTINUOUS
10
 -20.826
20
  26.505
30
  15.275
11
  21.841
21
  26.505
31
  15.275
39
 0
62
  2
 0
LINE
8
default
6
CONTINUOUS
10
  20.826
20
  26.505
30
  15.275
11
 -21.841
21
  26.505
31
  15.275
39
 0
62
  2
 0
LINE
8
default
6
CONTINUOUS
10
  21.841
20
  26.505
30
  15.275
11
  21.844
21
  27.038
31
  15.385
39
 0
62
  2
 0
LINE
8
default
6
CONTINUOUS
10
 -20.826
20
  26.505
30
  15.275
11
 -20.822
21
  26.505
31
  15.385
39
 0
62
  2
 0
LINE
8
default
6
CONTINUOUS
10
 -21.841
20
  26.505
30
  15.275
11
 -21.844
21
  27.038
31
  15.385
39
 0
62
  2
 0
LINE
8
default
6
CONTINUOUS
10
  20.826
20
  26.505
30
  15.275
11
  20.822
21
  26.505
31
  15.385
39
 0
62
  2
 0
LINE
8
default
6
CONTINUOUS
10
 -20.822
20
  27.038
30
  15.385
11
  21.844
21
  27.038
31
  15.385
39
 0
62
  2
 0
LINE
8
default
6
CONTINUOUS
10
  20.822
20
  27.038
30
  15.385
11
 -21.844
21
  27.038
31
  15.385
39
 0
62
  2
 0
LINE
8
default
6
CONTINUOUS
10
  21.844
20
  27.038
30
  15.385
11
  21.848
21
  27.571
31
  15.495
39
 0
62
  2
 0
LINE
8
default
6
CONTINUOUS
10
 -20.822
20
  27.038
30
  15.385
11
 -20.819
21
  27.038
31
  15.495
39
 0
62
  2
 0
LINE
8
default
6
CONTINUOUS
10
 -21.844
20
  27.038
30
  15.385
11
 -21.848
21
  27.571
31
  15.495
39
 0
62
  2
 0
LINE
8
default
6
CONTINUOUS
10
  20.822
20
  27.038
30
  15.385
11
  20.819
21
  27.038
31
  15.495
39
 0
62
  2
 0
LINE
8
default
6
CONTINUOUS
10
 -20.819
20
  27.571
30
  15.495
11
  21.848
21
  27.571
31
  15.495
39
 0
62
  2
 0
LINE
8
default
6
CONTINUOUS
10
  20.819
20
  27.571
30
  15.495
11
 -21.848
21
  27.571
31
  15.495
39
 0
62
  2
 0
LINE
8
default
6
CONTINUOUS
10
  21.848
20
  27.571
30
  15.495
11
  21.852
21
  28.104
31
  15.599
39
 0
62
  2
 0
LINE
8
default
6
CONTINUOUS
10
 -20.819
20
  27.571
30
  15.495
11
 -20.815
21
  27.571
31
  15.599
39
 0
62
  2
 0
LINE
8
default
6
CONTINUOUS
10
 -21.848
20
  27.571
30
  15.495
11
 -21.852
21
  28.104
31
  15.599
39
 0
62
  2
 0
LINE
8
default
6
CONTINUOUS
10
  20.819
20
  27.571
30
  15.495
11
  20.815
21
  27.571
31
  15.599
39
 0
62
  2
 0
LINE
8
default
6
CONTINUOUS
10
 -20.815
20
  28.104
30
  15.599
11
  21.852
21
  28.104
31
  15.599
39
 0
62
  2
 0
LINE
8
default
6
CONTINUOUS
10
  20.815
20
  28.104
30
  15.599
11
 -21.852
21
  28.104
31
  15.599
39
 0
62
  2
 0
LINE
8
default
6
CONTINUOUS
10
  21.852
20
  28.104
30
  15.599
11
  21.855
21
  28.636
31
  15.698
39
 0
62
  2
 0
LINE
8
default
6
CONTINUOUS
10
 -20.815
20
  28.104
30
  15.599
11
 -20.812
21
  28.104
31
  15.698
39
 0
62
  2
 0
LINE
8
default
6
CONTINUOUS
10
 -21.852
20
  28.104
30
  15.599
11
 -21.855
21
  28.636
31
  15.698
39
 0
62
  2
 0
LINE
8
default
6
CONTINUOUS
10
  20.815
20
  28.104
30
  15.599
11
  20.812
21
  28.104
31
  15.698
39
 0
62
  2
 0
LINE
8
default
6
CONTINUOUS
10
 -20.812
20
  28.636
30
  15.698
11
  21.855
21
  28.636
31
  15.698
39
 0
62
  2
 0
LINE
8
default
6
CONTINUOUS
10
  20.812
20
  28.636
30
  15.698
11
 -21.855
21
  28.636
31
  15.698
39
 0
62
  2
 0
LINE
8
default
6
CONTINUOUS
10
  21.855
20
  28.636
30
  15.698
11
  21.858
21
  29.169
31
  15.796
39
 0
62
  2
 0
LINE
8
default
6
CONTINUOUS
10
 -20.812
20
  28.636
30
  15.698
11
 -20.808
21
  28.636
31
  15.796
39
 0
62
  2
 0
LINE
8
default
6
CONTINUOUS
10
 -21.855
20
  28.636
30
  15.698
11
 -21.858
21
  29.169
31
  15.796
39
 0
62
  2
 0
LINE
8
default
6
CONTINUOUS
10
  20.812
20
  28.636
30
  15.698
11
  20.808
21
  28.636
31
  15.796
39
 0
62
  2
 0
LINE
8
default
6
CONTINUOUS
10
 -20.808
20
  29.169
30
  15.796
11
  21.858
21
  29.169
31
  15.796
39
 0
62
  2
 0
LINE
8
default
6
CONTINUOUS
10
  20.808
20
  29.169
30
  15.796
11
 -21.858
21
  29.169
31
  15.796
39
 0
62
  2
 0
LINE
8
default
6
CONTINUOUS
10
  21.858
20
  29.169
30
  15.796
11
  21.862
21
  29.702
31
  15.895
39
 0
62
  2
 0
LINE
8
default
6
CONTINUOUS
10
 -20.808
20
  29.169
30
  15.796
11
 -20.805
21
  29.169
31
  15.895
39
 0
62
  2
 0
LINE
8
default
6
CONTINUOUS
10
 -21.858
20
  29.169
30
  15.796
11
 -21.862
21
  29.702
31
  15.895
39
 0
62
  2
 0
LINE
8
default
6
CONTINUOUS
10
  20.808
20
  29.169
30
  15.796
11
  20.805
21
  29.169
31
  15.895
39
 0
62
  2
 0
LINE
8
default
6
CONTINUOUS
10
 -20.805
20
  29.702
30
  15.895
11
  21.862
21
  29.702
31
  15.895
39
 0
62
  2
 0
LINE
8
default
6
CONTINUOUS
10
  20.805
20
  29.702
30
  15.895
11
 -21.862
21
  29.702
31
  15.895
39
 0
62
  2
 0
LINE
8
default
6
CONTINUOUS
10
  21.862
20
  29.702
30
  15.895
11
  21.865
21
  30.235
31
  15.993
39
 0
62
  2
 0
LINE
8
default
6
CONTINUOUS
10
 -20.805
20
  29.702
30
  15.895
11
 -20.802
21
  29.702
31
  15.993
39
 0
62
  2
 0
LINE
8
default
6
CONTINUOUS
10
 -21.862
20
  29.702
30
  15.895
11
 -21.865
21
  30.235
31
  15.993
39
 0
62
  2
 0
LINE
8
default
6
CONTINUOUS
10
  20.805
20
  29.702
30
  15.895
11
  20.802
21
  29.702
31
  15.993
39
 0
62
  2
 0
LINE
8
default
6
CONTINUOUS
10
 -20.802
20
  30.235
30
  15.993
11
  21.865
21
  30.235
31
  15.993
39
 0
62
  2
 0
LINE
8
default
6
CONTINUOUS
10
  20.802
20
  30.235
30
  15.993
11
 -21.865
21
  30.235
31
  15.993
39
 0
62
  2
 0
LINE
8
default
6
CONTINUOUS
10
 -20.643
20
  74.917
30
  20.652
11
  22.024
21
  74.917
31
  20.652
39
 0
62
  2
 0
LINE
8
default
6
CONTINUOUS
10
  20.643
20
  74.917
30
  20.652
11
 -22.024
21
  74.917
31
  20.652
39
 0
62
  2
 0
LINE
8
default
6
CONTINUOUS
10
  22.024
20
  74.917
30
  20.652
11
  22.024
21
  75.450
31
  20.676
39
 0
62
  2
 0
LINE
8
default
6
CONTINUOUS
10
 -20.643
20
  74.917
30
  20.652
11
 -20.642
21
  74.917
31
  20.676
39
 0
62
  2
 0
LINE
8
default
6
CONTINUOUS
10
 -22.024
20
  74.917
30
  20.652
11
 -22.024
21
  75.450
31
  20.676
39
 0
62
  2
 0
LINE
8
default
6
CONTINUOUS
10
  20.643
20
  74.917
30
  20.652
11
  20.642
21
  74.917
31
  20.676
39
 0
62
  2
 0
LINE
8
default
6
CONTINUOUS
10
 -20.642
20
  75.450
30
  20.676
11
  22.024
21
  75.450
31
  20.676
39
 0
62
  2
 0
LINE
8
default
6
CONTINUOUS
10
  20.642
20
  75.450
30
  20.676
11
 -22.024
21
  75.450
31
  20.676
39
 0
62
  2
 0
LINE
8
default
6
CONTINUOUS
10
  22.024
20
  75.450
30
  20.676
11
  22.025
21
  75.983
31
  20.701
39
 0
62
  2
 0
LINE
8
default
6
CONTINUOUS
10
 -20.642
20
  75.450
30
  20.676
11
 -20.641
21
  75.450
31
  20.701
39
 0
62
  2
 0
LINE
8
default
6
CONTINUOUS
10
 -22.024
20
  75.450
30
  20.676
11
 -22.025
21
  75.983
31
  20.701
39
 0
62
  2
 0
LINE
8
default
6
CONTINUOUS
10
  20.642
20
  75.450
30
  20.676
11
  20.641
21
  75.450
31
  20.701
39
 0
62
  2
 0
LINE
8
default
6
CONTINUOUS
10
 -20.641
20
  75.983
30
  20.701
11
  22.025
21
  75.983
31
  20.701
39
 0
62
  2
 0
LINE
8
default
6
CONTINUOUS
10
  20.641
20
  75.983
30
  20.701
11
 -22.025
21
  75.983
31
  20.701
39
 0
62
  2
 0
LINE
8
default
6
CONTINUOUS
10
  22.025
20
  75.983
30
  20.701
11
  22.026
21
  76.516
31
  20.726
39
 0
62
  2
 0
LINE
8
default
6
CONTINUOUS
10
 -20.641
20
  75.983
30
  20.701
11
 -20.641
21
  75.983
31
  20.726
39
 0
62
  2
 0
LINE
8
default
6
CONTINUOUS
10
 -22.025
20
  75.983
30
  20.701
11
 -22.026
21
  76.516
31
  20.726
39
 0
62
  2
 0
LINE
8
default
6
CONTINUOUS
10
  20.641
20
  75.983
30
  20.701
11
  20.641
21
  75.983
31
  20.726
39
 0
62
  2
 0
LINE
8
default
6
CONTINUOUS
10
 -20.641
20
  76.516
30
  20.726
11
  22.026
21
  76.516
31
  20.726
39
 0
62
  2
 0
LINE
8
default
6
CONTINUOUS
10
  20.641
20
  76.516
30
  20.726
11
 -22.026
21
  76.516
31
  20.726
39
 0
62
  2
 0
LINE
8
default
6
CONTINUOUS
10
  22.026
20
  76.516
30
  20.726
11
  22.027
21
  77.048
31
  20.750
39
 0
62
  2
 0
LINE
8
default
6
CONTINUOUS
10
 -20.641
20
  76.516
30
  20.726
11
 -20.640
21
  76.516
31
  20.750
39
 0
62
  2
 0
LINE
8
default
6
CONTINUOUS
10
 -22.026
20
  76.516
30
  20.726
11
 -22.027
21
  77.048
31
  20.750
39
 0
62
  2
 0
LINE
8
default
6
CONTINUOUS
10
  20.641
20
  76.516
30
  20.726
11
  20.640
21
  76.516
31
  20.750
39
 0
62
  2
 0
LINE
8
default
6
CONTINUOUS
10
 -20.640
20
  77.048
30
  20.750
11
  22.027
21
  77.048
31
  20.750
39
 0
62
  2
 0
LINE
8
default
6
CONTINUOUS
10
  20.640
20
  77.048
30
  20.750
11
 -22.027
21
  77.048
31
  20.750
39
 0
62
  2
 0
LINE
8
default
6
CONTINUOUS
10
  22.027
20
  77.048
30
  20.750
11
  22.028
21
  77.581
31
  20.775
39
 0
62
  2
 0
LINE
8
default
6
CONTINUOUS
10
 -20.640
20
  77.048
30
  20.750
11
 -20.639
21
  77.048
31
  20.775
39
 0
62
  2
 0
LINE
8
default
6
CONTINUOUS
10
 -22.027
20
  77.048
30
  20.750
11
 -22.028
21
  77.581
31
  20.775
39
 0
62
  2
 0
LINE
8
default
6
CONTINUOUS
10
  20.640
20
  77.048
30
  20.750
11
  20.639
21
  77.048
31
  20.775
39
 0
62
  2
 0
LINE
8
default
6
CONTINUOUS
10
 -20.639
20
  77.581
30
  20.775
11
  22.028
21
  77.581
31
  20.775
39
 0
62
  2
 0
LINE
8
default
6
CONTINUOUS
10
  20.639
20
  77.581
30
  20.775
11
 -22.028
21
  77.581
31
  20.775
39
 0
62
  2
 0
LINE
8
default
6
CONTINUOUS
10
  22.028
20
  77.581
30
  20.775
11
  22.029
21
  78.114
31
  20.800
39
 0
62
  2
 0
LINE
8
default
6
CONTINUOUS
10
 -20.639
20
  77.581
30
  20.775
11
 -20.638
21
  77.581
31
  20.800
39
 0
62
  2
 0
LINE
8
default
6
CONTINUOUS
10
 -22.028
20
  77.581
30
  20.775
11
 -22.029
21
  78.114
31
  20.800
39
 0
62
  2
 0
LINE
8
default
6
CONTINUOUS
10
  20.639
20
  77.581
30
  20.775
11
  20.638
21
  77.581
31
  20.800
39
 0
62
  2
 0
LINE
8
default
6
CONTINUOUS
10
 -20.638
20
  78.114
30
  20.800
11
  22.029
21
  78.114
31
  20.800
39
 0
62
  2
 0
LINE
8
default
6
CONTINUOUS
10
  20.638
20
  78.114
30
  20.800
11
 -22.029
21
  78.114
31
  20.800
39
 0
62
  2
 0
LINE
8
default
6
CONTINUOUS
10
  22.029
20
  78.114
30
  20.800
11
  22.030
21
  78.647
31
  20.824
39
 0
62
  2
 0
LINE
8
default
6
CONTINUOUS
10
 -20.638
20
  78.114
30
  20.800
11
 -20.637
21
  78.114
31
  20.824
39
 0
62
  2
 0
LINE
8
default
6
CONTINUOUS
10
 -22.029
20
  78.114
30
  20.800
11
 -22.030
21
  78.647
31
  20.824
39
 0
62
  2
 0
LINE
8
default
6
CONTINUOUS
10
  20.638
20
  78.114
30
  20.800
11
  20.637
21
  78.114
31
  20.824
39
 0
62
  2
 0
LINE
8
default
6
CONTINUOUS
10
 -20.637
20
  78.647
30
  20.824
11
  22.030
21
  78.647
31
  20.824
39
 0
62
  2
 0
LINE
8
default
6
CONTINUOUS
10
  20.637
20
  78.647
30
  20.824
11
 -22.030
21
  78.647
31
  20.824
39
 0
62
  2
 0
LINE
8
default
6
CONTINUOUS
10
  22.030
20
  78.647
30
  20.824
11
  22.030
21
  79.179
31
  20.849
39
 0
62
  2
 0
LINE
8
default
6
CONTINUOUS
10
 -20.637
20
  78.647
30
  20.824
11
 -20.636
21
  78.647
31
  20.849
39
 0
62
  2
 0
LINE
8
default
6
CONTINUOUS
10
 -22.030
20
  78.647
30
  20.824
11
 -22.030
21
  79.179
31
  20.849
39
 0
62
  2
 0
LINE
8
default
6
CONTINUOUS
10
  20.637
20
  78.647
30
  20.824
11
  20.636
21
  78.647
31
  20.849
39
 0
62
  2
 0
LINE
8
default
6
CONTINUOUS
10
 -20.636
20
  79.179
30
  20.849
11
  22.030
21
  79.179
31
  20.849
39
 0
62
  2
 0
LINE
8
default
6
CONTINUOUS
10
  20.636
20
  79.179
30
  20.849
11
 -22.030
21
  79.179
31
  20.849
39
 0
62
  2
 0
LINE
8
default
6
CONTINUOUS
10
  22.030
20
  79.179
30
  20.849
11
  22.031
21
  79.712
31
  20.867
39
 0
62
  2
 0
LINE
8
default
6
CONTINUOUS
10
 -20.636
20
  79.179
30
  20.849
11
 -20.636
21
  79.179
31
  20.867
39
 0
62
  2
 0
LINE
8
default
6
CONTINUOUS
10
 -22.030
20
  79.179
30
  20.849
11
 -22.031
21
  79.712
31
  20.867
39
 0
62
  2
 0
LINE
8
default
6
CONTINUOUS
10
  20.636
20
  79.179
30
  20.849
11
  20.636
21
  79.179
31
  20.867
39
 0
62
  2
 0
LINE
8
default
6
CONTINUOUS
10
 -20.636
20
  79.712
30
  20.867
11
  22.031
21
  79.712
31
  20.867
39
 0
62
  2
 0
LINE
8
default
6
CONTINUOUS
10
  20.636
20
  79.712
30
  20.867
11
 -22.031
21
  79.712
31
  20.867
39
 0
62
  2
 0
LINE
8
default
6
CONTINUOUS
10
  22.031
20
  79.712
30
  20.867
11
  22.032
21
  80.245
31
  20.884
39
 0
62
  2
 0
LINE
8
default
6
CONTINUOUS
10
 -20.636
20
  79.712
30
  20.867
11
 -20.635
21
  79.712
31
  20.884
39
 0
62
  2
 0
LINE
8
default
6
CONTINUOUS
10
 -22.031
20
  79.712
30
  20.867
11
 -22.032
21
  80.245
31
  20.884
39
 0
62
  2
 0
LINE
8
default
6
CONTINUOUS
10
  20.636
20
  79.712
30
  20.867
11
  20.635
21
  79.712
31
  20.884
39
 0
62
  2
 0
LINE
8
default
6
CONTINUOUS
10
 -20.635
20
  80.245
30
  20.884
11
  22.032
21
  80.245
31
  20.884
39
 0
62
  2
 0
LINE
8
default
6
CONTINUOUS
10
  20.635
20
  80.245
30
  20.884
11
 -22.032
21
  80.245
31
  20.884
39
 0
62
  2
 0
LINE
8
default
6
CONTINUOUS
10
  22.032
20
  80.245
30
  20.884
11
  22.032
21
  80.778
31
  20.901
39
 0
62
  2
 0
LINE
8
default
6
CONTINUOUS
10
 -20.635
20
  80.245
30
  20.884
11
 -20.635
21
  80.245
31
  20.901
39
 0
62
  2
 0
LINE
8
default
6
CONTINUOUS
10
 -22.032
20
  80.245
30
  20.884
11
 -22.032
21
  80.778
31
  20.901
39
 0
62
  2
 0
LINE
8
default
6
CONTINUOUS
10
  20.635
20
  80.245
30
  20.884
11
  20.635
21
  80.245
31
  20.901
39
 0
62
  2
 0
LINE
8
default
6
CONTINUOUS
10
 -20.635
20
  80.778
30
  20.901
11
  22.032
21
  80.778
31
  20.901
39
 0
62
  2
 0
LINE
8
default
6
CONTINUOUS
10
  20.635
20
  80.778
30
  20.901
11
 -22.032
21
  80.778
31
  20.901
39
 0
62
  2
 0
LINE
8
default
6
CONTINUOUS
10
  22.032
20
  80.778
30
  20.901
11
  22.033
21
  81.310
31
  20.917
39
 0
62
  2
 0
LINE
8
default
6
CONTINUOUS
10
 -20.635
20
  80.778
30
  20.901
11
 -20.634
21
  80.778
31
  20.917
39
 0
62
  2
 0
LINE
8
default
6
CONTINUOUS
10
 -22.032
20
  80.778
30
  20.901
11
 -22.033
21
  81.310
31
  20.917
39
 0
62
  2
 0
LINE
8
default
6
CONTINUOUS
10
  20.635
20
  80.778
30
  20.901
11
  20.634
21
  80.778
31
  20.917
39
 0
62
  2
 0
LINE
8
default
6
CONTINUOUS
10
 -20.634
20
  81.310
30
  20.917
11
  22.033
21
  81.310
31
  20.917
39
 0
62
  2
 0
LINE
8
default
6
CONTINUOUS
10
  20.634
20
  81.310
30
  20.917
11
 -22.033
21
  81.310
31
  20.917
39
 0
62
  2
 0
LINE
8
default
6
CONTINUOUS
10
  22.033
20
  81.310
30
  20.917
11
  22.033
21
  81.843
31
  20.934
39
 0
62
  2
 0
LINE
8
default
6
CONTINUOUS
10
 -20.634
20
  81.310
30
  20.917
11
 -20.633
21
  81.310
31
  20.934
39
 0
62
  2
 0
LINE
8
default
6
CONTINUOUS
10
 -22.033
20
  81.310
30
  20.917
11
 -22.033
21
  81.843
31
  20.934
39
 0
62
  2
 0
LINE
8
default
6
CONTINUOUS
10
  20.634
20
  81.310
30
  20.917
11
  20.633
21
  81.310
31
  20.934
39
 0
62
  2
 0
LINE
8
default
6
CONTINUOUS
10
 -20.633
20
  81.843
30
  20.934
11
  22.033
21
  81.843
31
  20.934
39
 0
62
  2
 0
LINE
8
default
6
CONTINUOUS
10
  20.633
20
  81.843
30
  20.934
11
 -22.033
21
  81.843
31
  20.934
39
 0
62
  2
 0
LINE
8
default
6
CONTINUOUS
10
  22.033
20
  81.843
30
  20.934
11
  22.034
21
  82.376
31
  20.951
39
 0
62
  2
 0
LINE
8
default
6
CONTINUOUS
10
 -20.633
20
  81.843
30
  20.934
11
 -20.633
21
  81.843
31
  20.951
39
 0
62
  2
 0
LINE
8
default
6
CONTINUOUS
10
 -22.033
20
  81.843
30
  20.934
11
 -22.034
21
  82.376
31
  20.951
39
 0
62
  2
 0
LINE
8
default
6
CONTINUOUS
10
  20.633
20
  81.843
30
  20.934
11
  20.633
21
  81.843
31
  20.951
39
 0
62
  2
 0
LINE
8
default
6
CONTINUOUS
10
 -20.633
20
  82.376
30
  20.951
11
  22.034
21
  82.376
31
  20.951
39
 0
62
  2
 0
LINE
8
default
6
CONTINUOUS
10
  20.633
20
  82.376
30
  20.951
11
 -22.034
21
  82.376
31
  20.951
39
 0
62
  2
 0
LINE
8
default
6
CONTINUOUS
10
  22.034
20
  82.376
30
  20.951
11
  22.034
21
  82.909
31
  20.968
39
 0
62
  2
 0
LINE
8
default
6
CONTINUOUS
10
 -20.633
20
  82.376
30
  20.951
11
 -20.632
21
  82.376
31
  20.968
39
 0
62
  2
 0
LINE
8
default
6
CONTINUOUS
10
 -22.034
20
  82.376
30
  20.951
11
 -22.034
21
  82.909
31
  20.968
39
 0
62
  2
 0
LINE
8
default
6
CONTINUOUS
10
  20.633
20
  82.376
30
  20.951
11
  20.632
21
  82.376
31
  20.968
39
 0
62
  2
 0
LINE
8
default
6
CONTINUOUS
10
 -20.632
20
  82.909
30
  20.968
11
  22.034
21
  82.909
31
  20.968
39
 0
62
  2
 0
LINE
8
default
6
CONTINUOUS
10
  20.632
20
  82.909
30
  20.968
11
 -22.034
21
  82.909
31
  20.968
39
 0
62
  2
 0
LINE
8
default
6
CONTINUOUS
10
  22.034
20
  82.909
30
  20.968
11
  22.035
21
  83.441
31
  20.985
39
 0
62
  2
 0
LINE
8
default
6
CONTINUOUS
10
 -20.632
20
  82.909
30
  20.968
11
 -20.632
21
  82.909
31
  20.985
39
 0
62
  2
 0
LINE
8
default
6
CONTINUOUS
10
 -22.034
20
  82.909
30
  20.968
11
 -22.035
21
  83.441
31
  20.985
39
 0
62
  2
 0
LINE
8
default
6
CONTINUOUS
10
  20.632
20
  82.909
30
  20.968
11
  20.632
21
  82.909
31
  20.985
39
 0
62
  2
 0
LINE
8
default
6
CONTINUOUS
10
 -20.632
20
  83.441
30
  20.985
11
  22.035
21
  83.441
31
  20.985
39
 0
62
  2
 0
LINE
8
default
6
CONTINUOUS
10
  20.632
20
  83.441
30
  20.985
11
 -22.035
21
  83.441
31
  20.985
39
 0
62
  2
 0
LINE
8
default
6
CONTINUOUS
10
  22.035
20
  83.441
30
  20.985
11
  22.036
21
  83.974
31
  21.002
39
 0
62
  2
 0
LINE
8
default
6
CONTINUOUS
10
 -20.632
20
  83.441
30
  20.985
11
 -20.631
21
  83.441
31
  21.002
39
 0
62
  2
 0
LINE
8
default
6
CONTINUOUS
10
 -22.035
20
  83.441
30
  20.985
11
 -22.036
21
  83.974
31
  21.002
39
 0
62
  2
 0
LINE
8
default
6
CONTINUOUS
10
  20.632
20
  83.441
30
  20.985
11
  20.631
21
  83.441
31
  21.002
39
 0
62
  2
 0
LINE
8
default
6
CONTINUOUS
10
 -20.631
20
  83.974
30
  21.002
11
  22.036
21
  83.974
31
  21.002
39
 0
62
  2
 0
LINE
8
default
6
CONTINUOUS
10
  20.631
20
  83.974
30
  21.002
11
 -22.036
21
  83.974
31
  21.002
39
 0
62
  2
 0
LINE
8
default
6
CONTINUOUS
10
  22.036
20
  83.974
30
  21.002
11
  22.036
21
  84.507
31
  21.018
39
 0
62
  2
 0
LINE
8
default
6
CONTINUOUS
10
 -20.631
20
  83.974
30
  21.002
11
 -20.631
21
  83.974
31
  21.018
39
 0
62
  2
 0
LINE
8
default
6
CONTINUOUS
10
 -22.036
20
  83.974
30
  21.002
11
 -22.036
21
  84.507
31
  21.018
39
 0
62
  2
 0
LINE
8
default
6
CONTINUOUS
10
  20.631
20
  83.974
30
  21.002
11
  20.631
21
  83.974
31
  21.018
39
 0
62
  2
 0
LINE
8
default
6
CONTINUOUS
10
 -20.631
20
  84.507
30
  21.018
11
  22.036
21
  84.507
31
  21.018
39
 0
62
  2
 0
LINE
8
default
6
CONTINUOUS
10
  20.631
20
  84.507
30
  21.018
11
 -22.036
21
  84.507
31
  21.018
39
 0
62
  2
 0
LINE
8
default
6
CONTINUOUS
10
  22.036
20
  84.507
30
  21.018
11
  22.037
21
  85.039
31
  21.035
39
 0
62
  2
 0
LINE
8
default
6
CONTINUOUS
10
 -20.631
20
  84.507
30
  21.018
11
 -20.630
21
  84.507
31
  21.035
39
 0
62
  2
 0
LINE
8
default
6
CONTINUOUS
10
 -22.036
20
  84.507
30
  21.018
11
 -22.037
21
  85.039
31
  21.035
39
 0
62
  2
 0
LINE
8
default
6
CONTINUOUS
10
  20.631
20
  84.507
30
  21.018
11
  20.630
21
  84.507
31
  21.035
39
 0
62
  2
 0
LINE
8
default
6
CONTINUOUS
10
 -20.630
20
  85.039
30
  21.035
11
  22.037
21
  85.039
31
  21.035
39
 0
62
  2
 0
LINE
8
default
6
CONTINUOUS
10
  20.630
20
  85.039
30
  21.035
11
 -22.037
21
  85.039
31
  21.035
39
 0
62
  2
 0
LINE
8
default
6
CONTINUOUS
10
  22.037
20
  85.039
30
  21.035
11
  22.037
21
  85.572
31
  21.052
39
 0
62
  2
 0
LINE
8
default
6
CONTINUOUS
10
 -20.630
20
  85.039
30
  21.035
11
 -20.629
21
  85.039
31
  21.052
39
 0
62
  2
 0
LINE
8
default
6
CONTINUOUS
10
 -22.037
20
  85.039
30
  21.035
11
 -22.037
21
  85.572
31
  21.052
39
 0
62
  2
 0
LINE
8
default
6
CONTINUOUS
10
  20.630
20
  85.039
30
  21.035
11
  20.629
21
  85.039
31
  21.052
39
 0
62
  2
 0
LINE
8
default
6
CONTINUOUS
10
 -20.629
20
  85.572
30
  21.052
11
  22.037
21
  85.572
31
  21.052
39
 0
62
  2
 0
LINE
8
default
6
CONTINUOUS
10
  20.629
20
  85.572
30
  21.052
11
 -22.037
21
  85.572
31
  21.052
39
 0
62
  2
 0
LINE
8
default
6
CONTINUOUS
10
 -20.691
20
 149.186
30
  19.252
11
  21.976
21
 149.186
31
  19.252
39
 0
62
  2
 0
LINE
8
default
6
CONTINUOUS
10
  20.691
20
 149.186
30
  19.252
11
 -21.976
21
 149.186
31
  19.252
39
 0
62
  2
 0
LINE
8
default
6
CONTINUOUS
10
  21.976
20
 149.186
30
  19.252
11
  21.975
21
 149.719
31
  19.212
39
 0
62
  2
 0
LINE
8
default
6
CONTINUOUS
10
 -20.691
20
 149.186
30
  19.252
11
 -20.692
21
 149.186
31
  19.212
39
 0
62
  2
 0
LINE
8
default
6
CONTINUOUS
10
 -21.976
20
 149.186
30
  19.252
11
 -21.975
21
 149.719
31
  19.212
39
 0
62
  2
 0
LINE
8
default
6
CONTINUOUS
10
  20.691
20
 149.186
30
  19.252
11
  20.692
21
 149.186
31
  19.212
39
 0
62
  2
 0
LINE
8
default
6
CONTINUOUS
10
 -20.692
20
 149.719
30
  19.212
11
  21.975
21
 149.719
31
  19.212
39
 0
62
  2
 0
LINE
8
default
6
CONTINUOUS
10
  20.692
20
 149.719
30
  19.212
11
 -21.975
21
 149.719
31
  19.212
39
 0
62
  2
 0
LINE
8
default
6
CONTINUOUS
10
  21.975
20
 149.719
30
  19.212
11
  21.973
21
 150.252
31
  19.171
39
 0
62
  2
 0
LINE
8
default
6
CONTINUOUS
10
 -20.692
20
 149.719
30
  19.212
11
 -20.693
21
 149.719
31
  19.171
39
 0
62
  2
 0
LINE
8
default
6
CONTINUOUS
10
 -21.975
20
 149.719
30
  19.212
11
 -21.973
21
 150.252
31
  19.171
39
 0
62
  2
 0
LINE
8
default
6
CONTINUOUS
10
  20.692
20
 149.719
30
  19.212
11
  20.693
21
 149.719
31
  19.171
39
 0
62
  2
 0
LINE
8
default
6
CONTINUOUS
10
 -20.693
20
 150.252
30
  19.171
11
  21.973
21
 150.252
31
  19.171
39
 0
62
  2
 0
LINE
8
default
6
CONTINUOUS
10
  20.693
20
 150.252
30
  19.171
11
 -21.973
21
 150.252
31
  19.171
39
 0
62
  2
 0
LINE
8
default
6
CONTINUOUS
10
  21.973
20
 150.252
30
  19.171
11
  21.972
21
 150.785
31
  19.131
39
 0
62
  2
 0
LINE
8
default
6
CONTINUOUS
10
 -20.693
20
 150.252
30
  19.171
11
 -20.695
21
 150.252
31
  19.131
39
 0
62
  2
 0
LINE
8
default
6
CONTINUOUS
10
 -21.973
20
 150.252
30
  19.171
11
 -21.972
21
 150.785
31
  19.131
39
 0
62
  2
 0
LINE
8
default
6
CONTINUOUS
10
  20.693
20
 150.252
30
  19.171
11
  20.695
21
 150.252
31
  19.131
39
 0
62
  2
 0
LINE
8
default
6
CONTINUOUS
10
 -20.695
20
 150.785
30
  19.131
11
  21.972
21
 150.785
31
  19.131
39
 0
62
  2
 0
LINE
8
default
6
CONTINUOUS
10
  20.695
20
 150.785
30
  19.131
11
 -21.972
21
 150.785
31
  19.131
39
 0
62
  2
 0
LINE
8
default
6
CONTINUOUS
10
  21.972
20
 150.785
30
  19.131
11
  21.970
21
 151.317
31
  19.091
39
 0
62
  2
 0
LINE
8
default
6
CONTINUOUS
10
 -20.695
20
 150.785
30
  19.131
11
 -20.696
21
 150.785
31
  19.091
39
 0
62
  2
 0
LINE
8
default
6
CONTINUOUS
10
 -21.972
20
 150.785
30
  19.131
11
 -21.970
21
 151.317
31
  19.091
39
 0
62
  2
 0
LINE
8
default
6
CONTINUOUS
10
  20.695
20
 150.785
30
  19.131
11
  20.696
21
 150.785
31
  19.091
39
 0
62
  2
 0
LINE
8
default
6
CONTINUOUS
10
 -20.696
20
 151.317
30
  19.091
11
  21.970
21
 151.317
31
  19.091
39
 0
62
  2
 0
LINE
8
default
6
CONTINUOUS
10
  20.696
20
 151.317
30
  19.091
11
 -21.970
21
 151.317
31
  19.091
39
 0
62
  2
 0
LINE
8
default
6
CONTINUOUS
10
  21.970
20
 151.317
30
  19.091
11
  21.969
21
 151.850
31
  19.050
39
 0
62
  2
 0
LINE
8
default
6
CONTINUOUS
10
 -20.696
20
 151.317
30
  19.091
11
 -20.698
21
 151.317
31
  19.050
39
 0
62
  2
 0
LINE
8
default
6
CONTINUOUS
10
 -21.970
20
 151.317
30
  19.091
11
 -21.969
21
 151.850
31
  19.050
39
 0
62
  2
 0
LINE
8
default
6
CONTINUOUS
10
  20.696
20
 151.317
30
  19.091
11
  20.698
21
 151.317
31
  19.050
39
 0
62
  2
 0
LINE
8
default
6
CONTINUOUS
10
 -20.698
20
 151.850
30
  19.050
11
  21.969
21
 151.850
31
  19.050
39
 0
62
  2
 0
LINE
8
default
6
CONTINUOUS
10
  20.698
20
 151.850
30
  19.050
11
 -21.969
21
 151.850
31
  19.050
39
 0
62
  2
 0
LINE
8
default
6
CONTINUOUS
10
  21.969
20
 151.850
30
  19.050
11
  21.968
21
 152.383
31
  19.010
39
 0
62
  2
 0
LINE
8
default
6
CONTINUOUS
10
 -20.698
20
 151.850
30
  19.050
11
 -20.699
21
 151.850
31
  19.010
39
 0
62
  2
 0
LINE
8
default
6
CONTINUOUS
10
 -21.969
20
 151.850
30
  19.050
11
 -21.968
21
 152.383
31
  19.010
39
 0
62
  2
 0
LINE
8
default
6
CONTINUOUS
10
  20.698
20
 151.850
30
  19.050
11
  20.699
21
 151.850
31
  19.010
39
 0
62
  2
 0
LINE
8
default
6
CONTINUOUS
10
 -20.699
20
 152.383
30
  19.010
11
  21.968
21
 152.383
31
  19.010
39
 0
62
  2
 0
LINE
8
default
6
CONTINUOUS
10
  20.699
20
 152.383
30
  19.010
11
 -21.968
21
 152.383
31
  19.010
39
 0
62
  2
 0
LINE
8
default
6
CONTINUOUS
10
  21.968
20
 152.383
30
  19.010
11
  21.966
21
 152.916
31
  18.970
39
 0
62
  2
 0
LINE
8
default
6
CONTINUOUS
10
 -20.699
20
 152.383
30
  19.010
11
 -20.700
21
 152.383
31
  18.970
39
 0
62
  2
 0
LINE
8
default
6
CONTINUOUS
10
 -21.968
20
 152.383
30
  19.010
11
 -21.966
21
 152.916
31
  18.970
39
 0
62
  2
 0
LINE
8
default
6
CONTINUOUS
10
  20.699
20
 152.383
30
  19.010
11
  20.700
21
 152.383
31
  18.970
39
 0
62
  2
 0
LINE
8
default
6
CONTINUOUS
10
 -20.700
20
 152.916
30
  18.970
11
  21.966
21
 152.916
31
  18.970
39
 0
62
  2
 0
LINE
8
default
6
CONTINUOUS
10
  20.700
20
 152.916
30
  18.970
11
 -21.966
21
 152.916
31
  18.970
39
 0
62
  2
 0
LINE
8
default
6
CONTINUOUS
10
  21.966
20
 152.916
30
  18.970
11
  21.965
21
 153.448
31
  18.929
39
 0
62
  2
 0
LINE
8
default
6
CONTINUOUS
10
 -20.700
20
 152.916
30
  18.970
11
 -20.702
21
 152.916
31
  18.929
39
 0
62
  2
 0
LINE
8
default
6
CONTINUOUS
10
 -21.966
20
 152.916
30
  18.970
11
 -21.965
21
 153.448
31
  18.929
39
 0
62
  2
 0
LINE
8
default
6
CONTINUOUS
10
  20.700
20
 152.916
30
  18.970
11
  20.702
21
 152.916
31
  18.929
39
 0
62
  2
 0
LINE
8
default
6
CONTINUOUS
10
 -20.702
20
 153.448
30
  18.929
11
  21.965
21
 153.448
31
  18.929
39
 0
62
  2
 0
LINE
8
default
6
CONTINUOUS
10
  20.702
20
 153.448
30
  18.929
11
 -21.965
21
 153.448
31
  18.929
39
 0
62
  2
 0
LINE
8
default
6
CONTINUOUS
10
  21.965
20
 153.448
30
  18.929
11
  21.964
21
 153.981
31
  18.889
39
 0
62
  2
 0
LINE
8
default
6
CONTINUOUS
10
 -20.702
20
 153.448
30
  18.929
11
 -20.703
21
 153.448
31
  18.889
39
 0
62
  2
 0
LINE
8
default
6
CONTINUOUS
10
 -21.965
20
 153.448
30
  18.929
11
 -21.964
21
 153.981
31
  18.889
39
 0
62
  2
 0
LINE
8
default
6
CONTINUOUS
10
  20.702
20
 153.448
30
  18.929
11
  20.703
21
 153.448
31
  18.889
39
 0
62
  2
 0
LINE
8
default
6
CONTINUOUS
10
 -20.703
20
 153.981
30
  18.889
11
  21.964
21
 153.981
31
  18.889
39
 0
62
  2
 0
LINE
8
default
6
CONTINUOUS
10
  20.703
20
 153.981
30
  18.889
11
 -21.964
21
 153.981
31
  18.889
39
 0
62
  2
 0
LINE
8
default
6
CONTINUOUS
10
  21.964
20
 153.981
30
  18.889
11
  21.962
21
 154.514
31
  18.849
39
 0
62
  2
 0
LINE
8
default
6
CONTINUOUS
10
 -20.703
20
 153.981
30
  18.889
11
 -20.704
21
 153.981
31
  18.849
39
 0
62
  2
 0
LINE
8
default
6
CONTINUOUS
10
 -21.964
20
 153.981
30
  18.889
11
 -21.962
21
 154.514
31
  18.849
39
 0
62
  2
 0
LINE
8
default
6
CONTINUOUS
10
  20.703
20
 153.981
30
  18.889
11
  20.704
21
 153.981
31
  18.849
39
 0
62
  2
 0
LINE
8
default
6
CONTINUOUS
10
 -20.704
20
 154.514
30
  18.849
11
  21.962
21
 154.514
31
  18.849
39
 0
62
  2
 0
LINE
8
default
6
CONTINUOUS
10
  20.704
20
 154.514
30
  18.849
11
 -21.962
21
 154.514
31
  18.849
39
 0
62
  2
 0
LINE
8
default
6
CONTINUOUS
10
  21.962
20
 154.514
30
  18.849
11
  21.961
21
 155.047
31
  18.805
39
 0
62
  2
 0
LINE
8
default
6
CONTINUOUS
10
 -20.704
20
 154.514
30
  18.849
11
 -20.706
21
 154.514
31
  18.805
39
 0
62
  2
 0
LINE
8
default
6
CONTINUOUS
10
 -21.962
20
 154.514
30
  18.849
11
 -21.961
21
 155.047
31
  18.805
39
 0
62
  2
 0
LINE
8
default
6
CONTINUOUS
10
  20.704
20
 154.514
30
  18.849
11
  20.706
21
 154.514
31
  18.805
39
 0
62
  2
 0
LINE
8
default
6
CONTINUOUS
10
 -20.706
20
 155.047
30
  18.805
11
  21.961
21
 155.047
31
  18.805
39
 0
62
  2
 0
LINE
8
default
6
CONTINUOUS
10
  20.706
20
 155.047
30
  18.805
11
 -21.961
21
 155.047
31
  18.805
39
 0
62
  2
 0
LINE
8
default
6
CONTINUOUS
10
  21.961
20
 155.047
30
  18.805
11
  21.959
21
 155.579
31
  18.760
39
 0
62
  2
 0
LINE
8
default
6
CONTINUOUS
10
 -20.706
20
 155.047
30
  18.805
11
 -20.707
21
 155.047
31
  18.760
39
 0
62
  2
 0
LINE
8
default
6
CONTINUOUS
10
 -21.961
20
 155.047
30
  18.805
11
 -21.959
21
 155.579
31
  18.760
39
 0
62
  2
 0
LINE
8
default
6
CONTINUOUS
10
  20.706
20
 155.047
30
  18.805
11
  20.707
21
 155.047
31
  18.760
39
 0
62
  2
 0
LINE
8
default
6
CONTINUOUS
10
 -20.707
20
 155.579
30
  18.760
11
  21.959
21
 155.579
31
  18.760
39
 0
62
  2
 0
LINE
8
default
6
CONTINUOUS
10
  20.707
20
 155.579
30
  18.760
11
 -21.959
21
 155.579
31
  18.760
39
 0
62
  2
 0
LINE
8
default
6
CONTINUOUS
10
  21.959
20
 155.579
30
  18.760
11
  21.958
21
 156.112
31
  18.714
39
 0
62
  2
 0
LINE
8
default
6
CONTINUOUS
10
 -20.707
20
 155.579
30
  18.760
11
 -20.709
21
 155.579
31
  18.714
39
 0
62
  2
 0
LINE
8
default
6
CONTINUOUS
10
 -21.959
20
 155.579
30
  18.760
11
 -21.958
21
 156.112
31
  18.714
39
 0
62
  2
 0
LINE
8
default
6
CONTINUOUS
10
  20.707
20
 155.579
30
  18.760
11
  20.709
21
 155.579
31
  18.714
39
 0
62
  2
 0
LINE
8
default
6
CONTINUOUS
10
 -20.709
20
 156.112
30
  18.714
11
  21.958
21
 156.112
31
  18.714
39
 0
62
  2
 0
LINE
8
default
6
CONTINUOUS
10
  20.709
20
 156.112
30
  18.714
11
 -21.958
21
 156.112
31
  18.714
39
 0
62
  2
 0
LINE
8
default
6
CONTINUOUS
10
  21.958
20
 156.112
30
  18.714
11
  21.956
21
 156.645
31
  18.669
39
 0
62
  2
 0
LINE
8
default
6
CONTINUOUS
10
 -20.709
20
 156.112
30
  18.714
11
 -20.711
21
 156.112
31
  18.669
39
 0
62
  2
 0
LINE
8
default
6
CONTINUOUS
10
 -21.958
20
 156.112
30
  18.714
11
 -21.956
21
 156.645
31
  18.669
39
 0
62
  2
 0
LINE
8
default
6
CONTINUOUS
10
  20.709
20
 156.112
30
  18.714
11
  20.711
21
 156.112
31
  18.669
39
 0
62
  2
 0
LINE
8
default
6
CONTINUOUS
10
 -20.711
20
 156.645
30
  18.669
11
  21.956
21
 156.645
31
  18.669
39
 0
62
  2
 0
LINE
8
default
6
CONTINUOUS
10
  20.711
20
 156.645
30
  18.669
11
 -21.956
21
 156.645
31
  18.669
39
 0
62
  2
 0
LINE
8
default
6
CONTINUOUS
10
  21.956
20
 156.645
30
  18.669
11
  21.955
21
 157.178
31
  18.624
39
 0
62
  2
 0
LINE
8
default
6
CONTINUOUS
10
 -20.711
20
 156.645
30
  18.669
11
 -20.712
21
 156.645
31
  18.624
39
 0
62
  2
 0
LINE
8
default
6
CONTINUOUS
10
 -21.956
20
 156.645
30
  18.669
11
 -21.955
21
 157.178
31
  18.624
39
 0
62
  2
 0
LINE
8
default
6
CONTINUOUS
10
  20.711
20
 156.645
30
  18.669
11
  20.712
21
 156.645
31
  18.624
39
 0
62
  2
 0
LINE
8
default
6
CONTINUOUS
10
 -20.712
20
 157.178
30
  18.624
11
  21.955
21
 157.178
31
  18.624
39
 0
62
  2
 0
LINE
8
default
6
CONTINUOUS
10
  20.712
20
 157.178
30
  18.624
11
 -21.955
21
 157.178
31
  18.624
39
 0
62
  2
 0
LINE
8
default
6
CONTINUOUS
10
  21.955
20
 157.178
30
  18.624
11
  21.953
21
 157.710
31
  18.579
39
 0
62
  2
 0
LINE
8
default
6
CONTINUOUS
10
 -20.712
20
 157.178
30
  18.624
11
 -20.714
21
 157.178
31
  18.579
39
 0
62
  2
 0
LINE
8
default
6
CONTINUOUS
10
 -21.955
20
 157.178
30
  18.624
11
 -21.953
21
 157.710
31
  18.579
39
 0
62
  2
 0
LINE
8
default
6
CONTINUOUS
10
  20.712
20
 157.178
30
  18.624
11
  20.714
21
 157.178
31
  18.579
39
 0
62
  2
 0
LINE
8
default
6
CONTINUOUS
10
 -20.714
20
 157.710
30
  18.579
11
  21.953
21
 157.710
31
  18.579
39
 0
62
  2
 0
LINE
8
default
6
CONTINUOUS
10
  20.714
20
 157.710
30
  18.579
11
 -21.953
21
 157.710
31
  18.579
39
 0
62
  2
 0
LINE
8
default
6
CONTINUOUS
10
  21.953
20
 157.710
30
  18.579
11
  21.952
21
 158.243
31
  18.534
39
 0
62
  2
 0
LINE
8
default
6
CONTINUOUS
10
 -20.714
20
 157.710
30
  18.579
11
 -20.715
21
 157.710
31
  18.534
39
 0
62
  2
 0
LINE
8
default
6
CONTINUOUS
10
 -21.953
20
 157.710
30
  18.579
11
 -21.952
21
 158.243
31
  18.534
39
 0
62
  2
 0
LINE
8
default
6
CONTINUOUS
10
  20.714
20
 157.710
30
  18.579
11
  20.715
21
 157.710
31
  18.534
39
 0
62
  2
 0
LINE
8
default
6
CONTINUOUS
10
 -20.715
20
 158.243
30
  18.534
11
  21.952
21
 158.243
31
  18.534
39
 0
62
  2
 0
LINE
8
default
6
CONTINUOUS
10
  20.715
20
 158.243
30
  18.534
11
 -21.952
21
 158.243
31
  18.534
39
 0
62
  2
 0
LINE
8
default
6
CONTINUOUS
10
  21.952
20
 158.243
30
  18.534
11
  21.950
21
 158.776
31
  18.489
39
 0
62
  2
 0
LINE
8
default
6
CONTINUOUS
10
 -20.715
20
 158.243
30
  18.534
11
 -20.717
21
 158.243
31
  18.489
39
 0
62
  2
 0
LINE
8
default
6
CONTINUOUS
10
 -21.952
20
 158.243
30
  18.534
11
 -21.950
21
 158.776
31
  18.489
39
 0
62
  2
 0
LINE
8
default
6
CONTINUOUS
10
  20.715
20
 158.243
30
  18.534
11
  20.717
21
 158.243
31
  18.489
39
 0
62
  2
 0
LINE
8
default
6
CONTINUOUS
10
 -20.717
20
 158.776
30
  18.489
11
  21.950
21
 158.776
31
  18.489
39
 0
62
  2
 0
LINE
8
default
6
CONTINUOUS
10
  20.717
20
 158.776
30
  18.489
11
 -21.950
21
 158.776
31
  18.489
39
 0
62
  2
 0
LINE
8
default
6
CONTINUOUS
10
  21.950
20
 158.776
30
  18.489
11
  21.948
21
 159.309
31
  18.444
39
 0
62
  2
 0
LINE
8
default
6
CONTINUOUS
10
 -20.717
20
 158.776
30
  18.489
11
 -20.718
21
 158.776
31
  18.444
39
 0
62
  2
 0
LINE
8
default
6
CONTINUOUS
10
 -21.950
20
 158.776
30
  18.489
11
 -21.948
21
 159.309
31
  18.444
39
 0
62
  2
 0
LINE
8
default
6
CONTINUOUS
10
  20.717
20
 158.776
30
  18.489
11
  20.718
21
 158.776
31
  18.444
39
 0
62
  2
 0
LINE
8
default
6
CONTINUOUS
10
 -20.718
20
 159.309
30
  18.444
11
  21.948
21
 159.309
31
  18.444
39
 0
62
  2
 0
LINE
8
default
6
CONTINUOUS
10
  20.718
20
 159.309
30
  18.444
11
 -21.948
21
 159.309
31
  18.444
39
 0
62
  2
 0
LINE
8
default
6
CONTINUOUS
10
  21.948
20
 159.309
30
  18.444
11
  21.947
21
 159.841
31
  18.399
39
 0
62
  2
 0
LINE
8
default
6
CONTINUOUS
10
 -20.718
20
 159.309
30
  18.444
11
 -20.720
21
 159.309
31
  18.399
39
 0
62
  2
 0
LINE
8
default
6
CONTINUOUS
10
 -21.948
20
 159.309
30
  18.444
11
 -21.947
21
 159.841
31
  18.399
39
 0
62
  2
 0
LINE
8
default
6
CONTINUOUS
10
  20.718
20
 159.309
30
  18.444
11
  20.720
21
 159.309
31
  18.399
39
 0
62
  2
 0
LINE
8
default
6
CONTINUOUS
10
 -20.720
20
 159.841
30
  18.399
11
  21.947
21
 159.841
31
  18.399
39
 0
62
  2
 0
LINE
8
default
6
CONTINUOUS
10
  20.720
20
 159.841
30
  18.399
11
 -21.947
21
 159.841
31
  18.399
39
 0
62
  2
 0
LINE
8
default
6
CONTINUOUS
10
 -20.950
20
 219.087
30
  11.622
11
  21.716
21
 219.087
31
  11.622
39
 0
62
  2
 0
LINE
8
default
6
CONTINUOUS
10
  20.950
20
 219.087
30
  11.622
11
 -21.716
21
 219.087
31
  11.622
39
 0
62
  2
 0
LINE
8
default
6
CONTINUOUS
10
  21.716
20
 219.087
30
  11.622
11
  21.714
21
 219.619
31
  11.548
39
 0
62
  2
 0
LINE
8
default
6
CONTINUOUS
10
 -20.950
20
 219.087
30
  11.622
11
 -20.953
21
 219.087
31
  11.548
39
 0
62
  2
 0
LINE
8
default
6
CONTINUOUS
10
 -21.716
20
 219.087
30
  11.622
11
 -21.714
21
 219.619
31
  11.548
39
 0
62
  2
 0
LINE
8
default
6
CONTINUOUS
10
  20.950
20
 219.087
30
  11.622
11
  20.953
21
 219.087
31
  11.548
39
 0
62
  2
 0
LINE
8
default
6
CONTINUOUS
10
 -20.953
20
 219.619
30
  11.548
11
  21.714
21
 219.619
31
  11.548
39
 0
62
  2
 0
LINE
8
default
6
CONTINUOUS
10
  20.953
20
 219.619
30
  11.548
11
 -21.714
21
 219.619
31
  11.548
39
 0
62
  2
 0
LINE
8
default
6
CONTINUOUS
10
  21.714
20
 219.619
30
  11.548
11
  21.711
21
 220.152
31
  11.473
39
 0
62
  2
 0
LINE
8
default
6
CONTINUOUS
10
 -20.953
20
 219.619
30
  11.548
11
 -20.956
21
 219.619
31
  11.473
39
 0
62
  2
 0
LINE
8
default
6
CONTINUOUS
10
 -21.714
20
 219.619
30
  11.548
11
 -21.711
21
 220.152
31
  11.473
39
 0
62
  2
 0
LINE
8
default
6
CONTINUOUS
10
  20.953
20
 219.619
30
  11.548
11
  20.956
21
 219.619
31
  11.473
39
 0
62
  2
 0
LINE
8
default
6
CONTINUOUS
10
 -20.956
20
 220.152
30
  11.473
11
  21.711
21
 220.152
31
  11.473
39
 0
62
  2
 0
LINE
8
default
6
CONTINUOUS
10
  20.956
20
 220.152
30
  11.473
11
 -21.711
21
 220.152
31
  11.473
39
 0
62
  2
 0
LINE
8
default
6
CONTINUOUS
10
  21.711
20
 220.152
30
  11.473
11
  21.709
21
 220.685
31
  11.399
39
 0
62
  2
 0
LINE
8
default
6
CONTINUOUS
10
 -20.956
20
 220.152
30
  11.473
11
 -20.958
21
 220.152
31
  11.399
39
 0
62
  2
 0
LINE
8
default
6
CONTINUOUS
10
 -21.711
20
 220.152
30
  11.473
11
 -21.709
21
 220.685
31
  11.399
39
 0
62
  2
 0
LINE
8
default
6
CONTINUOUS
10
  20.956
20
 220.152
30
  11.473
11
  20.958
21
 220.152
31
  11.399
39
 0
62
  2
 0
LINE
8
default
6
CONTINUOUS
10
 -20.958
20
 220.685
30
  11.399
11
  21.709
21
 220.685
31
  11.399
39
 0
62
  2
 0
LINE
8
default
6
CONTINUOUS
10
  20.958
20
 220.685
30
  11.399
11
 -21.709
21
 220.685
31
  11.399
39
 0
62
  2
 0
LINE
8
default
6
CONTINUOUS
10
  21.709
20
 220.685
30
  11.399
11
  21.706
21
 221.218
31
  11.324
39
 0
62
  2
 0
LINE
8
default
6
CONTINUOUS
10
 -20.958
20
 220.685
30
  11.399
11
 -20.961
21
 220.685
31
  11.324
39
 0
62
  2
 0
LINE
8
default
6
CONTINUOUS
10
 -21.709
20
 220.685
30
  11.399
11
 -21.706
21
 221.218
31
  11.324
39
 0
62
  2
 0
LINE
8
default
6
CONTINUOUS
10
  20.958
20
 220.685
30
  11.399
11
  20.961
21
 220.685
31
  11.324
39
 0
62
  2
 0
LINE
8
default
6
CONTINUOUS
10
 -20.961
20
 221.218
30
  11.324
11
  21.706
21
 221.218
31
  11.324
39
 0
62
  2
 0
LINE
8
default
6
CONTINUOUS
10
  20.961
20
 221.218
30
  11.324
11
 -21.706
21
 221.218
31
  11.324
39
 0
62
  2
 0
LINE
8
default
6
CONTINUOUS
10
  21.706
20
 221.218
30
  11.324
11
  21.704
21
 221.750
31
  11.249
39
 0
62
  2
 0
LINE
8
default
6
CONTINUOUS
10
 -20.961
20
 221.218
30
  11.324
11
 -20.963
21
 221.218
31
  11.249
39
 0
62
  2
 0
LINE
8
default
6
CONTINUOUS
10
 -21.706
20
 221.218
30
  11.324
11
 -21.704
21
 221.750
31
  11.249
39
 0
62
  2
 0
LINE
8
default
6
CONTINUOUS
10
  20.961
20
 221.218
30
  11.324
11
  20.963
21
 221.218
31
  11.249
39
 0
62
  2
 0
LINE
8
default
6
CONTINUOUS
10
 -20.963
20
 221.750
30
  11.249
11
  21.704
21
 221.750
31
  11.249
39
 0
62
  2
 0
LINE
8
default
6
CONTINUOUS
10
  20.963
20
 221.750
30
  11.249
11
 -21.704
21
 221.750
31
  11.249
39
 0
62
  2
 0
LINE
8
default
6
CONTINUOUS
10
  21.704
20
 221.750
30
  11.249
11
  21.701
21
 222.283
31
  11.175
39
 0
62
  2
 0
LINE
8
default
6
CONTINUOUS
10
 -20.963
20
 221.750
30
  11.249
11
 -20.966
21
 221.750
31
  11.175
39
 0
62
  2
 0
LINE
8
default
6
CONTINUOUS
10
 -21.704
20
 221.750
30
  11.249
11
 -21.701
21
 222.283
31
  11.175
39
 0
62
  2
 0
LINE
8
default
6
CONTINUOUS
10
  20.963
20
 221.750
30
  11.249
11
  20.966
21
 221.750
31
  11.175
39
 0
62
  2
 0
LINE
8
default
6
CONTINUOUS
10
 -20.966
20
 222.283
30
  11.175
11
  21.701
21
 222.283
31
  11.175
39
 0
62
  2
 0
LINE
8
default
6
CONTINUOUS
10
  20.966
20
 222.283
30
  11.175
11
 -21.701
21
 222.283
31
  11.175
39
 0
62
  2
 0
LINE
8
default
6
CONTINUOUS
10
  21.701
20
 222.283
30
  11.175
11
  21.698
21
 222.816
31
  11.100
39
 0
62
  2
 0
LINE
8
default
6
CONTINUOUS
10
 -20.966
20
 222.283
30
  11.175
11
 -20.968
21
 222.283
31
  11.100
39
 0
62
  2
 0
LINE
8
default
6
CONTINUOUS
10
 -21.701
20
 222.283
30
  11.175
11
 -21.698
21
 222.816
31
  11.100
39
 0
62
  2
 0
LINE
8
default
6
CONTINUOUS
10
  20.966
20
 222.283
30
  11.175
11
  20.968
21
 222.283
31
  11.100
39
 0
62
  2
 0
LINE
8
default
6
CONTINUOUS
10
 -20.968
20
 222.816
30
  11.100
11
  21.698
21
 222.816
31
  11.100
39
 0
62
  2
 0
LINE
8
default
6
CONTINUOUS
10
  20.968
20
 222.816
30
  11.100
11
 -21.698
21
 222.816
31
  11.100
39
 0
62
  2
 0
LINE
8
default
6
CONTINUOUS
10
  21.698
20
 222.816
30
  11.100
11
  21.696
21
 223.349
31
  11.026
39
 0
62
  2
 0
LINE
8
default
6
CONTINUOUS
10
 -20.968
20
 222.816
30
  11.100
11
 -20.971
21
 222.816
31
  11.026
39
 0
62
  2
 0
LINE
8
default
6
CONTINUOUS
10
 -21.698
20
 222.816
30
  11.100
11
 -21.696
21
 223.349
31
  11.026
39
 0
62
  2
 0
LINE
8
default
6
CONTINUOUS
10
  20.968
20
 222.816
30
  11.100
11
  20.971
21
 222.816
31
  11.026
39
 0
62
  2
 0
LINE
8
default
6
CONTINUOUS
10
 -20.971
20
 223.349
30
  11.026
11
  21.696
21
 223.349
31
  11.026
39
 0
62
  2
 0
LINE
8
default
6
CONTINUOUS
10
  20.971
20
 223.349
30
  11.026
11
 -21.696
21
 223.349
31
  11.026
39
 0
62
  2
 0
LINE
8
default
6
CONTINUOUS
10
  21.696
20
 223.349
30
  11.026
11
  21.693
21
 223.881
31
  10.951
39
 0
62
  2
 0
LINE
8
default
6
CONTINUOUS
10
 -20.971
20
 223.349
30
  11.026
11
 -20.973
21
 223.349
31
  10.951
39
 0
62
  2
 0
LINE
8
default
6
CONTINUOUS
10
 -21.696
20
 223.349
30
  11.026
11
 -21.693
21
 223.881
31
  10.951
39
 0
62
  2
 0
LINE
8
default
6
CONTINUOUS
10
  20.971
20
 223.349
30
  11.026
11
  20.973
21
 223.349
31
  10.951
39
 0
62
  2
 0
LINE
8
default
6
CONTINUOUS
10
 -20.973
20
 223.881
30
  10.951
11
  21.693
21
 223.881
31
  10.951
39
 0
62
  2
 0
LINE
8
default
6
CONTINUOUS
10
  20.973
20
 223.881
30
  10.951
11
 -21.693
21
 223.881
31
  10.951
39
 0
62
  2
 0
LINE
8
default
6
CONTINUOUS
10
  21.693
20
 223.881
30
  10.951
11
  21.691
21
 224.414
31
  10.875
39
 0
62
  2
 0
LINE
8
default
6
CONTINUOUS
10
 -20.973
20
 223.881
30
  10.951
11
 -20.976
21
 223.881
31
  10.875
39
 0
62
  2
 0
LINE
8
default
6
CONTINUOUS
10
 -21.693
20
 223.881
30
  10.951
11
 -21.691
21
 224.414
31
  10.875
39
 0
62
  2
 0
LINE
8
default
6
CONTINUOUS
10
  20.973
20
 223.881
30
  10.951
11
  20.976
21
 223.881
31
  10.875
39
 0
62
  2
 0
LINE
8
default
6
CONTINUOUS
10
 -20.976
20
 224.414
30
  10.875
11
  21.691
21
 224.414
31
  10.875
39
 0
62
  2
 0
LINE
8
default
6
CONTINUOUS
10
  20.976
20
 224.414
30
  10.875
11
 -21.691
21
 224.414
31
  10.875
39
 0
62
  2
 0
LINE
8
default
6
CONTINUOUS
10
  21.691
20
 224.414
30
  10.875
11
  21.688
21
 224.947
31
  10.798
39
 0
62
  2
 0
LINE
8
default
6
CONTINUOUS
10
 -20.976
20
 224.414
30
  10.875
11
 -20.979
21
 224.414
31
  10.798
39
 0
62
  2
 0
LINE
8
default
6
CONTINUOUS
10
 -21.691
20
 224.414
30
  10.875
11
 -21.688
21
 224.947
31
  10.798
39
 0
62
  2
 0
LINE
8
default
6
CONTINUOUS
10
  20.976
20
 224.414
30
  10.875
11
  20.979
21
 224.414
31
  10.798
39
 0
62
  2
 0
LINE
8
default
6
CONTINUOUS
10
 -20.979
20
 224.947
30
  10.798
11
  21.688
21
 224.947
31
  10.798
39
 0
62
  2
 0
LINE
8
default
6
CONTINUOUS
10
  20.979
20
 224.947
30
  10.798
11
 -21.688
21
 224.947
31
  10.798
39
 0
62
  2
 0
LINE
8
default
6
CONTINUOUS
10
  21.688
20
 224.947
30
  10.798
11
  21.686
21
 225.480
31
  10.720
39
 0
62
  2
 0
LINE
8
default
6
CONTINUOUS
10
 -20.979
20
 224.947
30
  10.798
11
 -20.981
21
 224.947
31
  10.720
39
 0
62
  2
 0
LINE
8
default
6
CONTINUOUS
10
 -21.688
20
 224.947
30
  10.798
11
 -21.686
21
 225.480
31
  10.720
39
 0
62
  2
 0
LINE
8
default
6
CONTINUOUS
10
  20.979
20
 224.947
30
  10.798
11
  20.981
21
 224.947
31
  10.720
39
 0
62
  2
 0
LINE
8
default
6
CONTINUOUS
10
 -20.981
20
 225.480
30
  10.720
11
  21.686
21
 225.480
31
  10.720
39
 0
62
  2
 0
LINE
8
default
6
CONTINUOUS
10
  20.981
20
 225.480
30
  10.720
11
 -21.686
21
 225.480
31
  10.720
39
 0
62
  2
 0
LINE
8
default
6
CONTINUOUS
10
  21.686
20
 225.480
30
  10.720
11
  21.683
21
 226.012
31
  10.643
39
 0
62
  2
 0
LINE
8
default
6
CONTINUOUS
10
 -20.981
20
 225.480
30
  10.720
11
 -20.984
21
 225.480
31
  10.643
39
 0
62
  2
 0
LINE
8
default
6
CONTINUOUS
10
 -21.686
20
 225.480
30
  10.720
11
 -21.683
21
 226.012
31
  10.643
39
 0
62
  2
 0
LINE
8
default
6
CONTINUOUS
10
  20.981
20
 225.480
30
  10.720
11
  20.984
21
 225.480
31
  10.643
39
 0
62
  2
 0
LINE
8
default
6
CONTINUOUS
10
 -20.984
20
 226.012
30
  10.643
11
  21.683
21
 226.012
31
  10.643
39
 0
62
  2
 0
LINE
8
default
6
CONTINUOUS
10
  20.984
20
 226.012
30
  10.643
11
 -21.683
21
 226.012
31
  10.643
39
 0
62
  2
 0
LINE
8
default
6
CONTINUOUS
10
  21.683
20
 226.012
30
  10.643
11
  21.680
21
 226.545
31
  10.566
39
 0
62
  2
 0
LINE
8
default
6
CONTINUOUS
10
 -20.984
20
 226.012
30
  10.643
11
 -20.986
21
 226.012
31
  10.566
39
 0
62
  2
 0
LINE
8
default
6
CONTINUOUS
10
 -21.683
20
 226.012
30
  10.643
11
 -21.680
21
 226.545
31
  10.566
39
 0
62
  2
 0
LINE
8
default
6
CONTINUOUS
10
  20.984
20
 226.012
30
  10.643
11
  20.986
21
 226.012
31
  10.566
39
 0
62
  2
 0
LINE
8
default
6
CONTINUOUS
10
 -20.986
20
 226.545
30
  10.566
11
  21.680
21
 226.545
31
  10.566
39
 0
62
  2
 0
LINE
8
default
6
CONTINUOUS
10
  20.986
20
 226.545
30
  10.566
11
 -21.680
21
 226.545
31
  10.566
39
 0
62
  2
 0
LINE
8
default
6
CONTINUOUS
10
  21.680
20
 226.545
30
  10.566
11
  21.678
21
 227.078
31
  10.488
39
 0
62
  2
 0
LINE
8
default
6
CONTINUOUS
10
 -20.986
20
 226.545
30
  10.566
11
 -20.989
21
 226.545
31
  10.488
39
 0
62
  2
 0
LINE
8
default
6
CONTINUOUS
10
 -21.680
20
 226.545
30
  10.566
11
 -21.678
21
 227.078
31
  10.488
39
 0
62
  2
 0
LINE
8
default
6
CONTINUOUS
10
  20.986
20
 226.545
30
  10.566
11
  20.989
21
 226.545
31
  10.488
39
 0
62
  2
 0
LINE
8
default
6
CONTINUOUS
10
 -20.989
20
 227.078
30
  10.488
11
  21.678
21
 227.078
31
  10.488
39
 0
62
  2
 0
LINE
8
default
6
CONTINUOUS
10
  20.989
20
 227.078
30
  10.488
11
 -21.678
21
 227.078
31
  10.488
39
 0
62
  2
 0
LINE
8
default
6
CONTINUOUS
10
  21.678
20
 227.078
30
  10.488
11
  21.675
21
 227.611
31
  10.411
39
 0
62
  2
 0
LINE
8
default
6
CONTINUOUS
10
 -20.989
20
 227.078
30
  10.488
11
 -20.992
21
 227.078
31
  10.411
39
 0
62
  2
 0
LINE
8
default
6
CONTINUOUS
10
 -21.678
20
 227.078
30
  10.488
11
 -21.675
21
 227.611
31
  10.411
39
 0
62
  2
 0
LINE
8
default
6
CONTINUOUS
10
  20.989
20
 227.078
30
  10.488
11
  20.992
21
 227.078
31
  10.411
39
 0
62
  2
 0
LINE
8
default
6
CONTINUOUS
10
 -20.992
20
 227.611
30
  10.411
11
  21.675
21
 227.611
31
  10.411
39
 0
62
  2
 0
LINE
8
default
6
CONTINUOUS
10
  20.992
20
 227.611
30
  10.411
11
 -21.675
21
 227.611
31
  10.411
39
 0
62
  2
 0
LINE
8
default
6
CONTINUOUS
10
  21.675
20
 227.611
30
  10.411
11
  21.672
21
 228.143
31
  10.334
39
 0
62
  2
 0
LINE
8
default
6
CONTINUOUS
10
 -20.992
20
 227.611
30
  10.411
11
 -20.994
21
 227.611
31
  10.334
39
 0
62
  2
 0
LINE
8
default
6
CONTINUOUS
10
 -21.675
20
 227.611
30
  10.411
11
 -21.672
21
 228.143
31
  10.334
39
 0
62
  2
 0
LINE
8
default
6
CONTINUOUS
10
  20.992
20
 227.611
30
  10.411
11
  20.994
21
 227.611
31
  10.334
39
 0
62
  2
 0
LINE
8
default
6
CONTINUOUS
10
 -20.994
20
 228.143
30
  10.334
11
  21.672
21
 228.143
31
  10.334
39
 0
62
  2
 0
LINE
8
default
6
CONTINUOUS
10
  20.994
20
 228.143
30
  10.334
11
 -21.672
21
 228.143
31
  10.334
39
 0
62
  2
 0
LINE
8
default
6
CONTINUOUS
10
  21.672
20
 228.143
30
  10.334
11
  21.670
21
 228.676
31
  10.256
39
 0
62
  2
 0
LINE
8
default
6
CONTINUOUS
10
 -20.994
20
 228.143
30
  10.334
11
 -20.997
21
 228.143
31
  10.256
39
 0
62
  2
 0
LINE
8
default
6
CONTINUOUS
10
 -21.672
20
 228.143
30
  10.334
11
 -21.670
21
 228.676
31
  10.256
39
 0
62
  2
 0
LINE
8
default
6
CONTINUOUS
10
  20.994
20
 228.143
30
  10.334
11
  20.997
21
 228.143
31
  10.256
39
 0
62
  2
 0
LINE
8
default
6
CONTINUOUS
10
 -20.997
20
 228.676
30
  10.256
11
  21.670
21
 228.676
31
  10.256
39
 0
62
  2
 0
LINE
8
default
6
CONTINUOUS
10
  20.997
20
 228.676
30
  10.256
11
 -21.670
21
 228.676
31
  10.256
39
 0
62
  2
 0
LINE
8
default
6
CONTINUOUS
10
  21.670
20
 228.676
30
  10.256
11
  21.667
21
 229.209
31
  10.179
39
 0
62
  2
 0
LINE
8
default
6
CONTINUOUS
10
 -20.997
20
 228.676
30
  10.256
11
 -21.000
21
 228.676
31
  10.179
39
 0
62
  2
 0
LINE
8
default
6
CONTINUOUS
10
 -21.670
20
 228.676
30
  10.256
11
 -21.667
21
 229.209
31
  10.179
39
 0
62
  2
 0
LINE
8
default
6
CONTINUOUS
10
  20.997
20
 228.676
30
  10.256
11
  21.000
21
 228.676
31
  10.179
39
 0
62
  2
 0
LINE
8
default
6
CONTINUOUS
10
 -21.000
20
 229.209
30
  10.179
11
  21.667
21
 229.209
31
  10.179
39
 0
62
  2
 0
LINE
8
default
6
CONTINUOUS
10
  21.000
20
 229.209
30
  10.179
11
 -21.667
21
 229.209
31
  10.179
39
 0
62
  2
 0
LINE
8
default
6
CONTINUOUS
10
  21.667
20
 229.209
30
  10.179
11
  21.664
21
 229.742
31
  10.102
39
 0
62
  2
 0
LINE
8
default
6
CONTINUOUS
10
 -21.000
20
 229.209
30
  10.179
11
 -21.002
21
 229.209
31
  10.102
39
 0
62
  2
 0
LINE
8
default
6
CONTINUOUS
10
 -21.667
20
 229.209
30
  10.179
11
 -21.664
21
 229.742
31
  10.102
39
 0
62
  2
 0
LINE
8
default
6
CONTINUOUS
10
  21.000
20
 229.209
30
  10.179
11
  21.002
21
 229.209
31
  10.102
39
 0
62
  2
 0
LINE
8
default
6
CONTINUOUS
10
 -21.002
20
 229.742
30
  10.102
11
  21.664
21
 229.742
31
  10.102
39
 0
62
  2
 0
LINE
8
default
6
CONTINUOUS
10
  21.002
20
 229.742
30
  10.102
11
 -21.664
21
 229.742
31
  10.102
39
 0
62
  2
 0
ENDSEC
0
EOF
