  0
SECTION
  2
HEADER
  9
$ACADVER
  1
AC1015
  9
$ACADMAINTVER
 70
6
  9
$DWGCODEPAGE
  3
ANSI_1252
  9
$INSBASE
 10
0.0
 20
0.0
 30
0.0
  9
$EXTMIN
 10
-100
 20
-100
 30
-100
  9
$EXTMAX
 10
100
 20
100
 30
100
  9
$LIMMIN
 10
0.0
 20
0.0
  9
$LIMMAX
 10
420.0
 20
297.0
  9
$ORTHOMODE
 70
0
  9
$REGENMODE
 70
1
  9
$FILLMODE
 70
1
  9
$QTEXTMODE
 70
0
  9
$MIRRTEXT
 70
1
  9
$LTSCALE
 40
1.0
  9
$ATTMODE
 70
1
  9
$TEXTSIZE
 40
2.5
  9
$TRACEWID
 40
1.0
  9
$TEXTSTYLE
  7
Standard
  9
$CLAYER
  8
0
  9
$CELTYPE
  6
ByLayer
  9
$CECOLOR
 62
256
  9
$CELTSCALE
 40
1.0
  9
$DISPSILH
 70
0
  9
$DIMSCALE
 40
1.0
  9
$DIMASZ
 40
2.5
  9
$DIMEXO
 40
0.625
  9
$DIMDLI
 40
3.75
  9
$DIMRND
 40
0.0
  9
$DIMDLE
 40
0.0
  9
$DIMEXE
 40
1.25
  9
$DIMTP
 40
0.0
  9
$DIMTM
 40
0.0
  9
$DIMTXT
 40
2.5
  9
$DIMCEN
 40
2.5
  9
$DIMTSZ
 40
0.0
  9
$DIMTOL
 70
0
  9
$DIMLIM
 70
0
  9
$DIMTIH
 70
0
  9
$DIMTOH
 70
0
  9
$DIMSE1
 70
0
  9
$DIMSE2
 70
0
  9
$DIMTAD
 70
1
  9
$DIMZIN
 70
8
  9
$DIMBLK
  1

  9
$DIMASO
 70
1
  9
$DIMSHO
 70
1
  9
$DIMPOST
  1

  9
$DIMAPOST
  1

  9
$DIMALT
 70
0
  9
$DIMALTD
 70
3
  9
$DIMALTF
 40
0.03937007874
  9
$DIMLFAC
 40
1.0
  9
$DIMTOFL
 70
1
  9
$DIMTVP
 40
0.0
  9
$DIMTIX
 70
0
  9
$DIMSOXD
 70
0
  9
$DIMSAH
 70
0
  9
$DIMBLK1
  1

  9
$DIMBLK2
  1

  9
$DIMSTYLE
  2
ISO-25
  9
$DIMCLRD
 70
0
  9
$DIMCLRE
 70
0
  9
$DIMCLRT
 70
0
  9
$DIMTFAC
 40
1.0
  9
$DIMGAP
 40
0.625
  9
$DIMJUST
 70
0
  9
$DIMSD1
 70
0
  9
$DIMSD2
 70
0
  9
$DIMTOLJ
 70
0
  9
$DIMTZIN
 70
8
  9
$DIMALTZ
 70
0
  9
$DIMALTTZ
 70
0
  9
$DIMUPT
 70
0
  9
$DIMDEC
 70
2
  9
$DIMTDEC
 70
2
  9
$DIMALTU
 70
2
  9
$DIMALTTD
 70
3
  9
$DIMTXSTY
  7
Standard
  9
$DIMAUNIT
 70
0
  9
$DIMADEC
 70
0
  9
$DIMALTRND
 40
0.0
  9
$DIMAZIN
 70
0
  9
$DIMDSEP
 70
44
  9
$DIMATFIT
 70
3
  9
$DIMFRAC
 70
0
  9
$DIMLDRBLK
  1

  9
$DIMLUNIT
 70
2
  9
$DIMLWD
 70
-2
  9
$DIMLWE
 70
-2
  9
$DIMTMOVE
 70
0
  9
$LUNITS
 70
2
  9
$LUPREC
 70
4
  9
$SKETCHINC
 40
1.0
  9
$FILLETRAD
 40
10.0
  9
$AUNITS
 70
0
  9
$AUPREC
 70
2
  9
$MENU
  1
.
  9
$ELEVATION
 40
0.0
  9
$PELEVATION
 40
0.0
  9
$THICKNESS
 40
0.0
  9
$LIMCHECK
 70
0
  9
$CHAMFERA
 40
0.0
  9
$CHAMFERB
 40
0.0
  9
$CHAMFERC
 40
0.0
  9
$CHAMFERD
 40
0.0
  9
$SKPOLY
 70
0
  9
$TDCREATE
 40
2459188.964386574
  9
$TDUCREATE
 40
2458532.153996898
  9
$TDUPDATE
 40
2459188.964386574
  9
$TDUUPDATE
 40
2458532.1544311
  9
$TDINDWG
 40
0.0
  9
$TDUSRTIMER
 40
0.0
  9
$USRTIMER
 70
1
  9
$ANGBASE
 50
0.0
  9
$ANGDIR
 70
0
  9
$PDMODE
 70
0
  9
$PDSIZE
 40
0.0
  9
$PLINEWID
 40
0.0
  9
$SPLFRAME
 70
0
  9
$SPLINETYPE
 70
6
  9
$SPLINESEGS
 70
8
  9
$HANDSEED
  5
60D
  9
$SURFTAB1
 70
6
  9
$SURFTAB2
 70
6
  9
$SURFTYPE
 70
6
  9
$SURFU
 70
6
  9
$SURFV
 70
6
  9
$UCSBASE
  2

  9
$UCSNAME
  2

  9
$UCSORG
 10
0.0
 20
0.0
 30
0.0
  9
$UCSXDIR
 10
1.0
 20
0.0
 30
0.0
  9
$UCSYDIR
 10
0.0
 20
1.0
 30
0.0
  9
$UCSORTHOREF
  2

  9
$UCSORTHOVIEW
 70
0
  9
$UCSORGTOP
 10
0.0
 20
0.0
 30
0.0
  9
$UCSORGBOTTOM
 10
0.0
 20
0.0
 30
0.0
  9
$UCSORGLEFT
 10
0.0
 20
0.0
 30
0.0
  9
$UCSORGRIGHT
 10
0.0
 20
0.0
 30
0.0
  9
$UCSORGFRONT
 10
0.0
 20
0.0
 30
0.0
  9
$UCSORGBACK
 10
0.0
 20
0.0
 30
0.0
  9
$PUCSBASE
  2

  9
$PUCSNAME
  2

  9
$PUCSORG
 10
0.0
 20
0.0
 30
0.0
  9
$PUCSXDIR
 10
1.0
 20
0.0
 30
0.0
  9
$PUCSYDIR
 10
0.0
 20
1.0
 30
0.0
  9
$PUCSORTHOREF
  2

  9
$PUCSORTHOVIEW
 70
0
  9
$PUCSORGTOP
 10
0.0
 20
0.0
 30
0.0
  9
$PUCSORGBOTTOM
 10
0.0
 20
0.0
 30
0.0
  9
$PUCSORGLEFT
 10
0.0
 20
0.0
 30
0.0
  9
$PUCSORGRIGHT
 10
0.0
 20
0.0
 30
0.0
  9
$PUCSORGFRONT
 10
0.0
 20
0.0
 30
0.0
  9
$PUCSORGBACK
 10
0.0
 20
0.0
 30
0.0
  9
$USERI1
 70
0
  9
$USERI2
 70
0
  9
$USERI3
 70
0
  9
$USERI4
 70
0
  9
$USERI5
 70
0
  9
$USERR1
 40
0.0
  9
$USERR2
 40
0.0
  9
$USERR3
 40
0.0
  9
$USERR4
 40
0.0
  9
$USERR5
 40
0.0
  9
$WORLDVIEW
 70
1
  9
$SHADEDGE
 70
3
  9
$SHADEDIF
 70
70
  9
$TILEMODE
 70
1
  9
$MAXACTVP
 70
64
  9
$PINSBASE
 10
0.0
 20
0.0
 30
0.0
  9
$PLIMCHECK
 70
0
  9
$PEXTMIN
 10
1e+20
 20
1e+20
 30
1e+20
  9
$PEXTMAX
 10
-1e+20
 20
-1e+20
 30
-1e+20
  9
$PLIMMIN
 10
0.0
 20
0.0
  9
$PLIMMAX
 10
420.0
 20
297.0
  9
$UNITMODE
 70
0
  9
$VISRETAIN
 70
1
  9
$PLINEGEN
 70
0
  9
$PSLTSCALE
 70
1
  9
$TREEDEPTH
 70
3020
  9
$CMLSTYLE
  2
Standard
  9
$CMLJUST
 70
0
  9
$CMLSCALE
 40
20.0
  9
$PROXYGRAPHICS
 70
1
  9
$MEASUREMENT
 70
1
  9
$CELWEIGHT
370
-1
  9
$ENDCAPS
280
0
  9
$JOINSTYLE
280
0
  9
$LWDISPLAY
290
0
  9
$INSUNITS
 70
6
  9
$HYPERLINKBASE
  1

  9
$STYLESHEET
  1

  9
$XEDIT
290
1
  9
$CEPSNTYPE
380
0
  9
$PSTYLEMODE
290
1
  9
$FINGERPRINTGUID
  2
458A50DA-367D-11EB-B1A5-C2B9DDCE3D85
  9
$VERSIONGUID
  2
458A50DC-367D-11EB-B1A5-C2B9DDCE3D85
  9
$EXTNAMES
290
1
  9
$PSVPSCALE
 40
0.0
  9
$OLESTARTUP
290
0
  0
ENDSEC
  0
SECTION
  2
CLASSES
  0
CLASS
  1
ACDBDICTIONARYWDFLT
  2
AcDbDictionaryWithDefault
  3
ObjectDBX Classes
 90
0
280
0
281
0
  0
CLASS
  1
SUN
  2
AcDbSun
  3
SCENEOE
 90
1153
280
0
281
0
  0
CLASS
  1
VISUALSTYLE
  2
AcDbVisualStyle
  3
ObjectDBX Classes
 90
4095
280
0
281
0
  0
CLASS
  1
MATERIAL
  2
AcDbMaterial
  3
ObjectDBX Classes
 90
1153
280
0
281
0
  0
CLASS
  1
SCALE
  2
AcDbScale
  3
ObjectDBX Classes
 90
1153
280
0
281
0
  0
CLASS
  1
TABLESTYLE
  2
AcDbTableStyle
  3
ObjectDBX Classes
 90
4095
280
0
281
0
  0
CLASS
  1
MLEADERSTYLE
  2
AcDbMLeaderStyle
  3
ACDB_MLEADERSTYLE_CLASS
 90
4095
280
0
281
0
  0
CLASS
  1
DICTIONARYVAR
  2
AcDbDictionaryVar
  3
ObjectDBX Classes
 90
0
280
0
281
0
  0
CLASS
  1
CELLSTYLEMAP
  2
AcDbCellStyleMap
  3
ObjectDBX Classes
 90
1152
280
0
281
0
  0
CLASS
  1
MENTALRAYRENDERSETTINGS
  2
AcDbMentalRayRenderSettings
  3
SCENEOE
 90
1024
280
0
281
0
  0
CLASS
  1
ACDBDETAILVIEWSTYLE
  2
AcDbDetailViewStyle
  3
ObjectDBX Classes
 90
1025
280
0
281
0
  0
CLASS
  1
ACDBSECTIONVIEWSTYLE
  2
AcDbSectionViewStyle
  3
ObjectDBX Classes
 90
1025
280
0
281
0
  0
CLASS
  1
RASTERVARIABLES
  2
AcDbRasterVariables
  3
ISM
 90
0
280
0
281
0
  0
CLASS
  1
ACDBPLACEHOLDER
  2
AcDbPlaceHolder
  3
ObjectDBX Classes
 90
0
280
0
281
0
  0
CLASS
  1
LAYOUT
  2
AcDbLayout
  3
ObjectDBX Classes
 90
0
280
0
281
0
  0
ENDSEC
  0
SECTION
  2
TABLES
  0
TABLE
  2
VPORT
  5
8
330
0
100
AcDbSymbolTable
 70
1
  0
VPORT
  5
3B1
330
8
100
AcDbSymbolTableRecord
100
AcDbViewportTableRecord
  2
*ACTIVE
 70
0
 10
0.0
 20
0.0
 11
1.0
 21
1.0
 12
1700.0
 22
-1700.0
 13
0.0
 23
0.0
 14
0.5
 24
0.5
 15
0.5
 25
0.5
 16
0.0
 26
0.0
 36
1.0
 17
0.0
 27
0.0
 37
0.0
 40
5400.0
 41
1.0
 42
50.0
 43
0.0
 44
0.0
 50
0.0
 51
0.0
 71
0
 72
1000
 73
1
 74
3
 75
0
 76
0
 77
0
 78
0
281
0
 65
0
146
0.0
  0
ENDTAB
  0
TABLE
  2
LTYPE
  5
2
330
0
100
AcDbSymbolTable
 70
3
  0
LTYPE
  5
24
330
2
100
AcDbSymbolTableRecord
100
AcDbLinetypeTableRecord
  2
ByBlock
 70
0
  3

 72
65
 73
0
 40
0.0
  0
LTYPE
  5
25
330
2
100
AcDbSymbolTableRecord
100
AcDbLinetypeTableRecord
  2
ByLayer
 70
0
  3

 72
65
 73
0
 40
0.0
  0
LTYPE
  5
26
330
2
100
AcDbSymbolTableRecord
100
AcDbLinetypeTableRecord
  2
Continuous
 70
0
  3

 72
65
 73
0
 40
0.0
  0
ENDTAB
  0
TABLE
  2
LAYER
  5
1
330
0
100
AcDbSymbolTable
 70
2
  0
LAYER
  5
27
330
1
100
AcDbSymbolTableRecord
100
AcDbLayerTableRecord
  2
0
 70
0
 62
7
  6
Continuous
370
-3
390
13
  0
LAYER
  5
28
330
1
100
AcDbSymbolTableRecord
100
AcDbLayerTableRecord
  2
Defpoints
 70
0
 62
7
  6
Continuous
290
0
370
-3
390
13
  0
ENDTAB
  0
TABLE
  2
STYLE
  5
5
330
0
100
AcDbSymbolTable
 70
1
  0
STYLE
  5
29
330
5
100
AcDbSymbolTableRecord
100
AcDbTextStyleTableRecord
  2
Standard
 70
0
 40
0.0
 41
1.0
 50
0.0
 71
0
 42
2.5
  3
txt
  4

  0
ENDTAB
  0
TABLE
  2
VIEW
  5
7
330
0
100
AcDbSymbolTable
 70
0
  0
ENDTAB
  0
TABLE
  2
UCS
  5
6
330
0
100
AcDbSymbolTable
 70
0
  0
ENDTAB
  0
TABLE
  2
APPID
  5
3
330
0
100
AcDbSymbolTable
 70
2
  0
APPID
  5
2A
330
3
100
AcDbSymbolTableRecord
100
AcDbRegAppTableRecord
  2
ACAD
 70
0
  0
APPID
  5
60C
330
3
100
AcDbSymbolTableRecord
100
AcDbRegAppTableRecord
  2
HATCHBACKGROUNDCOLOR
 70
0
  0
ENDTAB
  0
TABLE
  2
DIMSTYLE
  5
4
330
0
100
AcDbSymbolTable
 70
1
100
AcDbDimStyleTable
  0
DIMSTYLE
105
2B
330
4
100
AcDbSymbolTableRecord
100
AcDbDimStyleTableRecord
  2
Standard
 70
0
  3

  4

 40
1.0
 41
2.5
 42
0.625
 43
3.75
 44
1.25
 45
0.0
 46
0.0
 47
0.0
 48
0.0
140
2.5
141
2.5
142
0.0
143
0.03937007874
144
1.0
145
0.0
146
1.0
147
0.625
148
0.0
 71
0
 72
0
 73
0
 74
0
 75
0
 76
0
 77
1
 78
8
 79
0
170
0
171
3
172
1
173
0
174
0
175
0
176
0
177
0
178
0
179
0
271
0
272
2
273
2
274
3
275
0
276
0
277
2
278
44
279
0
280
0
281
0
282
0
283
0
284
8
285
0
286
0
288
0
289
3
371
-2
372
-2
  0
ENDTAB
  0
TABLE
  2
BLOCK_RECORD
  5
9
330
0
100
AcDbSymbolTable
 70
102
  0
BLOCK_RECORD
  5
17
330
9
100
AcDbSymbolTableRecord
100
AcDbBlockTableRecord
  2
*Model_Space
340
1A
  0
BLOCK_RECORD
  5
1B
330
9
100
AcDbSymbolTableRecord
100
AcDbBlockTableRecord
  2
*Paper_Space
340
1E
  0
BLOCK_RECORD
  5
3B4
330
9
100
AcDbSymbolTableRecord
100
AcDbBlockTableRecord
  2
*Paper_Space0
340
3B7
  0
BLOCK_RECORD
  5
3BA
330
9
100
AcDbSymbolTableRecord
100
AcDbBlockTableRecord
  2
*Paper_Space1
340
3BD
  0
BLOCK_RECORD
  5
3C0
330
9
100
AcDbSymbolTableRecord
100
AcDbBlockTableRecord
  2
*Paper_Space2
340
3C3
  0
BLOCK_RECORD
  5
3C6
330
9
100
AcDbSymbolTableRecord
100
AcDbBlockTableRecord
  2
*Paper_Space3
340
3C9
  0
BLOCK_RECORD
  5
3CC
330
9
100
AcDbSymbolTableRecord
100
AcDbBlockTableRecord
  2
*Paper_Space4
340
3CF
  0
BLOCK_RECORD
  5
3D2
330
9
100
AcDbSymbolTableRecord
100
AcDbBlockTableRecord
  2
*Paper_Space5
340
3D5
  0
BLOCK_RECORD
  5
3D8
330
9
100
AcDbSymbolTableRecord
100
AcDbBlockTableRecord
  2
*Paper_Space6
340
3DB
  0
BLOCK_RECORD
  5
3DE
330
9
100
AcDbSymbolTableRecord
100
AcDbBlockTableRecord
  2
*Paper_Space7
340
3E1
  0
BLOCK_RECORD
  5
3E4
330
9
100
AcDbSymbolTableRecord
100
AcDbBlockTableRecord
  2
*Paper_Space8
340
3E7
  0
BLOCK_RECORD
  5
3EA
330
9
100
AcDbSymbolTableRecord
100
AcDbBlockTableRecord
  2
*Paper_Space9
340
3ED
  0
BLOCK_RECORD
  5
3F0
330
9
100
AcDbSymbolTableRecord
100
AcDbBlockTableRecord
  2
*Paper_Space10
340
3F3
  0
BLOCK_RECORD
  5
3F6
330
9
100
AcDbSymbolTableRecord
100
AcDbBlockTableRecord
  2
*Paper_Space11
340
3F9
  0
BLOCK_RECORD
  5
3FC
330
9
100
AcDbSymbolTableRecord
100
AcDbBlockTableRecord
  2
*Paper_Space12
340
3FF
  0
BLOCK_RECORD
  5
402
330
9
100
AcDbSymbolTableRecord
100
AcDbBlockTableRecord
  2
*Paper_Space13
340
405
  0
BLOCK_RECORD
  5
408
330
9
100
AcDbSymbolTableRecord
100
AcDbBlockTableRecord
  2
*Paper_Space14
340
40B
  0
BLOCK_RECORD
  5
40E
330
9
100
AcDbSymbolTableRecord
100
AcDbBlockTableRecord
  2
*Paper_Space15
340
411
  0
BLOCK_RECORD
  5
414
330
9
100
AcDbSymbolTableRecord
100
AcDbBlockTableRecord
  2
*Paper_Space16
340
417
  0
BLOCK_RECORD
  5
41A
330
9
100
AcDbSymbolTableRecord
100
AcDbBlockTableRecord
  2
*Paper_Space17
340
41D
  0
BLOCK_RECORD
  5
420
330
9
100
AcDbSymbolTableRecord
100
AcDbBlockTableRecord
  2
*Paper_Space18
340
423
  0
BLOCK_RECORD
  5
426
330
9
100
AcDbSymbolTableRecord
100
AcDbBlockTableRecord
  2
*Paper_Space19
340
429
  0
BLOCK_RECORD
  5
42C
330
9
100
AcDbSymbolTableRecord
100
AcDbBlockTableRecord
  2
*Paper_Space20
340
42F
  0
BLOCK_RECORD
  5
432
330
9
100
AcDbSymbolTableRecord
100
AcDbBlockTableRecord
  2
*Paper_Space21
340
435
  0
BLOCK_RECORD
  5
438
330
9
100
AcDbSymbolTableRecord
100
AcDbBlockTableRecord
  2
*Paper_Space22
340
43B
  0
BLOCK_RECORD
  5
43E
330
9
100
AcDbSymbolTableRecord
100
AcDbBlockTableRecord
  2
*Paper_Space23
340
441
  0
BLOCK_RECORD
  5
444
330
9
100
AcDbSymbolTableRecord
100
AcDbBlockTableRecord
  2
*Paper_Space24
340
447
  0
BLOCK_RECORD
  5
44A
330
9
100
AcDbSymbolTableRecord
100
AcDbBlockTableRecord
  2
*Paper_Space25
340
44D
  0
BLOCK_RECORD
  5
450
330
9
100
AcDbSymbolTableRecord
100
AcDbBlockTableRecord
  2
*Paper_Space26
340
453
  0
BLOCK_RECORD
  5
456
330
9
100
AcDbSymbolTableRecord
100
AcDbBlockTableRecord
  2
*Paper_Space27
340
459
  0
BLOCK_RECORD
  5
45C
330
9
100
AcDbSymbolTableRecord
100
AcDbBlockTableRecord
  2
*Paper_Space28
340
45F
  0
BLOCK_RECORD
  5
462
330
9
100
AcDbSymbolTableRecord
100
AcDbBlockTableRecord
  2
*Paper_Space29
340
465
  0
BLOCK_RECORD
  5
468
330
9
100
AcDbSymbolTableRecord
100
AcDbBlockTableRecord
  2
*Paper_Space30
340
46B
  0
BLOCK_RECORD
  5
46E
330
9
100
AcDbSymbolTableRecord
100
AcDbBlockTableRecord
  2
*Paper_Space31
340
471
  0
BLOCK_RECORD
  5
474
330
9
100
AcDbSymbolTableRecord
100
AcDbBlockTableRecord
  2
*Paper_Space32
340
477
  0
BLOCK_RECORD
  5
47A
330
9
100
AcDbSymbolTableRecord
100
AcDbBlockTableRecord
  2
*Paper_Space33
340
47D
  0
BLOCK_RECORD
  5
480
330
9
100
AcDbSymbolTableRecord
100
AcDbBlockTableRecord
  2
*Paper_Space34
340
483
  0
BLOCK_RECORD
  5
486
330
9
100
AcDbSymbolTableRecord
100
AcDbBlockTableRecord
  2
*Paper_Space35
340
489
  0
BLOCK_RECORD
  5
48C
330
9
100
AcDbSymbolTableRecord
100
AcDbBlockTableRecord
  2
*Paper_Space36
340
48F
  0
BLOCK_RECORD
  5
492
330
9
100
AcDbSymbolTableRecord
100
AcDbBlockTableRecord
  2
*Paper_Space37
340
495
  0
BLOCK_RECORD
  5
498
330
9
100
AcDbSymbolTableRecord
100
AcDbBlockTableRecord
  2
*Paper_Space38
340
49B
  0
BLOCK_RECORD
  5
49E
330
9
100
AcDbSymbolTableRecord
100
AcDbBlockTableRecord
  2
*Paper_Space39
340
4A1
  0
BLOCK_RECORD
  5
4A4
330
9
100
AcDbSymbolTableRecord
100
AcDbBlockTableRecord
  2
*Paper_Space40
340
4A7
  0
BLOCK_RECORD
  5
4AA
330
9
100
AcDbSymbolTableRecord
100
AcDbBlockTableRecord
  2
*Paper_Space41
340
4AD
  0
BLOCK_RECORD
  5
4B0
330
9
100
AcDbSymbolTableRecord
100
AcDbBlockTableRecord
  2
*Paper_Space42
340
4B3
  0
BLOCK_RECORD
  5
4B6
330
9
100
AcDbSymbolTableRecord
100
AcDbBlockTableRecord
  2
*Paper_Space43
340
4B9
  0
BLOCK_RECORD
  5
4BC
330
9
100
AcDbSymbolTableRecord
100
AcDbBlockTableRecord
  2
*Paper_Space44
340
4BF
  0
BLOCK_RECORD
  5
4C2
330
9
100
AcDbSymbolTableRecord
100
AcDbBlockTableRecord
  2
*Paper_Space45
340
4C5
  0
BLOCK_RECORD
  5
4C8
330
9
100
AcDbSymbolTableRecord
100
AcDbBlockTableRecord
  2
*Paper_Space46
340
4CB
  0
BLOCK_RECORD
  5
4CE
330
9
100
AcDbSymbolTableRecord
100
AcDbBlockTableRecord
  2
*Paper_Space47
340
4D1
  0
BLOCK_RECORD
  5
4D4
330
9
100
AcDbSymbolTableRecord
100
AcDbBlockTableRecord
  2
*Paper_Space48
340
4D7
  0
BLOCK_RECORD
  5
4DA
330
9
100
AcDbSymbolTableRecord
100
AcDbBlockTableRecord
  2
*Paper_Space49
340
4DD
  0
BLOCK_RECORD
  5
4E0
330
9
100
AcDbSymbolTableRecord
100
AcDbBlockTableRecord
  2
*Paper_Space50
340
4E3
  0
BLOCK_RECORD
  5
4E6
330
9
100
AcDbSymbolTableRecord
100
AcDbBlockTableRecord
  2
*Paper_Space51
340
4E9
  0
BLOCK_RECORD
  5
4EC
330
9
100
AcDbSymbolTableRecord
100
AcDbBlockTableRecord
  2
*Paper_Space52
340
4EF
  0
BLOCK_RECORD
  5
4F2
330
9
100
AcDbSymbolTableRecord
100
AcDbBlockTableRecord
  2
*Paper_Space53
340
4F5
  0
BLOCK_RECORD
  5
4F8
330
9
100
AcDbSymbolTableRecord
100
AcDbBlockTableRecord
  2
*Paper_Space54
340
4FB
  0
BLOCK_RECORD
  5
4FE
330
9
100
AcDbSymbolTableRecord
100
AcDbBlockTableRecord
  2
*Paper_Space55
340
501
  0
BLOCK_RECORD
  5
504
330
9
100
AcDbSymbolTableRecord
100
AcDbBlockTableRecord
  2
*Paper_Space56
340
507
  0
BLOCK_RECORD
  5
50A
330
9
100
AcDbSymbolTableRecord
100
AcDbBlockTableRecord
  2
*Paper_Space57
340
50D
  0
BLOCK_RECORD
  5
510
330
9
100
AcDbSymbolTableRecord
100
AcDbBlockTableRecord
  2
*Paper_Space58
340
513
  0
BLOCK_RECORD
  5
516
330
9
100
AcDbSymbolTableRecord
100
AcDbBlockTableRecord
  2
*Paper_Space59
340
519
  0
BLOCK_RECORD
  5
51C
330
9
100
AcDbSymbolTableRecord
100
AcDbBlockTableRecord
  2
*Paper_Space60
340
51F
  0
BLOCK_RECORD
  5
522
330
9
100
AcDbSymbolTableRecord
100
AcDbBlockTableRecord
  2
*Paper_Space61
340
525
  0
BLOCK_RECORD
  5
528
330
9
100
AcDbSymbolTableRecord
100
AcDbBlockTableRecord
  2
*Paper_Space62
340
52B
  0
BLOCK_RECORD
  5
52E
330
9
100
AcDbSymbolTableRecord
100
AcDbBlockTableRecord
  2
*Paper_Space63
340
531
  0
BLOCK_RECORD
  5
534
330
9
100
AcDbSymbolTableRecord
100
AcDbBlockTableRecord
  2
*Paper_Space64
340
537
  0
BLOCK_RECORD
  5
53A
330
9
100
AcDbSymbolTableRecord
100
AcDbBlockTableRecord
  2
*Paper_Space65
340
53D
  0
BLOCK_RECORD
  5
540
330
9
100
AcDbSymbolTableRecord
100
AcDbBlockTableRecord
  2
*Paper_Space66
340
543
  0
BLOCK_RECORD
  5
546
330
9
100
AcDbSymbolTableRecord
100
AcDbBlockTableRecord
  2
*Paper_Space67
340
549
  0
BLOCK_RECORD
  5
54C
330
9
100
AcDbSymbolTableRecord
100
AcDbBlockTableRecord
  2
*Paper_Space68
340
54F
  0
BLOCK_RECORD
  5
552
330
9
100
AcDbSymbolTableRecord
100
AcDbBlockTableRecord
  2
*Paper_Space69
340
555
  0
BLOCK_RECORD
  5
558
330
9
100
AcDbSymbolTableRecord
100
AcDbBlockTableRecord
  2
*Paper_Space70
340
55B
  0
BLOCK_RECORD
  5
55E
330
9
100
AcDbSymbolTableRecord
100
AcDbBlockTableRecord
  2
*Paper_Space71
340
561
  0
BLOCK_RECORD
  5
564
330
9
100
AcDbSymbolTableRecord
100
AcDbBlockTableRecord
  2
*Paper_Space72
340
567
  0
BLOCK_RECORD
  5
56A
330
9
100
AcDbSymbolTableRecord
100
AcDbBlockTableRecord
  2
*Paper_Space73
340
56D
  0
BLOCK_RECORD
  5
570
330
9
100
AcDbSymbolTableRecord
100
AcDbBlockTableRecord
  2
*Paper_Space74
340
573
  0
BLOCK_RECORD
  5
576
330
9
100
AcDbSymbolTableRecord
100
AcDbBlockTableRecord
  2
*Paper_Space75
340
579
  0
BLOCK_RECORD
  5
57C
330
9
100
AcDbSymbolTableRecord
100
AcDbBlockTableRecord
  2
*Paper_Space76
340
57F
  0
BLOCK_RECORD
  5
582
330
9
100
AcDbSymbolTableRecord
100
AcDbBlockTableRecord
  2
*Paper_Space77
340
585
  0
BLOCK_RECORD
  5
588
330
9
100
AcDbSymbolTableRecord
100
AcDbBlockTableRecord
  2
*Paper_Space78
340
58B
  0
BLOCK_RECORD
  5
58E
330
9
100
AcDbSymbolTableRecord
100
AcDbBlockTableRecord
  2
*Paper_Space79
340
591
  0
BLOCK_RECORD
  5
594
330
9
100
AcDbSymbolTableRecord
100
AcDbBlockTableRecord
  2
*Paper_Space80
340
597
  0
BLOCK_RECORD
  5
59A
330
9
100
AcDbSymbolTableRecord
100
AcDbBlockTableRecord
  2
*Paper_Space81
340
59D
  0
BLOCK_RECORD
  5
5A0
330
9
100
AcDbSymbolTableRecord
100
AcDbBlockTableRecord
  2
*Paper_Space82
340
5A3
  0
BLOCK_RECORD
  5
5A6
330
9
100
AcDbSymbolTableRecord
100
AcDbBlockTableRecord
  2
*Paper_Space83
340
5A9
  0
BLOCK_RECORD
  5
5AC
330
9
100
AcDbSymbolTableRecord
100
AcDbBlockTableRecord
  2
*Paper_Space84
340
5AF
  0
BLOCK_RECORD
  5
5B2
330
9
100
AcDbSymbolTableRecord
100
AcDbBlockTableRecord
  2
*Paper_Space85
340
5B5
  0
BLOCK_RECORD
  5
5B8
330
9
100
AcDbSymbolTableRecord
100
AcDbBlockTableRecord
  2
*Paper_Space86
340
5BB
  0
BLOCK_RECORD
  5
5BE
330
9
100
AcDbSymbolTableRecord
100
AcDbBlockTableRecord
  2
*Paper_Space87
340
5C1
  0
BLOCK_RECORD
  5
5C4
330
9
100
AcDbSymbolTableRecord
100
AcDbBlockTableRecord
  2
*Paper_Space88
340
5C7
  0
BLOCK_RECORD
  5
5CA
330
9
100
AcDbSymbolTableRecord
100
AcDbBlockTableRecord
  2
*Paper_Space89
340
5CD
  0
BLOCK_RECORD
  5
5D0
330
9
100
AcDbSymbolTableRecord
100
AcDbBlockTableRecord
  2
*Paper_Space90
340
5D3
  0
BLOCK_RECORD
  5
5D6
330
9
100
AcDbSymbolTableRecord
100
AcDbBlockTableRecord
  2
*Paper_Space91
340
5D9
  0
BLOCK_RECORD
  5
5DC
330
9
100
AcDbSymbolTableRecord
100
AcDbBlockTableRecord
  2
*Paper_Space92
340
5DF
  0
BLOCK_RECORD
  5
5E2
330
9
100
AcDbSymbolTableRecord
100
AcDbBlockTableRecord
  2
*Paper_Space93
340
5E5
  0
BLOCK_RECORD
  5
5E8
330
9
100
AcDbSymbolTableRecord
100
AcDbBlockTableRecord
  2
*Paper_Space94
340
5EB
  0
BLOCK_RECORD
  5
5EE
330
9
100
AcDbSymbolTableRecord
100
AcDbBlockTableRecord
  2
*Paper_Space95
340
5F1
  0
BLOCK_RECORD
  5
5F4
330
9
100
AcDbSymbolTableRecord
100
AcDbBlockTableRecord
  2
*Paper_Space96
340
5F7
  0
BLOCK_RECORD
  5
5FA
330
9
100
AcDbSymbolTableRecord
100
AcDbBlockTableRecord
  2
*Paper_Space97
340
5FD
  0
BLOCK_RECORD
  5
600
330
9
100
AcDbSymbolTableRecord
100
AcDbBlockTableRecord
  2
*Paper_Space98
340
603
  0
BLOCK_RECORD
  5
606
330
9
100
AcDbSymbolTableRecord
100
AcDbBlockTableRecord
  2
*Paper_Space99
340
609
  0
ENDTAB
  0
ENDSEC
  0
SECTION
  2
BLOCKS
  0
BLOCK
  5
18
330
17
100
AcDbEntity
  8
0
100
AcDbBlockBegin
  2
*Model_Space
 70
0
 10
0.0
 20
0.0
 30
0.0
  3
*Model_Space
  1

  0
ENDBLK
  5
19
330
17
100
AcDbEntity
  8
0
100
AcDbBlockEnd
  0
BLOCK
  5
1C
330
1B
100
AcDbEntity
  8
0
100
AcDbBlockBegin
  2
*Paper_Space
 70
0
 10
0.0
 20
0.0
 30
0.0
  3
*Paper_Space
  1

  0
ENDBLK
  5
1D
330
1B
100
AcDbEntity
  8
0
100
AcDbBlockEnd
  0
BLOCK
  5
3B5
330
3B4
100
AcDbEntity
  8
0
100
AcDbBlockBegin
  2
*Paper_Space0
 70
0
 10
0.0
 20
0.0
 30
0.0
  3
*Paper_Space0
  1

  0
VIEWPORT
  5
3B8
330
3B4
100
AcDbEntity
 67
1
  8
VIEWPORTS
100
AcDbViewport
 10
105.0
 20
148.5
 30
0.0
 40
231.00000000000003
 41
326.70000000000005
 68
1
 69
1
 12
105.0
 22
148.5
 13
0.0
 23
0.0
 14
10.0
 24
10.0
 15
10.0
 25
10.0
 16
0.0
 26
0.0
 36
0.0
 17
0.0
 27
0.0
 37
0.0
 42
50.0
 43
0.0
 44
0.0
 45
326.70000000000005
 50
0.0
 51
0.0
 72
100
 90
557088
  1

281
0
 71
0
 74
0
110
0.0
120
0.0
130
0.0
111
1.0
121
0.0
131
0.0
112
0.0
122
1.0
132
0.0
 79
0
146
0.0
  0
VIEWPORT
  5
3B9
330
3B4
100
AcDbEntity
 67
1
  8
VIEWPORTS
100
AcDbViewport
 10
105.0
 20
148.5
 30
0.0
 40
210.0
 41
297.0
 68
1
 69
5
 12
105.0
 22
-148.5
 13
0.0
 23
0.0
 14
10.0
 24
10.0
 15
10.0
 25
10.0
 16
0.0
 26
0.0
 36
0.0
 17
0.0
 27
0.0
 37
0.0
 42
50.0
 43
0.0
 44
0.0
 45
297.0
 50
0.0
 51
0.0
 72
100
 90
0
  1

281
0
 71
0
 74
0
110
0.0
120
0.0
130
0.0
111
1.0
121
0.0
131
0.0
112
0.0
122
1.0
132
0.0
 79
0
146
0.0
  0
ENDBLK
  5
3B6
330
3B4
100
AcDbEntity
  8
0
100
AcDbBlockEnd
  0
BLOCK
  5
3BB
330
3BA
100
AcDbEntity
  8
0
100
AcDbBlockBegin
  2
*Paper_Space1
 70
0
 10
0.0
 20
0.0
 30
0.0
  3
*Paper_Space1
  1

  0
VIEWPORT
  5
3BE
330
3BA
100
AcDbEntity
 67
1
  8
VIEWPORTS
100
AcDbViewport
 10
105.0
 20
148.5
 30
0.0
 40
231.00000000000003
 41
326.70000000000005
 68
1
 69
1
 12
105.0
 22
148.5
 13
0.0
 23
0.0
 14
10.0
 24
10.0
 15
10.0
 25
10.0
 16
0.0
 26
0.0
 36
0.0
 17
0.0
 27
0.0
 37
0.0
 42
50.0
 43
0.0
 44
0.0
 45
326.70000000000005
 50
0.0
 51
0.0
 72
100
 90
557088
  1

281
0
 71
0
 74
0
110
0.0
120
0.0
130
0.0
111
1.0
121
0.0
131
0.0
112
0.0
122
1.0
132
0.0
 79
0
146
0.0
  0
VIEWPORT
  5
3BF
330
3BA
100
AcDbEntity
 67
1
  8
VIEWPORTS
100
AcDbViewport
 10
105.0
 20
148.5
 30
0.0
 40
210.0
 41
297.0
 68
1
 69
7
 12
315.0
 22
-148.5
 13
0.0
 23
0.0
 14
10.0
 24
10.0
 15
10.0
 25
10.0
 16
0.0
 26
0.0
 36
0.0
 17
0.0
 27
0.0
 37
0.0
 42
50.0
 43
0.0
 44
0.0
 45
297.0
 50
0.0
 51
0.0
 72
100
 90
0
  1

281
0
 71
0
 74
0
110
0.0
120
0.0
130
0.0
111
1.0
121
0.0
131
0.0
112
0.0
122
1.0
132
0.0
 79
0
146
0.0
  0
ENDBLK
  5
3BC
330
3BA
100
AcDbEntity
  8
0
100
AcDbBlockEnd
  0
BLOCK
  5
3C1
330
3C0
100
AcDbEntity
  8
0
100
AcDbBlockBegin
  2
*Paper_Space2
 70
0
 10
0.0
 20
0.0
 30
0.0
  3
*Paper_Space2
  1

  0
VIEWPORT
  5
3C4
330
3C0
100
AcDbEntity
 67
1
  8
VIEWPORTS
100
AcDbViewport
 10
105.0
 20
148.5
 30
0.0
 40
231.00000000000003
 41
326.70000000000005
 68
1
 69
1
 12
105.0
 22
148.5
 13
0.0
 23
0.0
 14
10.0
 24
10.0
 15
10.0
 25
10.0
 16
0.0
 26
0.0
 36
0.0
 17
0.0
 27
0.0
 37
0.0
 42
50.0
 43
0.0
 44
0.0
 45
326.70000000000005
 50
0.0
 51
0.0
 72
100
 90
557088
  1

281
0
 71
0
 74
0
110
0.0
120
0.0
130
0.0
111
1.0
121
0.0
131
0.0
112
0.0
122
1.0
132
0.0
 79
0
146
0.0
  0
VIEWPORT
  5
3C5
330
3C0
100
AcDbEntity
 67
1
  8
VIEWPORTS
100
AcDbViewport
 10
105.0
 20
148.5
 30
0.0
 40
210.0
 41
297.0
 68
1
 69
9
 12
525.0
 22
-148.5
 13
0.0
 23
0.0
 14
10.0
 24
10.0
 15
10.0
 25
10.0
 16
0.0
 26
0.0
 36
0.0
 17
0.0
 27
0.0
 37
0.0
 42
50.0
 43
0.0
 44
0.0
 45
297.0
 50
0.0
 51
0.0
 72
100
 90
0
  1

281
0
 71
0
 74
0
110
0.0
120
0.0
130
0.0
111
1.0
121
0.0
131
0.0
112
0.0
122
1.0
132
0.0
 79
0
146
0.0
  0
ENDBLK
  5
3C2
330
3C0
100
AcDbEntity
  8
0
100
AcDbBlockEnd
  0
BLOCK
  5
3C7
330
3C6
100
AcDbEntity
  8
0
100
AcDbBlockBegin
  2
*Paper_Space3
 70
0
 10
0.0
 20
0.0
 30
0.0
  3
*Paper_Space3
  1

  0
VIEWPORT
  5
3CA
330
3C6
100
AcDbEntity
 67
1
  8
VIEWPORTS
100
AcDbViewport
 10
105.0
 20
148.5
 30
0.0
 40
231.00000000000003
 41
326.70000000000005
 68
1
 69
1
 12
105.0
 22
148.5
 13
0.0
 23
0.0
 14
10.0
 24
10.0
 15
10.0
 25
10.0
 16
0.0
 26
0.0
 36
0.0
 17
0.0
 27
0.0
 37
0.0
 42
50.0
 43
0.0
 44
0.0
 45
326.70000000000005
 50
0.0
 51
0.0
 72
100
 90
557088
  1

281
0
 71
0
 74
0
110
0.0
120
0.0
130
0.0
111
1.0
121
0.0
131
0.0
112
0.0
122
1.0
132
0.0
 79
0
146
0.0
  0
VIEWPORT
  5
3CB
330
3C6
100
AcDbEntity
 67
1
  8
VIEWPORTS
100
AcDbViewport
 10
105.0
 20
148.5
 30
0.0
 40
210.0
 41
297.0
 68
1
 69
11
 12
735.0
 22
-148.5
 13
0.0
 23
0.0
 14
10.0
 24
10.0
 15
10.0
 25
10.0
 16
0.0
 26
0.0
 36
0.0
 17
0.0
 27
0.0
 37
0.0
 42
50.0
 43
0.0
 44
0.0
 45
297.0
 50
0.0
 51
0.0
 72
100
 90
0
  1

281
0
 71
0
 74
0
110
0.0
120
0.0
130
0.0
111
1.0
121
0.0
131
0.0
112
0.0
122
1.0
132
0.0
 79
0
146
0.0
  0
ENDBLK
  5
3C8
330
3C6
100
AcDbEntity
  8
0
100
AcDbBlockEnd
  0
BLOCK
  5
3CD
330
3CC
100
AcDbEntity
  8
0
100
AcDbBlockBegin
  2
*Paper_Space4
 70
0
 10
0.0
 20
0.0
 30
0.0
  3
*Paper_Space4
  1

  0
VIEWPORT
  5
3D0
330
3CC
100
AcDbEntity
 67
1
  8
VIEWPORTS
100
AcDbViewport
 10
105.0
 20
148.5
 30
0.0
 40
231.00000000000003
 41
326.70000000000005
 68
1
 69
1
 12
105.0
 22
148.5
 13
0.0
 23
0.0
 14
10.0
 24
10.0
 15
10.0
 25
10.0
 16
0.0
 26
0.0
 36
0.0
 17
0.0
 27
0.0
 37
0.0
 42
50.0
 43
0.0
 44
0.0
 45
326.70000000000005
 50
0.0
 51
0.0
 72
100
 90
557088
  1

281
0
 71
0
 74
0
110
0.0
120
0.0
130
0.0
111
1.0
121
0.0
131
0.0
112
0.0
122
1.0
132
0.0
 79
0
146
0.0
  0
VIEWPORT
  5
3D1
330
3CC
100
AcDbEntity
 67
1
  8
VIEWPORTS
100
AcDbViewport
 10
105.0
 20
148.5
 30
0.0
 40
210.0
 41
297.0
 68
1
 69
13
 12
945.0
 22
-148.5
 13
0.0
 23
0.0
 14
10.0
 24
10.0
 15
10.0
 25
10.0
 16
0.0
 26
0.0
 36
0.0
 17
0.0
 27
0.0
 37
0.0
 42
50.0
 43
0.0
 44
0.0
 45
297.0
 50
0.0
 51
0.0
 72
100
 90
0
  1

281
0
 71
0
 74
0
110
0.0
120
0.0
130
0.0
111
1.0
121
0.0
131
0.0
112
0.0
122
1.0
132
0.0
 79
0
146
0.0
  0
ENDBLK
  5
3CE
330
3CC
100
AcDbEntity
  8
0
100
AcDbBlockEnd
  0
BLOCK
  5
3D3
330
3D2
100
AcDbEntity
  8
0
100
AcDbBlockBegin
  2
*Paper_Space5
 70
0
 10
0.0
 20
0.0
 30
0.0
  3
*Paper_Space5
  1

  0
VIEWPORT
  5
3D6
330
3D2
100
AcDbEntity
 67
1
  8
VIEWPORTS
100
AcDbViewport
 10
105.0
 20
148.5
 30
0.0
 40
231.00000000000003
 41
326.70000000000005
 68
1
 69
1
 12
105.0
 22
148.5
 13
0.0
 23
0.0
 14
10.0
 24
10.0
 15
10.0
 25
10.0
 16
0.0
 26
0.0
 36
0.0
 17
0.0
 27
0.0
 37
0.0
 42
50.0
 43
0.0
 44
0.0
 45
326.70000000000005
 50
0.0
 51
0.0
 72
100
 90
557088
  1

281
0
 71
0
 74
0
110
0.0
120
0.0
130
0.0
111
1.0
121
0.0
131
0.0
112
0.0
122
1.0
132
0.0
 79
0
146
0.0
  0
VIEWPORT
  5
3D7
330
3D2
100
AcDbEntity
 67
1
  8
VIEWPORTS
100
AcDbViewport
 10
105.0
 20
148.5
 30
0.0
 40
210.0
 41
297.0
 68
1
 69
15
 12
1155.0
 22
-148.5
 13
0.0
 23
0.0
 14
10.0
 24
10.0
 15
10.0
 25
10.0
 16
0.0
 26
0.0
 36
0.0
 17
0.0
 27
0.0
 37
0.0
 42
50.0
 43
0.0
 44
0.0
 45
297.0
 50
0.0
 51
0.0
 72
100
 90
0
  1

281
0
 71
0
 74
0
110
0.0
120
0.0
130
0.0
111
1.0
121
0.0
131
0.0
112
0.0
122
1.0
132
0.0
 79
0
146
0.0
  0
ENDBLK
  5
3D4
330
3D2
100
AcDbEntity
  8
0
100
AcDbBlockEnd
  0
BLOCK
  5
3D9
330
3D8
100
AcDbEntity
  8
0
100
AcDbBlockBegin
  2
*Paper_Space6
 70
0
 10
0.0
 20
0.0
 30
0.0
  3
*Paper_Space6
  1

  0
VIEWPORT
  5
3DC
330
3D8
100
AcDbEntity
 67
1
  8
VIEWPORTS
100
AcDbViewport
 10
105.0
 20
148.5
 30
0.0
 40
231.00000000000003
 41
326.70000000000005
 68
1
 69
1
 12
105.0
 22
148.5
 13
0.0
 23
0.0
 14
10.0
 24
10.0
 15
10.0
 25
10.0
 16
0.0
 26
0.0
 36
0.0
 17
0.0
 27
0.0
 37
0.0
 42
50.0
 43
0.0
 44
0.0
 45
326.70000000000005
 50
0.0
 51
0.0
 72
100
 90
557088
  1

281
0
 71
0
 74
0
110
0.0
120
0.0
130
0.0
111
1.0
121
0.0
131
0.0
112
0.0
122
1.0
132
0.0
 79
0
146
0.0
  0
VIEWPORT
  5
3DD
330
3D8
100
AcDbEntity
 67
1
  8
VIEWPORTS
100
AcDbViewport
 10
105.0
 20
148.5
 30
0.0
 40
210.0
 41
297.0
 68
1
 69
17
 12
1365.0
 22
-148.5
 13
0.0
 23
0.0
 14
10.0
 24
10.0
 15
10.0
 25
10.0
 16
0.0
 26
0.0
 36
0.0
 17
0.0
 27
0.0
 37
0.0
 42
50.0
 43
0.0
 44
0.0
 45
297.0
 50
0.0
 51
0.0
 72
100
 90
0
  1

281
0
 71
0
 74
0
110
0.0
120
0.0
130
0.0
111
1.0
121
0.0
131
0.0
112
0.0
122
1.0
132
0.0
 79
0
146
0.0
  0
ENDBLK
  5
3DA
330
3D8
100
AcDbEntity
  8
0
100
AcDbBlockEnd
  0
BLOCK
  5
3DF
330
3DE
100
AcDbEntity
  8
0
100
AcDbBlockBegin
  2
*Paper_Space7
 70
0
 10
0.0
 20
0.0
 30
0.0
  3
*Paper_Space7
  1

  0
VIEWPORT
  5
3E2
330
3DE
100
AcDbEntity
 67
1
  8
VIEWPORTS
100
AcDbViewport
 10
105.0
 20
148.5
 30
0.0
 40
231.00000000000003
 41
326.70000000000005
 68
1
 69
1
 12
105.0
 22
148.5
 13
0.0
 23
0.0
 14
10.0
 24
10.0
 15
10.0
 25
10.0
 16
0.0
 26
0.0
 36
0.0
 17
0.0
 27
0.0
 37
0.0
 42
50.0
 43
0.0
 44
0.0
 45
326.70000000000005
 50
0.0
 51
0.0
 72
100
 90
557088
  1

281
0
 71
0
 74
0
110
0.0
120
0.0
130
0.0
111
1.0
121
0.0
131
0.0
112
0.0
122
1.0
132
0.0
 79
0
146
0.0
  0
VIEWPORT
  5
3E3
330
3DE
100
AcDbEntity
 67
1
  8
VIEWPORTS
100
AcDbViewport
 10
105.0
 20
148.5
 30
0.0
 40
210.0
 41
297.0
 68
1
 69
19
 12
1575.0
 22
-148.5
 13
0.0
 23
0.0
 14
10.0
 24
10.0
 15
10.0
 25
10.0
 16
0.0
 26
0.0
 36
0.0
 17
0.0
 27
0.0
 37
0.0
 42
50.0
 43
0.0
 44
0.0
 45
297.0
 50
0.0
 51
0.0
 72
100
 90
0
  1

281
0
 71
0
 74
0
110
0.0
120
0.0
130
0.0
111
1.0
121
0.0
131
0.0
112
0.0
122
1.0
132
0.0
 79
0
146
0.0
  0
ENDBLK
  5
3E0
330
3DE
100
AcDbEntity
  8
0
100
AcDbBlockEnd
  0
BLOCK
  5
3E5
330
3E4
100
AcDbEntity
  8
0
100
AcDbBlockBegin
  2
*Paper_Space8
 70
0
 10
0.0
 20
0.0
 30
0.0
  3
*Paper_Space8
  1

  0
VIEWPORT
  5
3E8
330
3E4
100
AcDbEntity
 67
1
  8
VIEWPORTS
100
AcDbViewport
 10
105.0
 20
148.5
 30
0.0
 40
231.00000000000003
 41
326.70000000000005
 68
1
 69
1
 12
105.0
 22
148.5
 13
0.0
 23
0.0
 14
10.0
 24
10.0
 15
10.0
 25
10.0
 16
0.0
 26
0.0
 36
0.0
 17
0.0
 27
0.0
 37
0.0
 42
50.0
 43
0.0
 44
0.0
 45
326.70000000000005
 50
0.0
 51
0.0
 72
100
 90
557088
  1

281
0
 71
0
 74
0
110
0.0
120
0.0
130
0.0
111
1.0
121
0.0
131
0.0
112
0.0
122
1.0
132
0.0
 79
0
146
0.0
  0
VIEWPORT
  5
3E9
330
3E4
100
AcDbEntity
 67
1
  8
VIEWPORTS
100
AcDbViewport
 10
105.0
 20
148.5
 30
0.0
 40
210.0
 41
297.0
 68
1
 69
21
 12
1785.0
 22
-148.5
 13
0.0
 23
0.0
 14
10.0
 24
10.0
 15
10.0
 25
10.0
 16
0.0
 26
0.0
 36
0.0
 17
0.0
 27
0.0
 37
0.0
 42
50.0
 43
0.0
 44
0.0
 45
297.0
 50
0.0
 51
0.0
 72
100
 90
0
  1

281
0
 71
0
 74
0
110
0.0
120
0.0
130
0.0
111
1.0
121
0.0
131
0.0
112
0.0
122
1.0
132
0.0
 79
0
146
0.0
  0
ENDBLK
  5
3E6
330
3E4
100
AcDbEntity
  8
0
100
AcDbBlockEnd
  0
BLOCK
  5
3EB
330
3EA
100
AcDbEntity
  8
0
100
AcDbBlockBegin
  2
*Paper_Space9
 70
0
 10
0.0
 20
0.0
 30
0.0
  3
*Paper_Space9
  1

  0
VIEWPORT
  5
3EE
330
3EA
100
AcDbEntity
 67
1
  8
VIEWPORTS
100
AcDbViewport
 10
105.0
 20
148.5
 30
0.0
 40
231.00000000000003
 41
326.70000000000005
 68
1
 69
1
 12
105.0
 22
148.5
 13
0.0
 23
0.0
 14
10.0
 24
10.0
 15
10.0
 25
10.0
 16
0.0
 26
0.0
 36
0.0
 17
0.0
 27
0.0
 37
0.0
 42
50.0
 43
0.0
 44
0.0
 45
326.70000000000005
 50
0.0
 51
0.0
 72
100
 90
557088
  1

281
0
 71
0
 74
0
110
0.0
120
0.0
130
0.0
111
1.0
121
0.0
131
0.0
112
0.0
122
1.0
132
0.0
 79
0
146
0.0
  0
VIEWPORT
  5
3EF
330
3EA
100
AcDbEntity
 67
1
  8
VIEWPORTS
100
AcDbViewport
 10
105.0
 20
148.5
 30
0.0
 40
210.0
 41
297.0
 68
1
 69
23
 12
1995.0
 22
-148.5
 13
0.0
 23
0.0
 14
10.0
 24
10.0
 15
10.0
 25
10.0
 16
0.0
 26
0.0
 36
0.0
 17
0.0
 27
0.0
 37
0.0
 42
50.0
 43
0.0
 44
0.0
 45
297.0
 50
0.0
 51
0.0
 72
100
 90
0
  1

281
0
 71
0
 74
0
110
0.0
120
0.0
130
0.0
111
1.0
121
0.0
131
0.0
112
0.0
122
1.0
132
0.0
 79
0
146
0.0
  0
ENDBLK
  5
3EC
330
3EA
100
AcDbEntity
  8
0
100
AcDbBlockEnd
  0
BLOCK
  5
3F1
330
3F0
100
AcDbEntity
  8
0
100
AcDbBlockBegin
  2
*Paper_Space10
 70
0
 10
0.0
 20
0.0
 30
0.0
  3
*Paper_Space10
  1

  0
VIEWPORT
  5
3F4
330
3F0
100
AcDbEntity
 67
1
  8
VIEWPORTS
100
AcDbViewport
 10
105.0
 20
148.5
 30
0.0
 40
231.00000000000003
 41
326.70000000000005
 68
1
 69
1
 12
105.0
 22
148.5
 13
0.0
 23
0.0
 14
10.0
 24
10.0
 15
10.0
 25
10.0
 16
0.0
 26
0.0
 36
0.0
 17
0.0
 27
0.0
 37
0.0
 42
50.0
 43
0.0
 44
0.0
 45
326.70000000000005
 50
0.0
 51
0.0
 72
100
 90
557088
  1

281
0
 71
0
 74
0
110
0.0
120
0.0
130
0.0
111
1.0
121
0.0
131
0.0
112
0.0
122
1.0
132
0.0
 79
0
146
0.0
  0
VIEWPORT
  5
3F5
330
3F0
100
AcDbEntity
 67
1
  8
VIEWPORTS
100
AcDbViewport
 10
105.0
 20
148.5
 30
0.0
 40
210.0
 41
297.0
 68
1
 69
25
 12
105.0
 22
-445.5
 13
0.0
 23
0.0
 14
10.0
 24
10.0
 15
10.0
 25
10.0
 16
0.0
 26
0.0
 36
0.0
 17
0.0
 27
0.0
 37
0.0
 42
50.0
 43
0.0
 44
0.0
 45
297.0
 50
0.0
 51
0.0
 72
100
 90
0
  1

281
0
 71
0
 74
0
110
0.0
120
0.0
130
0.0
111
1.0
121
0.0
131
0.0
112
0.0
122
1.0
132
0.0
 79
0
146
0.0
  0
ENDBLK
  5
3F2
330
3F0
100
AcDbEntity
  8
0
100
AcDbBlockEnd
  0
BLOCK
  5
3F7
330
3F6
100
AcDbEntity
  8
0
100
AcDbBlockBegin
  2
*Paper_Space11
 70
0
 10
0.0
 20
0.0
 30
0.0
  3
*Paper_Space11
  1

  0
VIEWPORT
  5
3FA
330
3F6
100
AcDbEntity
 67
1
  8
VIEWPORTS
100
AcDbViewport
 10
105.0
 20
148.5
 30
0.0
 40
231.00000000000003
 41
326.70000000000005
 68
1
 69
1
 12
105.0
 22
148.5
 13
0.0
 23
0.0
 14
10.0
 24
10.0
 15
10.0
 25
10.0
 16
0.0
 26
0.0
 36
0.0
 17
0.0
 27
0.0
 37
0.0
 42
50.0
 43
0.0
 44
0.0
 45
326.70000000000005
 50
0.0
 51
0.0
 72
100
 90
557088
  1

281
0
 71
0
 74
0
110
0.0
120
0.0
130
0.0
111
1.0
121
0.0
131
0.0
112
0.0
122
1.0
132
0.0
 79
0
146
0.0
  0
VIEWPORT
  5
3FB
330
3F6
100
AcDbEntity
 67
1
  8
VIEWPORTS
100
AcDbViewport
 10
105.0
 20
148.5
 30
0.0
 40
210.0
 41
297.0
 68
1
 69
27
 12
315.0
 22
-445.5
 13
0.0
 23
0.0
 14
10.0
 24
10.0
 15
10.0
 25
10.0
 16
0.0
 26
0.0
 36
0.0
 17
0.0
 27
0.0
 37
0.0
 42
50.0
 43
0.0
 44
0.0
 45
297.0
 50
0.0
 51
0.0
 72
100
 90
0
  1

281
0
 71
0
 74
0
110
0.0
120
0.0
130
0.0
111
1.0
121
0.0
131
0.0
112
0.0
122
1.0
132
0.0
 79
0
146
0.0
  0
ENDBLK
  5
3F8
330
3F6
100
AcDbEntity
  8
0
100
AcDbBlockEnd
  0
BLOCK
  5
3FD
330
3FC
100
AcDbEntity
  8
0
100
AcDbBlockBegin
  2
*Paper_Space12
 70
0
 10
0.0
 20
0.0
 30
0.0
  3
*Paper_Space12
  1

  0
VIEWPORT
  5
400
330
3FC
100
AcDbEntity
 67
1
  8
VIEWPORTS
100
AcDbViewport
 10
105.0
 20
148.5
 30
0.0
 40
231.00000000000003
 41
326.70000000000005
 68
1
 69
1
 12
105.0
 22
148.5
 13
0.0
 23
0.0
 14
10.0
 24
10.0
 15
10.0
 25
10.0
 16
0.0
 26
0.0
 36
0.0
 17
0.0
 27
0.0
 37
0.0
 42
50.0
 43
0.0
 44
0.0
 45
326.70000000000005
 50
0.0
 51
0.0
 72
100
 90
557088
  1

281
0
 71
0
 74
0
110
0.0
120
0.0
130
0.0
111
1.0
121
0.0
131
0.0
112
0.0
122
1.0
132
0.0
 79
0
146
0.0
  0
VIEWPORT
  5
401
330
3FC
100
AcDbEntity
 67
1
  8
VIEWPORTS
100
AcDbViewport
 10
105.0
 20
148.5
 30
0.0
 40
210.0
 41
297.0
 68
1
 69
29
 12
525.0
 22
-445.5
 13
0.0
 23
0.0
 14
10.0
 24
10.0
 15
10.0
 25
10.0
 16
0.0
 26
0.0
 36
0.0
 17
0.0
 27
0.0
 37
0.0
 42
50.0
 43
0.0
 44
0.0
 45
297.0
 50
0.0
 51
0.0
 72
100
 90
0
  1

281
0
 71
0
 74
0
110
0.0
120
0.0
130
0.0
111
1.0
121
0.0
131
0.0
112
0.0
122
1.0
132
0.0
 79
0
146
0.0
  0
ENDBLK
  5
3FE
330
3FC
100
AcDbEntity
  8
0
100
AcDbBlockEnd
  0
BLOCK
  5
403
330
402
100
AcDbEntity
  8
0
100
AcDbBlockBegin
  2
*Paper_Space13
 70
0
 10
0.0
 20
0.0
 30
0.0
  3
*Paper_Space13
  1

  0
VIEWPORT
  5
406
330
402
100
AcDbEntity
 67
1
  8
VIEWPORTS
100
AcDbViewport
 10
105.0
 20
148.5
 30
0.0
 40
231.00000000000003
 41
326.70000000000005
 68
1
 69
1
 12
105.0
 22
148.5
 13
0.0
 23
0.0
 14
10.0
 24
10.0
 15
10.0
 25
10.0
 16
0.0
 26
0.0
 36
0.0
 17
0.0
 27
0.0
 37
0.0
 42
50.0
 43
0.0
 44
0.0
 45
326.70000000000005
 50
0.0
 51
0.0
 72
100
 90
557088
  1

281
0
 71
0
 74
0
110
0.0
120
0.0
130
0.0
111
1.0
121
0.0
131
0.0
112
0.0
122
1.0
132
0.0
 79
0
146
0.0
  0
VIEWPORT
  5
407
330
402
100
AcDbEntity
 67
1
  8
VIEWPORTS
100
AcDbViewport
 10
105.0
 20
148.5
 30
0.0
 40
210.0
 41
297.0
 68
1
 69
31
 12
735.0
 22
-445.5
 13
0.0
 23
0.0
 14
10.0
 24
10.0
 15
10.0
 25
10.0
 16
0.0
 26
0.0
 36
0.0
 17
0.0
 27
0.0
 37
0.0
 42
50.0
 43
0.0
 44
0.0
 45
297.0
 50
0.0
 51
0.0
 72
100
 90
0
  1

281
0
 71
0
 74
0
110
0.0
120
0.0
130
0.0
111
1.0
121
0.0
131
0.0
112
0.0
122
1.0
132
0.0
 79
0
146
0.0
  0
ENDBLK
  5
404
330
402
100
AcDbEntity
  8
0
100
AcDbBlockEnd
  0
BLOCK
  5
409
330
408
100
AcDbEntity
  8
0
100
AcDbBlockBegin
  2
*Paper_Space14
 70
0
 10
0.0
 20
0.0
 30
0.0
  3
*Paper_Space14
  1

  0
VIEWPORT
  5
40C
330
408
100
AcDbEntity
 67
1
  8
VIEWPORTS
100
AcDbViewport
 10
105.0
 20
148.5
 30
0.0
 40
231.00000000000003
 41
326.70000000000005
 68
1
 69
1
 12
105.0
 22
148.5
 13
0.0
 23
0.0
 14
10.0
 24
10.0
 15
10.0
 25
10.0
 16
0.0
 26
0.0
 36
0.0
 17
0.0
 27
0.0
 37
0.0
 42
50.0
 43
0.0
 44
0.0
 45
326.70000000000005
 50
0.0
 51
0.0
 72
100
 90
557088
  1

281
0
 71
0
 74
0
110
0.0
120
0.0
130
0.0
111
1.0
121
0.0
131
0.0
112
0.0
122
1.0
132
0.0
 79
0
146
0.0
  0
VIEWPORT
  5
40D
330
408
100
AcDbEntity
 67
1
  8
VIEWPORTS
100
AcDbViewport
 10
105.0
 20
148.5
 30
0.0
 40
210.0
 41
297.0
 68
1
 69
33
 12
945.0
 22
-445.5
 13
0.0
 23
0.0
 14
10.0
 24
10.0
 15
10.0
 25
10.0
 16
0.0
 26
0.0
 36
0.0
 17
0.0
 27
0.0
 37
0.0
 42
50.0
 43
0.0
 44
0.0
 45
297.0
 50
0.0
 51
0.0
 72
100
 90
0
  1

281
0
 71
0
 74
0
110
0.0
120
0.0
130
0.0
111
1.0
121
0.0
131
0.0
112
0.0
122
1.0
132
0.0
 79
0
146
0.0
  0
ENDBLK
  5
40A
330
408
100
AcDbEntity
  8
0
100
AcDbBlockEnd
  0
BLOCK
  5
40F
330
40E
100
AcDbEntity
  8
0
100
AcDbBlockBegin
  2
*Paper_Space15
 70
0
 10
0.0
 20
0.0
 30
0.0
  3
*Paper_Space15
  1

  0
VIEWPORT
  5
412
330
40E
100
AcDbEntity
 67
1
  8
VIEWPORTS
100
AcDbViewport
 10
105.0
 20
148.5
 30
0.0
 40
231.00000000000003
 41
326.70000000000005
 68
1
 69
1
 12
105.0
 22
148.5
 13
0.0
 23
0.0
 14
10.0
 24
10.0
 15
10.0
 25
10.0
 16
0.0
 26
0.0
 36
0.0
 17
0.0
 27
0.0
 37
0.0
 42
50.0
 43
0.0
 44
0.0
 45
326.70000000000005
 50
0.0
 51
0.0
 72
100
 90
557088
  1

281
0
 71
0
 74
0
110
0.0
120
0.0
130
0.0
111
1.0
121
0.0
131
0.0
112
0.0
122
1.0
132
0.0
 79
0
146
0.0
  0
VIEWPORT
  5
413
330
40E
100
AcDbEntity
 67
1
  8
VIEWPORTS
100
AcDbViewport
 10
105.0
 20
148.5
 30
0.0
 40
210.0
 41
297.0
 68
1
 69
35
 12
1155.0
 22
-445.5
 13
0.0
 23
0.0
 14
10.0
 24
10.0
 15
10.0
 25
10.0
 16
0.0
 26
0.0
 36
0.0
 17
0.0
 27
0.0
 37
0.0
 42
50.0
 43
0.0
 44
0.0
 45
297.0
 50
0.0
 51
0.0
 72
100
 90
0
  1

281
0
 71
0
 74
0
110
0.0
120
0.0
130
0.0
111
1.0
121
0.0
131
0.0
112
0.0
122
1.0
132
0.0
 79
0
146
0.0
  0
ENDBLK
  5
410
330
40E
100
AcDbEntity
  8
0
100
AcDbBlockEnd
  0
BLOCK
  5
415
330
414
100
AcDbEntity
  8
0
100
AcDbBlockBegin
  2
*Paper_Space16
 70
0
 10
0.0
 20
0.0
 30
0.0
  3
*Paper_Space16
  1

  0
VIEWPORT
  5
418
330
414
100
AcDbEntity
 67
1
  8
VIEWPORTS
100
AcDbViewport
 10
105.0
 20
148.5
 30
0.0
 40
231.00000000000003
 41
326.70000000000005
 68
1
 69
1
 12
105.0
 22
148.5
 13
0.0
 23
0.0
 14
10.0
 24
10.0
 15
10.0
 25
10.0
 16
0.0
 26
0.0
 36
0.0
 17
0.0
 27
0.0
 37
0.0
 42
50.0
 43
0.0
 44
0.0
 45
326.70000000000005
 50
0.0
 51
0.0
 72
100
 90
557088
  1

281
0
 71
0
 74
0
110
0.0
120
0.0
130
0.0
111
1.0
121
0.0
131
0.0
112
0.0
122
1.0
132
0.0
 79
0
146
0.0
  0
VIEWPORT
  5
419
330
414
100
AcDbEntity
 67
1
  8
VIEWPORTS
100
AcDbViewport
 10
105.0
 20
148.5
 30
0.0
 40
210.0
 41
297.0
 68
1
 69
37
 12
1365.0
 22
-445.5
 13
0.0
 23
0.0
 14
10.0
 24
10.0
 15
10.0
 25
10.0
 16
0.0
 26
0.0
 36
0.0
 17
0.0
 27
0.0
 37
0.0
 42
50.0
 43
0.0
 44
0.0
 45
297.0
 50
0.0
 51
0.0
 72
100
 90
0
  1

281
0
 71
0
 74
0
110
0.0
120
0.0
130
0.0
111
1.0
121
0.0
131
0.0
112
0.0
122
1.0
132
0.0
 79
0
146
0.0
  0
ENDBLK
  5
416
330
414
100
AcDbEntity
  8
0
100
AcDbBlockEnd
  0
BLOCK
  5
41B
330
41A
100
AcDbEntity
  8
0
100
AcDbBlockBegin
  2
*Paper_Space17
 70
0
 10
0.0
 20
0.0
 30
0.0
  3
*Paper_Space17
  1

  0
VIEWPORT
  5
41E
330
41A
100
AcDbEntity
 67
1
  8
VIEWPORTS
100
AcDbViewport
 10
105.0
 20
148.5
 30
0.0
 40
231.00000000000003
 41
326.70000000000005
 68
1
 69
1
 12
105.0
 22
148.5
 13
0.0
 23
0.0
 14
10.0
 24
10.0
 15
10.0
 25
10.0
 16
0.0
 26
0.0
 36
0.0
 17
0.0
 27
0.0
 37
0.0
 42
50.0
 43
0.0
 44
0.0
 45
326.70000000000005
 50
0.0
 51
0.0
 72
100
 90
557088
  1

281
0
 71
0
 74
0
110
0.0
120
0.0
130
0.0
111
1.0
121
0.0
131
0.0
112
0.0
122
1.0
132
0.0
 79
0
146
0.0
  0
VIEWPORT
  5
41F
330
41A
100
AcDbEntity
 67
1
  8
VIEWPORTS
100
AcDbViewport
 10
105.0
 20
148.5
 30
0.0
 40
210.0
 41
297.0
 68
1
 69
39
 12
1575.0
 22
-445.5
 13
0.0
 23
0.0
 14
10.0
 24
10.0
 15
10.0
 25
10.0
 16
0.0
 26
0.0
 36
0.0
 17
0.0
 27
0.0
 37
0.0
 42
50.0
 43
0.0
 44
0.0
 45
297.0
 50
0.0
 51
0.0
 72
100
 90
0
  1

281
0
 71
0
 74
0
110
0.0
120
0.0
130
0.0
111
1.0
121
0.0
131
0.0
112
0.0
122
1.0
132
0.0
 79
0
146
0.0
  0
ENDBLK
  5
41C
330
41A
100
AcDbEntity
  8
0
100
AcDbBlockEnd
  0
BLOCK
  5
421
330
420
100
AcDbEntity
  8
0
100
AcDbBlockBegin
  2
*Paper_Space18
 70
0
 10
0.0
 20
0.0
 30
0.0
  3
*Paper_Space18
  1

  0
VIEWPORT
  5
424
330
420
100
AcDbEntity
 67
1
  8
VIEWPORTS
100
AcDbViewport
 10
105.0
 20
148.5
 30
0.0
 40
231.00000000000003
 41
326.70000000000005
 68
1
 69
1
 12
105.0
 22
148.5
 13
0.0
 23
0.0
 14
10.0
 24
10.0
 15
10.0
 25
10.0
 16
0.0
 26
0.0
 36
0.0
 17
0.0
 27
0.0
 37
0.0
 42
50.0
 43
0.0
 44
0.0
 45
326.70000000000005
 50
0.0
 51
0.0
 72
100
 90
557088
  1

281
0
 71
0
 74
0
110
0.0
120
0.0
130
0.0
111
1.0
121
0.0
131
0.0
112
0.0
122
1.0
132
0.0
 79
0
146
0.0
  0
VIEWPORT
  5
425
330
420
100
AcDbEntity
 67
1
  8
VIEWPORTS
100
AcDbViewport
 10
105.0
 20
148.5
 30
0.0
 40
210.0
 41
297.0
 68
1
 69
41
 12
1785.0
 22
-445.5
 13
0.0
 23
0.0
 14
10.0
 24
10.0
 15
10.0
 25
10.0
 16
0.0
 26
0.0
 36
0.0
 17
0.0
 27
0.0
 37
0.0
 42
50.0
 43
0.0
 44
0.0
 45
297.0
 50
0.0
 51
0.0
 72
100
 90
0
  1

281
0
 71
0
 74
0
110
0.0
120
0.0
130
0.0
111
1.0
121
0.0
131
0.0
112
0.0
122
1.0
132
0.0
 79
0
146
0.0
  0
ENDBLK
  5
422
330
420
100
AcDbEntity
  8
0
100
AcDbBlockEnd
  0
BLOCK
  5
427
330
426
100
AcDbEntity
  8
0
100
AcDbBlockBegin
  2
*Paper_Space19
 70
0
 10
0.0
 20
0.0
 30
0.0
  3
*Paper_Space19
  1

  0
VIEWPORT
  5
42A
330
426
100
AcDbEntity
 67
1
  8
VIEWPORTS
100
AcDbViewport
 10
105.0
 20
148.5
 30
0.0
 40
231.00000000000003
 41
326.70000000000005
 68
1
 69
1
 12
105.0
 22
148.5
 13
0.0
 23
0.0
 14
10.0
 24
10.0
 15
10.0
 25
10.0
 16
0.0
 26
0.0
 36
0.0
 17
0.0
 27
0.0
 37
0.0
 42
50.0
 43
0.0
 44
0.0
 45
326.70000000000005
 50
0.0
 51
0.0
 72
100
 90
557088
  1

281
0
 71
0
 74
0
110
0.0
120
0.0
130
0.0
111
1.0
121
0.0
131
0.0
112
0.0
122
1.0
132
0.0
 79
0
146
0.0
  0
VIEWPORT
  5
42B
330
426
100
AcDbEntity
 67
1
  8
VIEWPORTS
100
AcDbViewport
 10
105.0
 20
148.5
 30
0.0
 40
210.0
 41
297.0
 68
1
 69
43
 12
1995.0
 22
-445.5
 13
0.0
 23
0.0
 14
10.0
 24
10.0
 15
10.0
 25
10.0
 16
0.0
 26
0.0
 36
0.0
 17
0.0
 27
0.0
 37
0.0
 42
50.0
 43
0.0
 44
0.0
 45
297.0
 50
0.0
 51
0.0
 72
100
 90
0
  1

281
0
 71
0
 74
0
110
0.0
120
0.0
130
0.0
111
1.0
121
0.0
131
0.0
112
0.0
122
1.0
132
0.0
 79
0
146
0.0
  0
ENDBLK
  5
428
330
426
100
AcDbEntity
  8
0
100
AcDbBlockEnd
  0
BLOCK
  5
42D
330
42C
100
AcDbEntity
  8
0
100
AcDbBlockBegin
  2
*Paper_Space20
 70
0
 10
0.0
 20
0.0
 30
0.0
  3
*Paper_Space20
  1

  0
VIEWPORT
  5
430
330
42C
100
AcDbEntity
 67
1
  8
VIEWPORTS
100
AcDbViewport
 10
105.0
 20
148.5
 30
0.0
 40
231.00000000000003
 41
326.70000000000005
 68
1
 69
1
 12
105.0
 22
148.5
 13
0.0
 23
0.0
 14
10.0
 24
10.0
 15
10.0
 25
10.0
 16
0.0
 26
0.0
 36
0.0
 17
0.0
 27
0.0
 37
0.0
 42
50.0
 43
0.0
 44
0.0
 45
326.70000000000005
 50
0.0
 51
0.0
 72
100
 90
557088
  1

281
0
 71
0
 74
0
110
0.0
120
0.0
130
0.0
111
1.0
121
0.0
131
0.0
112
0.0
122
1.0
132
0.0
 79
0
146
0.0
  0
VIEWPORT
  5
431
330
42C
100
AcDbEntity
 67
1
  8
VIEWPORTS
100
AcDbViewport
 10
105.0
 20
148.5
 30
0.0
 40
210.0
 41
297.0
 68
1
 69
45
 12
105.0
 22
-742.5
 13
0.0
 23
0.0
 14
10.0
 24
10.0
 15
10.0
 25
10.0
 16
0.0
 26
0.0
 36
0.0
 17
0.0
 27
0.0
 37
0.0
 42
50.0
 43
0.0
 44
0.0
 45
297.0
 50
0.0
 51
0.0
 72
100
 90
0
  1

281
0
 71
0
 74
0
110
0.0
120
0.0
130
0.0
111
1.0
121
0.0
131
0.0
112
0.0
122
1.0
132
0.0
 79
0
146
0.0
  0
ENDBLK
  5
42E
330
42C
100
AcDbEntity
  8
0
100
AcDbBlockEnd
  0
BLOCK
  5
433
330
432
100
AcDbEntity
  8
0
100
AcDbBlockBegin
  2
*Paper_Space21
 70
0
 10
0.0
 20
0.0
 30
0.0
  3
*Paper_Space21
  1

  0
VIEWPORT
  5
436
330
432
100
AcDbEntity
 67
1
  8
VIEWPORTS
100
AcDbViewport
 10
105.0
 20
148.5
 30
0.0
 40
231.00000000000003
 41
326.70000000000005
 68
1
 69
1
 12
105.0
 22
148.5
 13
0.0
 23
0.0
 14
10.0
 24
10.0
 15
10.0
 25
10.0
 16
0.0
 26
0.0
 36
0.0
 17
0.0
 27
0.0
 37
0.0
 42
50.0
 43
0.0
 44
0.0
 45
326.70000000000005
 50
0.0
 51
0.0
 72
100
 90
557088
  1

281
0
 71
0
 74
0
110
0.0
120
0.0
130
0.0
111
1.0
121
0.0
131
0.0
112
0.0
122
1.0
132
0.0
 79
0
146
0.0
  0
VIEWPORT
  5
437
330
432
100
AcDbEntity
 67
1
  8
VIEWPORTS
100
AcDbViewport
 10
105.0
 20
148.5
 30
0.0
 40
210.0
 41
297.0
 68
1
 69
47
 12
315.0
 22
-742.5
 13
0.0
 23
0.0
 14
10.0
 24
10.0
 15
10.0
 25
10.0
 16
0.0
 26
0.0
 36
0.0
 17
0.0
 27
0.0
 37
0.0
 42
50.0
 43
0.0
 44
0.0
 45
297.0
 50
0.0
 51
0.0
 72
100
 90
0
  1

281
0
 71
0
 74
0
110
0.0
120
0.0
130
0.0
111
1.0
121
0.0
131
0.0
112
0.0
122
1.0
132
0.0
 79
0
146
0.0
  0
ENDBLK
  5
434
330
432
100
AcDbEntity
  8
0
100
AcDbBlockEnd
  0
BLOCK
  5
439
330
438
100
AcDbEntity
  8
0
100
AcDbBlockBegin
  2
*Paper_Space22
 70
0
 10
0.0
 20
0.0
 30
0.0
  3
*Paper_Space22
  1

  0
VIEWPORT
  5
43C
330
438
100
AcDbEntity
 67
1
  8
VIEWPORTS
100
AcDbViewport
 10
105.0
 20
148.5
 30
0.0
 40
231.00000000000003
 41
326.70000000000005
 68
1
 69
1
 12
105.0
 22
148.5
 13
0.0
 23
0.0
 14
10.0
 24
10.0
 15
10.0
 25
10.0
 16
0.0
 26
0.0
 36
0.0
 17
0.0
 27
0.0
 37
0.0
 42
50.0
 43
0.0
 44
0.0
 45
326.70000000000005
 50
0.0
 51
0.0
 72
100
 90
557088
  1

281
0
 71
0
 74
0
110
0.0
120
0.0
130
0.0
111
1.0
121
0.0
131
0.0
112
0.0
122
1.0
132
0.0
 79
0
146
0.0
  0
VIEWPORT
  5
43D
330
438
100
AcDbEntity
 67
1
  8
VIEWPORTS
100
AcDbViewport
 10
105.0
 20
148.5
 30
0.0
 40
210.0
 41
297.0
 68
1
 69
49
 12
525.0
 22
-742.5
 13
0.0
 23
0.0
 14
10.0
 24
10.0
 15
10.0
 25
10.0
 16
0.0
 26
0.0
 36
0.0
 17
0.0
 27
0.0
 37
0.0
 42
50.0
 43
0.0
 44
0.0
 45
297.0
 50
0.0
 51
0.0
 72
100
 90
0
  1

281
0
 71
0
 74
0
110
0.0
120
0.0
130
0.0
111
1.0
121
0.0
131
0.0
112
0.0
122
1.0
132
0.0
 79
0
146
0.0
  0
ENDBLK
  5
43A
330
438
100
AcDbEntity
  8
0
100
AcDbBlockEnd
  0
BLOCK
  5
43F
330
43E
100
AcDbEntity
  8
0
100
AcDbBlockBegin
  2
*Paper_Space23
 70
0
 10
0.0
 20
0.0
 30
0.0
  3
*Paper_Space23
  1

  0
VIEWPORT
  5
442
330
43E
100
AcDbEntity
 67
1
  8
VIEWPORTS
100
AcDbViewport
 10
105.0
 20
148.5
 30
0.0
 40
231.00000000000003
 41
326.70000000000005
 68
1
 69
1
 12
105.0
 22
148.5
 13
0.0
 23
0.0
 14
10.0
 24
10.0
 15
10.0
 25
10.0
 16
0.0
 26
0.0
 36
0.0
 17
0.0
 27
0.0
 37
0.0
 42
50.0
 43
0.0
 44
0.0
 45
326.70000000000005
 50
0.0
 51
0.0
 72
100
 90
557088
  1

281
0
 71
0
 74
0
110
0.0
120
0.0
130
0.0
111
1.0
121
0.0
131
0.0
112
0.0
122
1.0
132
0.0
 79
0
146
0.0
  0
VIEWPORT
  5
443
330
43E
100
AcDbEntity
 67
1
  8
VIEWPORTS
100
AcDbViewport
 10
105.0
 20
148.5
 30
0.0
 40
210.0
 41
297.0
 68
1
 69
51
 12
735.0
 22
-742.5
 13
0.0
 23
0.0
 14
10.0
 24
10.0
 15
10.0
 25
10.0
 16
0.0
 26
0.0
 36
0.0
 17
0.0
 27
0.0
 37
0.0
 42
50.0
 43
0.0
 44
0.0
 45
297.0
 50
0.0
 51
0.0
 72
100
 90
0
  1

281
0
 71
0
 74
0
110
0.0
120
0.0
130
0.0
111
1.0
121
0.0
131
0.0
112
0.0
122
1.0
132
0.0
 79
0
146
0.0
  0
ENDBLK
  5
440
330
43E
100
AcDbEntity
  8
0
100
AcDbBlockEnd
  0
BLOCK
  5
445
330
444
100
AcDbEntity
  8
0
100
AcDbBlockBegin
  2
*Paper_Space24
 70
0
 10
0.0
 20
0.0
 30
0.0
  3
*Paper_Space24
  1

  0
VIEWPORT
  5
448
330
444
100
AcDbEntity
 67
1
  8
VIEWPORTS
100
AcDbViewport
 10
105.0
 20
148.5
 30
0.0
 40
231.00000000000003
 41
326.70000000000005
 68
1
 69
1
 12
105.0
 22
148.5
 13
0.0
 23
0.0
 14
10.0
 24
10.0
 15
10.0
 25
10.0
 16
0.0
 26
0.0
 36
0.0
 17
0.0
 27
0.0
 37
0.0
 42
50.0
 43
0.0
 44
0.0
 45
326.70000000000005
 50
0.0
 51
0.0
 72
100
 90
557088
  1

281
0
 71
0
 74
0
110
0.0
120
0.0
130
0.0
111
1.0
121
0.0
131
0.0
112
0.0
122
1.0
132
0.0
 79
0
146
0.0
  0
VIEWPORT
  5
449
330
444
100
AcDbEntity
 67
1
  8
VIEWPORTS
100
AcDbViewport
 10
105.0
 20
148.5
 30
0.0
 40
210.0
 41
297.0
 68
1
 69
53
 12
945.0
 22
-742.5
 13
0.0
 23
0.0
 14
10.0
 24
10.0
 15
10.0
 25
10.0
 16
0.0
 26
0.0
 36
0.0
 17
0.0
 27
0.0
 37
0.0
 42
50.0
 43
0.0
 44
0.0
 45
297.0
 50
0.0
 51
0.0
 72
100
 90
0
  1

281
0
 71
0
 74
0
110
0.0
120
0.0
130
0.0
111
1.0
121
0.0
131
0.0
112
0.0
122
1.0
132
0.0
 79
0
146
0.0
  0
ENDBLK
  5
446
330
444
100
AcDbEntity
  8
0
100
AcDbBlockEnd
  0
BLOCK
  5
44B
330
44A
100
AcDbEntity
  8
0
100
AcDbBlockBegin
  2
*Paper_Space25
 70
0
 10
0.0
 20
0.0
 30
0.0
  3
*Paper_Space25
  1

  0
VIEWPORT
  5
44E
330
44A
100
AcDbEntity
 67
1
  8
VIEWPORTS
100
AcDbViewport
 10
105.0
 20
148.5
 30
0.0
 40
231.00000000000003
 41
326.70000000000005
 68
1
 69
1
 12
105.0
 22
148.5
 13
0.0
 23
0.0
 14
10.0
 24
10.0
 15
10.0
 25
10.0
 16
0.0
 26
0.0
 36
0.0
 17
0.0
 27
0.0
 37
0.0
 42
50.0
 43
0.0
 44
0.0
 45
326.70000000000005
 50
0.0
 51
0.0
 72
100
 90
557088
  1

281
0
 71
0
 74
0
110
0.0
120
0.0
130
0.0
111
1.0
121
0.0
131
0.0
112
0.0
122
1.0
132
0.0
 79
0
146
0.0
  0
VIEWPORT
  5
44F
330
44A
100
AcDbEntity
 67
1
  8
VIEWPORTS
100
AcDbViewport
 10
105.0
 20
148.5
 30
0.0
 40
210.0
 41
297.0
 68
1
 69
55
 12
1155.0
 22
-742.5
 13
0.0
 23
0.0
 14
10.0
 24
10.0
 15
10.0
 25
10.0
 16
0.0
 26
0.0
 36
0.0
 17
0.0
 27
0.0
 37
0.0
 42
50.0
 43
0.0
 44
0.0
 45
297.0
 50
0.0
 51
0.0
 72
100
 90
0
  1

281
0
 71
0
 74
0
110
0.0
120
0.0
130
0.0
111
1.0
121
0.0
131
0.0
112
0.0
122
1.0
132
0.0
 79
0
146
0.0
  0
ENDBLK
  5
44C
330
44A
100
AcDbEntity
  8
0
100
AcDbBlockEnd
  0
BLOCK
  5
451
330
450
100
AcDbEntity
  8
0
100
AcDbBlockBegin
  2
*Paper_Space26
 70
0
 10
0.0
 20
0.0
 30
0.0
  3
*Paper_Space26
  1

  0
VIEWPORT
  5
454
330
450
100
AcDbEntity
 67
1
  8
VIEWPORTS
100
AcDbViewport
 10
105.0
 20
148.5
 30
0.0
 40
231.00000000000003
 41
326.70000000000005
 68
1
 69
1
 12
105.0
 22
148.5
 13
0.0
 23
0.0
 14
10.0
 24
10.0
 15
10.0
 25
10.0
 16
0.0
 26
0.0
 36
0.0
 17
0.0
 27
0.0
 37
0.0
 42
50.0
 43
0.0
 44
0.0
 45
326.70000000000005
 50
0.0
 51
0.0
 72
100
 90
557088
  1

281
0
 71
0
 74
0
110
0.0
120
0.0
130
0.0
111
1.0
121
0.0
131
0.0
112
0.0
122
1.0
132
0.0
 79
0
146
0.0
  0
VIEWPORT
  5
455
330
450
100
AcDbEntity
 67
1
  8
VIEWPORTS
100
AcDbViewport
 10
105.0
 20
148.5
 30
0.0
 40
210.0
 41
297.0
 68
1
 69
57
 12
1365.0
 22
-742.5
 13
0.0
 23
0.0
 14
10.0
 24
10.0
 15
10.0
 25
10.0
 16
0.0
 26
0.0
 36
0.0
 17
0.0
 27
0.0
 37
0.0
 42
50.0
 43
0.0
 44
0.0
 45
297.0
 50
0.0
 51
0.0
 72
100
 90
0
  1

281
0
 71
0
 74
0
110
0.0
120
0.0
130
0.0
111
1.0
121
0.0
131
0.0
112
0.0
122
1.0
132
0.0
 79
0
146
0.0
  0
ENDBLK
  5
452
330
450
100
AcDbEntity
  8
0
100
AcDbBlockEnd
  0
BLOCK
  5
457
330
456
100
AcDbEntity
  8
0
100
AcDbBlockBegin
  2
*Paper_Space27
 70
0
 10
0.0
 20
0.0
 30
0.0
  3
*Paper_Space27
  1

  0
VIEWPORT
  5
45A
330
456
100
AcDbEntity
 67
1
  8
VIEWPORTS
100
AcDbViewport
 10
105.0
 20
148.5
 30
0.0
 40
231.00000000000003
 41
326.70000000000005
 68
1
 69
1
 12
105.0
 22
148.5
 13
0.0
 23
0.0
 14
10.0
 24
10.0
 15
10.0
 25
10.0
 16
0.0
 26
0.0
 36
0.0
 17
0.0
 27
0.0
 37
0.0
 42
50.0
 43
0.0
 44
0.0
 45
326.70000000000005
 50
0.0
 51
0.0
 72
100
 90
557088
  1

281
0
 71
0
 74
0
110
0.0
120
0.0
130
0.0
111
1.0
121
0.0
131
0.0
112
0.0
122
1.0
132
0.0
 79
0
146
0.0
  0
VIEWPORT
  5
45B
330
456
100
AcDbEntity
 67
1
  8
VIEWPORTS
100
AcDbViewport
 10
105.0
 20
148.5
 30
0.0
 40
210.0
 41
297.0
 68
1
 69
59
 12
1575.0
 22
-742.5
 13
0.0
 23
0.0
 14
10.0
 24
10.0
 15
10.0
 25
10.0
 16
0.0
 26
0.0
 36
0.0
 17
0.0
 27
0.0
 37
0.0
 42
50.0
 43
0.0
 44
0.0
 45
297.0
 50
0.0
 51
0.0
 72
100
 90
0
  1

281
0
 71
0
 74
0
110
0.0
120
0.0
130
0.0
111
1.0
121
0.0
131
0.0
112
0.0
122
1.0
132
0.0
 79
0
146
0.0
  0
ENDBLK
  5
458
330
456
100
AcDbEntity
  8
0
100
AcDbBlockEnd
  0
BLOCK
  5
45D
330
45C
100
AcDbEntity
  8
0
100
AcDbBlockBegin
  2
*Paper_Space28
 70
0
 10
0.0
 20
0.0
 30
0.0
  3
*Paper_Space28
  1

  0
VIEWPORT
  5
460
330
45C
100
AcDbEntity
 67
1
  8
VIEWPORTS
100
AcDbViewport
 10
105.0
 20
148.5
 30
0.0
 40
231.00000000000003
 41
326.70000000000005
 68
1
 69
1
 12
105.0
 22
148.5
 13
0.0
 23
0.0
 14
10.0
 24
10.0
 15
10.0
 25
10.0
 16
0.0
 26
0.0
 36
0.0
 17
0.0
 27
0.0
 37
0.0
 42
50.0
 43
0.0
 44
0.0
 45
326.70000000000005
 50
0.0
 51
0.0
 72
100
 90
557088
  1

281
0
 71
0
 74
0
110
0.0
120
0.0
130
0.0
111
1.0
121
0.0
131
0.0
112
0.0
122
1.0
132
0.0
 79
0
146
0.0
  0
VIEWPORT
  5
461
330
45C
100
AcDbEntity
 67
1
  8
VIEWPORTS
100
AcDbViewport
 10
105.0
 20
148.5
 30
0.0
 40
210.0
 41
297.0
 68
1
 69
61
 12
1785.0
 22
-742.5
 13
0.0
 23
0.0
 14
10.0
 24
10.0
 15
10.0
 25
10.0
 16
0.0
 26
0.0
 36
0.0
 17
0.0
 27
0.0
 37
0.0
 42
50.0
 43
0.0
 44
0.0
 45
297.0
 50
0.0
 51
0.0
 72
100
 90
0
  1

281
0
 71
0
 74
0
110
0.0
120
0.0
130
0.0
111
1.0
121
0.0
131
0.0
112
0.0
122
1.0
132
0.0
 79
0
146
0.0
  0
ENDBLK
  5
45E
330
45C
100
AcDbEntity
  8
0
100
AcDbBlockEnd
  0
BLOCK
  5
463
330
462
100
AcDbEntity
  8
0
100
AcDbBlockBegin
  2
*Paper_Space29
 70
0
 10
0.0
 20
0.0
 30
0.0
  3
*Paper_Space29
  1

  0
VIEWPORT
  5
466
330
462
100
AcDbEntity
 67
1
  8
VIEWPORTS
100
AcDbViewport
 10
105.0
 20
148.5
 30
0.0
 40
231.00000000000003
 41
326.70000000000005
 68
1
 69
1
 12
105.0
 22
148.5
 13
0.0
 23
0.0
 14
10.0
 24
10.0
 15
10.0
 25
10.0
 16
0.0
 26
0.0
 36
0.0
 17
0.0
 27
0.0
 37
0.0
 42
50.0
 43
0.0
 44
0.0
 45
326.70000000000005
 50
0.0
 51
0.0
 72
100
 90
557088
  1

281
0
 71
0
 74
0
110
0.0
120
0.0
130
0.0
111
1.0
121
0.0
131
0.0
112
0.0
122
1.0
132
0.0
 79
0
146
0.0
  0
VIEWPORT
  5
467
330
462
100
AcDbEntity
 67
1
  8
VIEWPORTS
100
AcDbViewport
 10
105.0
 20
148.5
 30
0.0
 40
210.0
 41
297.0
 68
1
 69
63
 12
1995.0
 22
-742.5
 13
0.0
 23
0.0
 14
10.0
 24
10.0
 15
10.0
 25
10.0
 16
0.0
 26
0.0
 36
0.0
 17
0.0
 27
0.0
 37
0.0
 42
50.0
 43
0.0
 44
0.0
 45
297.0
 50
0.0
 51
0.0
 72
100
 90
0
  1

281
0
 71
0
 74
0
110
0.0
120
0.0
130
0.0
111
1.0
121
0.0
131
0.0
112
0.0
122
1.0
132
0.0
 79
0
146
0.0
  0
ENDBLK
  5
464
330
462
100
AcDbEntity
  8
0
100
AcDbBlockEnd
  0
BLOCK
  5
469
330
468
100
AcDbEntity
  8
0
100
AcDbBlockBegin
  2
*Paper_Space30
 70
0
 10
0.0
 20
0.0
 30
0.0
  3
*Paper_Space30
  1

  0
VIEWPORT
  5
46C
330
468
100
AcDbEntity
 67
1
  8
VIEWPORTS
100
AcDbViewport
 10
105.0
 20
148.5
 30
0.0
 40
231.00000000000003
 41
326.70000000000005
 68
1
 69
1
 12
105.0
 22
148.5
 13
0.0
 23
0.0
 14
10.0
 24
10.0
 15
10.0
 25
10.0
 16
0.0
 26
0.0
 36
0.0
 17
0.0
 27
0.0
 37
0.0
 42
50.0
 43
0.0
 44
0.0
 45
326.70000000000005
 50
0.0
 51
0.0
 72
100
 90
557088
  1

281
0
 71
0
 74
0
110
0.0
120
0.0
130
0.0
111
1.0
121
0.0
131
0.0
112
0.0
122
1.0
132
0.0
 79
0
146
0.0
  0
VIEWPORT
  5
46D
330
468
100
AcDbEntity
 67
1
  8
VIEWPORTS
100
AcDbViewport
 10
105.0
 20
148.5
 30
0.0
 40
210.0
 41
297.0
 68
1
 69
65
 12
105.0
 22
-1039.5
 13
0.0
 23
0.0
 14
10.0
 24
10.0
 15
10.0
 25
10.0
 16
0.0
 26
0.0
 36
0.0
 17
0.0
 27
0.0
 37
0.0
 42
50.0
 43
0.0
 44
0.0
 45
297.0
 50
0.0
 51
0.0
 72
100
 90
0
  1

281
0
 71
0
 74
0
110
0.0
120
0.0
130
0.0
111
1.0
121
0.0
131
0.0
112
0.0
122
1.0
132
0.0
 79
0
146
0.0
  0
ENDBLK
  5
46A
330
468
100
AcDbEntity
  8
0
100
AcDbBlockEnd
  0
BLOCK
  5
46F
330
46E
100
AcDbEntity
  8
0
100
AcDbBlockBegin
  2
*Paper_Space31
 70
0
 10
0.0
 20
0.0
 30
0.0
  3
*Paper_Space31
  1

  0
VIEWPORT
  5
472
330
46E
100
AcDbEntity
 67
1
  8
VIEWPORTS
100
AcDbViewport
 10
105.0
 20
148.5
 30
0.0
 40
231.00000000000003
 41
326.70000000000005
 68
1
 69
1
 12
105.0
 22
148.5
 13
0.0
 23
0.0
 14
10.0
 24
10.0
 15
10.0
 25
10.0
 16
0.0
 26
0.0
 36
0.0
 17
0.0
 27
0.0
 37
0.0
 42
50.0
 43
0.0
 44
0.0
 45
326.70000000000005
 50
0.0
 51
0.0
 72
100
 90
557088
  1

281
0
 71
0
 74
0
110
0.0
120
0.0
130
0.0
111
1.0
121
0.0
131
0.0
112
0.0
122
1.0
132
0.0
 79
0
146
0.0
  0
VIEWPORT
  5
473
330
46E
100
AcDbEntity
 67
1
  8
VIEWPORTS
100
AcDbViewport
 10
105.0
 20
148.5
 30
0.0
 40
210.0
 41
297.0
 68
1
 69
67
 12
315.0
 22
-1039.5
 13
0.0
 23
0.0
 14
10.0
 24
10.0
 15
10.0
 25
10.0
 16
0.0
 26
0.0
 36
0.0
 17
0.0
 27
0.0
 37
0.0
 42
50.0
 43
0.0
 44
0.0
 45
297.0
 50
0.0
 51
0.0
 72
100
 90
0
  1

281
0
 71
0
 74
0
110
0.0
120
0.0
130
0.0
111
1.0
121
0.0
131
0.0
112
0.0
122
1.0
132
0.0
 79
0
146
0.0
  0
ENDBLK
  5
470
330
46E
100
AcDbEntity
  8
0
100
AcDbBlockEnd
  0
BLOCK
  5
475
330
474
100
AcDbEntity
  8
0
100
AcDbBlockBegin
  2
*Paper_Space32
 70
0
 10
0.0
 20
0.0
 30
0.0
  3
*Paper_Space32
  1

  0
VIEWPORT
  5
478
330
474
100
AcDbEntity
 67
1
  8
VIEWPORTS
100
AcDbViewport
 10
105.0
 20
148.5
 30
0.0
 40
231.00000000000003
 41
326.70000000000005
 68
1
 69
1
 12
105.0
 22
148.5
 13
0.0
 23
0.0
 14
10.0
 24
10.0
 15
10.0
 25
10.0
 16
0.0
 26
0.0
 36
0.0
 17
0.0
 27
0.0
 37
0.0
 42
50.0
 43
0.0
 44
0.0
 45
326.70000000000005
 50
0.0
 51
0.0
 72
100
 90
557088
  1

281
0
 71
0
 74
0
110
0.0
120
0.0
130
0.0
111
1.0
121
0.0
131
0.0
112
0.0
122
1.0
132
0.0
 79
0
146
0.0
  0
VIEWPORT
  5
479
330
474
100
AcDbEntity
 67
1
  8
VIEWPORTS
100
AcDbViewport
 10
105.0
 20
148.5
 30
0.0
 40
210.0
 41
297.0
 68
1
 69
69
 12
525.0
 22
-1039.5
 13
0.0
 23
0.0
 14
10.0
 24
10.0
 15
10.0
 25
10.0
 16
0.0
 26
0.0
 36
0.0
 17
0.0
 27
0.0
 37
0.0
 42
50.0
 43
0.0
 44
0.0
 45
297.0
 50
0.0
 51
0.0
 72
100
 90
0
  1

281
0
 71
0
 74
0
110
0.0
120
0.0
130
0.0
111
1.0
121
0.0
131
0.0
112
0.0
122
1.0
132
0.0
 79
0
146
0.0
  0
ENDBLK
  5
476
330
474
100
AcDbEntity
  8
0
100
AcDbBlockEnd
  0
BLOCK
  5
47B
330
47A
100
AcDbEntity
  8
0
100
AcDbBlockBegin
  2
*Paper_Space33
 70
0
 10
0.0
 20
0.0
 30
0.0
  3
*Paper_Space33
  1

  0
VIEWPORT
  5
47E
330
47A
100
AcDbEntity
 67
1
  8
VIEWPORTS
100
AcDbViewport
 10
105.0
 20
148.5
 30
0.0
 40
231.00000000000003
 41
326.70000000000005
 68
1
 69
1
 12
105.0
 22
148.5
 13
0.0
 23
0.0
 14
10.0
 24
10.0
 15
10.0
 25
10.0
 16
0.0
 26
0.0
 36
0.0
 17
0.0
 27
0.0
 37
0.0
 42
50.0
 43
0.0
 44
0.0
 45
326.70000000000005
 50
0.0
 51
0.0
 72
100
 90
557088
  1

281
0
 71
0
 74
0
110
0.0
120
0.0
130
0.0
111
1.0
121
0.0
131
0.0
112
0.0
122
1.0
132
0.0
 79
0
146
0.0
  0
VIEWPORT
  5
47F
330
47A
100
AcDbEntity
 67
1
  8
VIEWPORTS
100
AcDbViewport
 10
105.0
 20
148.5
 30
0.0
 40
210.0
 41
297.0
 68
1
 69
71
 12
735.0
 22
-1039.5
 13
0.0
 23
0.0
 14
10.0
 24
10.0
 15
10.0
 25
10.0
 16
0.0
 26
0.0
 36
0.0
 17
0.0
 27
0.0
 37
0.0
 42
50.0
 43
0.0
 44
0.0
 45
297.0
 50
0.0
 51
0.0
 72
100
 90
0
  1

281
0
 71
0
 74
0
110
0.0
120
0.0
130
0.0
111
1.0
121
0.0
131
0.0
112
0.0
122
1.0
132
0.0
 79
0
146
0.0
  0
ENDBLK
  5
47C
330
47A
100
AcDbEntity
  8
0
100
AcDbBlockEnd
  0
BLOCK
  5
481
330
480
100
AcDbEntity
  8
0
100
AcDbBlockBegin
  2
*Paper_Space34
 70
0
 10
0.0
 20
0.0
 30
0.0
  3
*Paper_Space34
  1

  0
VIEWPORT
  5
484
330
480
100
AcDbEntity
 67
1
  8
VIEWPORTS
100
AcDbViewport
 10
105.0
 20
148.5
 30
0.0
 40
231.00000000000003
 41
326.70000000000005
 68
1
 69
1
 12
105.0
 22
148.5
 13
0.0
 23
0.0
 14
10.0
 24
10.0
 15
10.0
 25
10.0
 16
0.0
 26
0.0
 36
0.0
 17
0.0
 27
0.0
 37
0.0
 42
50.0
 43
0.0
 44
0.0
 45
326.70000000000005
 50
0.0
 51
0.0
 72
100
 90
557088
  1

281
0
 71
0
 74
0
110
0.0
120
0.0
130
0.0
111
1.0
121
0.0
131
0.0
112
0.0
122
1.0
132
0.0
 79
0
146
0.0
  0
VIEWPORT
  5
485
330
480
100
AcDbEntity
 67
1
  8
VIEWPORTS
100
AcDbViewport
 10
105.0
 20
148.5
 30
0.0
 40
210.0
 41
297.0
 68
1
 69
73
 12
945.0
 22
-1039.5
 13
0.0
 23
0.0
 14
10.0
 24
10.0
 15
10.0
 25
10.0
 16
0.0
 26
0.0
 36
0.0
 17
0.0
 27
0.0
 37
0.0
 42
50.0
 43
0.0
 44
0.0
 45
297.0
 50
0.0
 51
0.0
 72
100
 90
0
  1

281
0
 71
0
 74
0
110
0.0
120
0.0
130
0.0
111
1.0
121
0.0
131
0.0
112
0.0
122
1.0
132
0.0
 79
0
146
0.0
  0
ENDBLK
  5
482
330
480
100
AcDbEntity
  8
0
100
AcDbBlockEnd
  0
BLOCK
  5
487
330
486
100
AcDbEntity
  8
0
100
AcDbBlockBegin
  2
*Paper_Space35
 70
0
 10
0.0
 20
0.0
 30
0.0
  3
*Paper_Space35
  1

  0
VIEWPORT
  5
48A
330
486
100
AcDbEntity
 67
1
  8
VIEWPORTS
100
AcDbViewport
 10
105.0
 20
148.5
 30
0.0
 40
231.00000000000003
 41
326.70000000000005
 68
1
 69
1
 12
105.0
 22
148.5
 13
0.0
 23
0.0
 14
10.0
 24
10.0
 15
10.0
 25
10.0
 16
0.0
 26
0.0
 36
0.0
 17
0.0
 27
0.0
 37
0.0
 42
50.0
 43
0.0
 44
0.0
 45
326.70000000000005
 50
0.0
 51
0.0
 72
100
 90
557088
  1

281
0
 71
0
 74
0
110
0.0
120
0.0
130
0.0
111
1.0
121
0.0
131
0.0
112
0.0
122
1.0
132
0.0
 79
0
146
0.0
  0
VIEWPORT
  5
48B
330
486
100
AcDbEntity
 67
1
  8
VIEWPORTS
100
AcDbViewport
 10
105.0
 20
148.5
 30
0.0
 40
210.0
 41
297.0
 68
1
 69
75
 12
1155.0
 22
-1039.5
 13
0.0
 23
0.0
 14
10.0
 24
10.0
 15
10.0
 25
10.0
 16
0.0
 26
0.0
 36
0.0
 17
0.0
 27
0.0
 37
0.0
 42
50.0
 43
0.0
 44
0.0
 45
297.0
 50
0.0
 51
0.0
 72
100
 90
0
  1

281
0
 71
0
 74
0
110
0.0
120
0.0
130
0.0
111
1.0
121
0.0
131
0.0
112
0.0
122
1.0
132
0.0
 79
0
146
0.0
  0
ENDBLK
  5
488
330
486
100
AcDbEntity
  8
0
100
AcDbBlockEnd
  0
BLOCK
  5
48D
330
48C
100
AcDbEntity
  8
0
100
AcDbBlockBegin
  2
*Paper_Space36
 70
0
 10
0.0
 20
0.0
 30
0.0
  3
*Paper_Space36
  1

  0
VIEWPORT
  5
490
330
48C
100
AcDbEntity
 67
1
  8
VIEWPORTS
100
AcDbViewport
 10
105.0
 20
148.5
 30
0.0
 40
231.00000000000003
 41
326.70000000000005
 68
1
 69
1
 12
105.0
 22
148.5
 13
0.0
 23
0.0
 14
10.0
 24
10.0
 15
10.0
 25
10.0
 16
0.0
 26
0.0
 36
0.0
 17
0.0
 27
0.0
 37
0.0
 42
50.0
 43
0.0
 44
0.0
 45
326.70000000000005
 50
0.0
 51
0.0
 72
100
 90
557088
  1

281
0
 71
0
 74
0
110
0.0
120
0.0
130
0.0
111
1.0
121
0.0
131
0.0
112
0.0
122
1.0
132
0.0
 79
0
146
0.0
  0
VIEWPORT
  5
491
330
48C
100
AcDbEntity
 67
1
  8
VIEWPORTS
100
AcDbViewport
 10
105.0
 20
148.5
 30
0.0
 40
210.0
 41
297.0
 68
1
 69
77
 12
1365.0
 22
-1039.5
 13
0.0
 23
0.0
 14
10.0
 24
10.0
 15
10.0
 25
10.0
 16
0.0
 26
0.0
 36
0.0
 17
0.0
 27
0.0
 37
0.0
 42
50.0
 43
0.0
 44
0.0
 45
297.0
 50
0.0
 51
0.0
 72
100
 90
0
  1

281
0
 71
0
 74
0
110
0.0
120
0.0
130
0.0
111
1.0
121
0.0
131
0.0
112
0.0
122
1.0
132
0.0
 79
0
146
0.0
  0
ENDBLK
  5
48E
330
48C
100
AcDbEntity
  8
0
100
AcDbBlockEnd
  0
BLOCK
  5
493
330
492
100
AcDbEntity
  8
0
100
AcDbBlockBegin
  2
*Paper_Space37
 70
0
 10
0.0
 20
0.0
 30
0.0
  3
*Paper_Space37
  1

  0
VIEWPORT
  5
496
330
492
100
AcDbEntity
 67
1
  8
VIEWPORTS
100
AcDbViewport
 10
105.0
 20
148.5
 30
0.0
 40
231.00000000000003
 41
326.70000000000005
 68
1
 69
1
 12
105.0
 22
148.5
 13
0.0
 23
0.0
 14
10.0
 24
10.0
 15
10.0
 25
10.0
 16
0.0
 26
0.0
 36
0.0
 17
0.0
 27
0.0
 37
0.0
 42
50.0
 43
0.0
 44
0.0
 45
326.70000000000005
 50
0.0
 51
0.0
 72
100
 90
557088
  1

281
0
 71
0
 74
0
110
0.0
120
0.0
130
0.0
111
1.0
121
0.0
131
0.0
112
0.0
122
1.0
132
0.0
 79
0
146
0.0
  0
VIEWPORT
  5
497
330
492
100
AcDbEntity
 67
1
  8
VIEWPORTS
100
AcDbViewport
 10
105.0
 20
148.5
 30
0.0
 40
210.0
 41
297.0
 68
1
 69
79
 12
1575.0
 22
-1039.5
 13
0.0
 23
0.0
 14
10.0
 24
10.0
 15
10.0
 25
10.0
 16
0.0
 26
0.0
 36
0.0
 17
0.0
 27
0.0
 37
0.0
 42
50.0
 43
0.0
 44
0.0
 45
297.0
 50
0.0
 51
0.0
 72
100
 90
0
  1

281
0
 71
0
 74
0
110
0.0
120
0.0
130
0.0
111
1.0
121
0.0
131
0.0
112
0.0
122
1.0
132
0.0
 79
0
146
0.0
  0
ENDBLK
  5
494
330
492
100
AcDbEntity
  8
0
100
AcDbBlockEnd
  0
BLOCK
  5
499
330
498
100
AcDbEntity
  8
0
100
AcDbBlockBegin
  2
*Paper_Space38
 70
0
 10
0.0
 20
0.0
 30
0.0
  3
*Paper_Space38
  1

  0
VIEWPORT
  5
49C
330
498
100
AcDbEntity
 67
1
  8
VIEWPORTS
100
AcDbViewport
 10
105.0
 20
148.5
 30
0.0
 40
231.00000000000003
 41
326.70000000000005
 68
1
 69
1
 12
105.0
 22
148.5
 13
0.0
 23
0.0
 14
10.0
 24
10.0
 15
10.0
 25
10.0
 16
0.0
 26
0.0
 36
0.0
 17
0.0
 27
0.0
 37
0.0
 42
50.0
 43
0.0
 44
0.0
 45
326.70000000000005
 50
0.0
 51
0.0
 72
100
 90
557088
  1

281
0
 71
0
 74
0
110
0.0
120
0.0
130
0.0
111
1.0
121
0.0
131
0.0
112
0.0
122
1.0
132
0.0
 79
0
146
0.0
  0
VIEWPORT
  5
49D
330
498
100
AcDbEntity
 67
1
  8
VIEWPORTS
100
AcDbViewport
 10
105.0
 20
148.5
 30
0.0
 40
210.0
 41
297.0
 68
1
 69
81
 12
1785.0
 22
-1039.5
 13
0.0
 23
0.0
 14
10.0
 24
10.0
 15
10.0
 25
10.0
 16
0.0
 26
0.0
 36
0.0
 17
0.0
 27
0.0
 37
0.0
 42
50.0
 43
0.0
 44
0.0
 45
297.0
 50
0.0
 51
0.0
 72
100
 90
0
  1

281
0
 71
0
 74
0
110
0.0
120
0.0
130
0.0
111
1.0
121
0.0
131
0.0
112
0.0
122
1.0
132
0.0
 79
0
146
0.0
  0
ENDBLK
  5
49A
330
498
100
AcDbEntity
  8
0
100
AcDbBlockEnd
  0
BLOCK
  5
49F
330
49E
100
AcDbEntity
  8
0
100
AcDbBlockBegin
  2
*Paper_Space39
 70
0
 10
0.0
 20
0.0
 30
0.0
  3
*Paper_Space39
  1

  0
VIEWPORT
  5
4A2
330
49E
100
AcDbEntity
 67
1
  8
VIEWPORTS
100
AcDbViewport
 10
105.0
 20
148.5
 30
0.0
 40
231.00000000000003
 41
326.70000000000005
 68
1
 69
1
 12
105.0
 22
148.5
 13
0.0
 23
0.0
 14
10.0
 24
10.0
 15
10.0
 25
10.0
 16
0.0
 26
0.0
 36
0.0
 17
0.0
 27
0.0
 37
0.0
 42
50.0
 43
0.0
 44
0.0
 45
326.70000000000005
 50
0.0
 51
0.0
 72
100
 90
557088
  1

281
0
 71
0
 74
0
110
0.0
120
0.0
130
0.0
111
1.0
121
0.0
131
0.0
112
0.0
122
1.0
132
0.0
 79
0
146
0.0
  0
VIEWPORT
  5
4A3
330
49E
100
AcDbEntity
 67
1
  8
VIEWPORTS
100
AcDbViewport
 10
105.0
 20
148.5
 30
0.0
 40
210.0
 41
297.0
 68
1
 69
83
 12
1995.0
 22
-1039.5
 13
0.0
 23
0.0
 14
10.0
 24
10.0
 15
10.0
 25
10.0
 16
0.0
 26
0.0
 36
0.0
 17
0.0
 27
0.0
 37
0.0
 42
50.0
 43
0.0
 44
0.0
 45
297.0
 50
0.0
 51
0.0
 72
100
 90
0
  1

281
0
 71
0
 74
0
110
0.0
120
0.0
130
0.0
111
1.0
121
0.0
131
0.0
112
0.0
122
1.0
132
0.0
 79
0
146
0.0
  0
ENDBLK
  5
4A0
330
49E
100
AcDbEntity
  8
0
100
AcDbBlockEnd
  0
BLOCK
  5
4A5
330
4A4
100
AcDbEntity
  8
0
100
AcDbBlockBegin
  2
*Paper_Space40
 70
0
 10
0.0
 20
0.0
 30
0.0
  3
*Paper_Space40
  1

  0
VIEWPORT
  5
4A8
330
4A4
100
AcDbEntity
 67
1
  8
VIEWPORTS
100
AcDbViewport
 10
105.0
 20
148.5
 30
0.0
 40
231.00000000000003
 41
326.70000000000005
 68
1
 69
1
 12
105.0
 22
148.5
 13
0.0
 23
0.0
 14
10.0
 24
10.0
 15
10.0
 25
10.0
 16
0.0
 26
0.0
 36
0.0
 17
0.0
 27
0.0
 37
0.0
 42
50.0
 43
0.0
 44
0.0
 45
326.70000000000005
 50
0.0
 51
0.0
 72
100
 90
557088
  1

281
0
 71
0
 74
0
110
0.0
120
0.0
130
0.0
111
1.0
121
0.0
131
0.0
112
0.0
122
1.0
132
0.0
 79
0
146
0.0
  0
VIEWPORT
  5
4A9
330
4A4
100
AcDbEntity
 67
1
  8
VIEWPORTS
100
AcDbViewport
 10
105.0
 20
148.5
 30
0.0
 40
210.0
 41
297.0
 68
1
 69
85
 12
105.0
 22
-1336.5
 13
0.0
 23
0.0
 14
10.0
 24
10.0
 15
10.0
 25
10.0
 16
0.0
 26
0.0
 36
0.0
 17
0.0
 27
0.0
 37
0.0
 42
50.0
 43
0.0
 44
0.0
 45
297.0
 50
0.0
 51
0.0
 72
100
 90
0
  1

281
0
 71
0
 74
0
110
0.0
120
0.0
130
0.0
111
1.0
121
0.0
131
0.0
112
0.0
122
1.0
132
0.0
 79
0
146
0.0
  0
ENDBLK
  5
4A6
330
4A4
100
AcDbEntity
  8
0
100
AcDbBlockEnd
  0
BLOCK
  5
4AB
330
4AA
100
AcDbEntity
  8
0
100
AcDbBlockBegin
  2
*Paper_Space41
 70
0
 10
0.0
 20
0.0
 30
0.0
  3
*Paper_Space41
  1

  0
VIEWPORT
  5
4AE
330
4AA
100
AcDbEntity
 67
1
  8
VIEWPORTS
100
AcDbViewport
 10
105.0
 20
148.5
 30
0.0
 40
231.00000000000003
 41
326.70000000000005
 68
1
 69
1
 12
105.0
 22
148.5
 13
0.0
 23
0.0
 14
10.0
 24
10.0
 15
10.0
 25
10.0
 16
0.0
 26
0.0
 36
0.0
 17
0.0
 27
0.0
 37
0.0
 42
50.0
 43
0.0
 44
0.0
 45
326.70000000000005
 50
0.0
 51
0.0
 72
100
 90
557088
  1

281
0
 71
0
 74
0
110
0.0
120
0.0
130
0.0
111
1.0
121
0.0
131
0.0
112
0.0
122
1.0
132
0.0
 79
0
146
0.0
  0
VIEWPORT
  5
4AF
330
4AA
100
AcDbEntity
 67
1
  8
VIEWPORTS
100
AcDbViewport
 10
105.0
 20
148.5
 30
0.0
 40
210.0
 41
297.0
 68
1
 69
87
 12
315.0
 22
-1336.5
 13
0.0
 23
0.0
 14
10.0
 24
10.0
 15
10.0
 25
10.0
 16
0.0
 26
0.0
 36
0.0
 17
0.0
 27
0.0
 37
0.0
 42
50.0
 43
0.0
 44
0.0
 45
297.0
 50
0.0
 51
0.0
 72
100
 90
0
  1

281
0
 71
0
 74
0
110
0.0
120
0.0
130
0.0
111
1.0
121
0.0
131
0.0
112
0.0
122
1.0
132
0.0
 79
0
146
0.0
  0
ENDBLK
  5
4AC
330
4AA
100
AcDbEntity
  8
0
100
AcDbBlockEnd
  0
BLOCK
  5
4B1
330
4B0
100
AcDbEntity
  8
0
100
AcDbBlockBegin
  2
*Paper_Space42
 70
0
 10
0.0
 20
0.0
 30
0.0
  3
*Paper_Space42
  1

  0
VIEWPORT
  5
4B4
330
4B0
100
AcDbEntity
 67
1
  8
VIEWPORTS
100
AcDbViewport
 10
105.0
 20
148.5
 30
0.0
 40
231.00000000000003
 41
326.70000000000005
 68
1
 69
1
 12
105.0
 22
148.5
 13
0.0
 23
0.0
 14
10.0
 24
10.0
 15
10.0
 25
10.0
 16
0.0
 26
0.0
 36
0.0
 17
0.0
 27
0.0
 37
0.0
 42
50.0
 43
0.0
 44
0.0
 45
326.70000000000005
 50
0.0
 51
0.0
 72
100
 90
557088
  1

281
0
 71
0
 74
0
110
0.0
120
0.0
130
0.0
111
1.0
121
0.0
131
0.0
112
0.0
122
1.0
132
0.0
 79
0
146
0.0
  0
VIEWPORT
  5
4B5
330
4B0
100
AcDbEntity
 67
1
  8
VIEWPORTS
100
AcDbViewport
 10
105.0
 20
148.5
 30
0.0
 40
210.0
 41
297.0
 68
1
 69
89
 12
525.0
 22
-1336.5
 13
0.0
 23
0.0
 14
10.0
 24
10.0
 15
10.0
 25
10.0
 16
0.0
 26
0.0
 36
0.0
 17
0.0
 27
0.0
 37
0.0
 42
50.0
 43
0.0
 44
0.0
 45
297.0
 50
0.0
 51
0.0
 72
100
 90
0
  1

281
0
 71
0
 74
0
110
0.0
120
0.0
130
0.0
111
1.0
121
0.0
131
0.0
112
0.0
122
1.0
132
0.0
 79
0
146
0.0
  0
ENDBLK
  5
4B2
330
4B0
100
AcDbEntity
  8
0
100
AcDbBlockEnd
  0
BLOCK
  5
4B7
330
4B6
100
AcDbEntity
  8
0
100
AcDbBlockBegin
  2
*Paper_Space43
 70
0
 10
0.0
 20
0.0
 30
0.0
  3
*Paper_Space43
  1

  0
VIEWPORT
  5
4BA
330
4B6
100
AcDbEntity
 67
1
  8
VIEWPORTS
100
AcDbViewport
 10
105.0
 20
148.5
 30
0.0
 40
231.00000000000003
 41
326.70000000000005
 68
1
 69
1
 12
105.0
 22
148.5
 13
0.0
 23
0.0
 14
10.0
 24
10.0
 15
10.0
 25
10.0
 16
0.0
 26
0.0
 36
0.0
 17
0.0
 27
0.0
 37
0.0
 42
50.0
 43
0.0
 44
0.0
 45
326.70000000000005
 50
0.0
 51
0.0
 72
100
 90
557088
  1

281
0
 71
0
 74
0
110
0.0
120
0.0
130
0.0
111
1.0
121
0.0
131
0.0
112
0.0
122
1.0
132
0.0
 79
0
146
0.0
  0
VIEWPORT
  5
4BB
330
4B6
100
AcDbEntity
 67
1
  8
VIEWPORTS
100
AcDbViewport
 10
105.0
 20
148.5
 30
0.0
 40
210.0
 41
297.0
 68
1
 69
91
 12
735.0
 22
-1336.5
 13
0.0
 23
0.0
 14
10.0
 24
10.0
 15
10.0
 25
10.0
 16
0.0
 26
0.0
 36
0.0
 17
0.0
 27
0.0
 37
0.0
 42
50.0
 43
0.0
 44
0.0
 45
297.0
 50
0.0
 51
0.0
 72
100
 90
0
  1

281
0
 71
0
 74
0
110
0.0
120
0.0
130
0.0
111
1.0
121
0.0
131
0.0
112
0.0
122
1.0
132
0.0
 79
0
146
0.0
  0
ENDBLK
  5
4B8
330
4B6
100
AcDbEntity
  8
0
100
AcDbBlockEnd
  0
BLOCK
  5
4BD
330
4BC
100
AcDbEntity
  8
0
100
AcDbBlockBegin
  2
*Paper_Space44
 70
0
 10
0.0
 20
0.0
 30
0.0
  3
*Paper_Space44
  1

  0
VIEWPORT
  5
4C0
330
4BC
100
AcDbEntity
 67
1
  8
VIEWPORTS
100
AcDbViewport
 10
105.0
 20
148.5
 30
0.0
 40
231.00000000000003
 41
326.70000000000005
 68
1
 69
1
 12
105.0
 22
148.5
 13
0.0
 23
0.0
 14
10.0
 24
10.0
 15
10.0
 25
10.0
 16
0.0
 26
0.0
 36
0.0
 17
0.0
 27
0.0
 37
0.0
 42
50.0
 43
0.0
 44
0.0
 45
326.70000000000005
 50
0.0
 51
0.0
 72
100
 90
557088
  1

281
0
 71
0
 74
0
110
0.0
120
0.0
130
0.0
111
1.0
121
0.0
131
0.0
112
0.0
122
1.0
132
0.0
 79
0
146
0.0
  0
VIEWPORT
  5
4C1
330
4BC
100
AcDbEntity
 67
1
  8
VIEWPORTS
100
AcDbViewport
 10
105.0
 20
148.5
 30
0.0
 40
210.0
 41
297.0
 68
1
 69
93
 12
945.0
 22
-1336.5
 13
0.0
 23
0.0
 14
10.0
 24
10.0
 15
10.0
 25
10.0
 16
0.0
 26
0.0
 36
0.0
 17
0.0
 27
0.0
 37
0.0
 42
50.0
 43
0.0
 44
0.0
 45
297.0
 50
0.0
 51
0.0
 72
100
 90
0
  1

281
0
 71
0
 74
0
110
0.0
120
0.0
130
0.0
111
1.0
121
0.0
131
0.0
112
0.0
122
1.0
132
0.0
 79
0
146
0.0
  0
ENDBLK
  5
4BE
330
4BC
100
AcDbEntity
  8
0
100
AcDbBlockEnd
  0
BLOCK
  5
4C3
330
4C2
100
AcDbEntity
  8
0
100
AcDbBlockBegin
  2
*Paper_Space45
 70
0
 10
0.0
 20
0.0
 30
0.0
  3
*Paper_Space45
  1

  0
VIEWPORT
  5
4C6
330
4C2
100
AcDbEntity
 67
1
  8
VIEWPORTS
100
AcDbViewport
 10
105.0
 20
148.5
 30
0.0
 40
231.00000000000003
 41
326.70000000000005
 68
1
 69
1
 12
105.0
 22
148.5
 13
0.0
 23
0.0
 14
10.0
 24
10.0
 15
10.0
 25
10.0
 16
0.0
 26
0.0
 36
0.0
 17
0.0
 27
0.0
 37
0.0
 42
50.0
 43
0.0
 44
0.0
 45
326.70000000000005
 50
0.0
 51
0.0
 72
100
 90
557088
  1

281
0
 71
0
 74
0
110
0.0
120
0.0
130
0.0
111
1.0
121
0.0
131
0.0
112
0.0
122
1.0
132
0.0
 79
0
146
0.0
  0
VIEWPORT
  5
4C7
330
4C2
100
AcDbEntity
 67
1
  8
VIEWPORTS
100
AcDbViewport
 10
105.0
 20
148.5
 30
0.0
 40
210.0
 41
297.0
 68
1
 69
95
 12
1155.0
 22
-1336.5
 13
0.0
 23
0.0
 14
10.0
 24
10.0
 15
10.0
 25
10.0
 16
0.0
 26
0.0
 36
0.0
 17
0.0
 27
0.0
 37
0.0
 42
50.0
 43
0.0
 44
0.0
 45
297.0
 50
0.0
 51
0.0
 72
100
 90
0
  1

281
0
 71
0
 74
0
110
0.0
120
0.0
130
0.0
111
1.0
121
0.0
131
0.0
112
0.0
122
1.0
132
0.0
 79
0
146
0.0
  0
ENDBLK
  5
4C4
330
4C2
100
AcDbEntity
  8
0
100
AcDbBlockEnd
  0
BLOCK
  5
4C9
330
4C8
100
AcDbEntity
  8
0
100
AcDbBlockBegin
  2
*Paper_Space46
 70
0
 10
0.0
 20
0.0
 30
0.0
  3
*Paper_Space46
  1

  0
VIEWPORT
  5
4CC
330
4C8
100
AcDbEntity
 67
1
  8
VIEWPORTS
100
AcDbViewport
 10
105.0
 20
148.5
 30
0.0
 40
231.00000000000003
 41
326.70000000000005
 68
1
 69
1
 12
105.0
 22
148.5
 13
0.0
 23
0.0
 14
10.0
 24
10.0
 15
10.0
 25
10.0
 16
0.0
 26
0.0
 36
0.0
 17
0.0
 27
0.0
 37
0.0
 42
50.0
 43
0.0
 44
0.0
 45
326.70000000000005
 50
0.0
 51
0.0
 72
100
 90
557088
  1

281
0
 71
0
 74
0
110
0.0
120
0.0
130
0.0
111
1.0
121
0.0
131
0.0
112
0.0
122
1.0
132
0.0
 79
0
146
0.0
  0
VIEWPORT
  5
4CD
330
4C8
100
AcDbEntity
 67
1
  8
VIEWPORTS
100
AcDbViewport
 10
105.0
 20
148.5
 30
0.0
 40
210.0
 41
297.0
 68
1
 69
97
 12
1365.0
 22
-1336.5
 13
0.0
 23
0.0
 14
10.0
 24
10.0
 15
10.0
 25
10.0
 16
0.0
 26
0.0
 36
0.0
 17
0.0
 27
0.0
 37
0.0
 42
50.0
 43
0.0
 44
0.0
 45
297.0
 50
0.0
 51
0.0
 72
100
 90
0
  1

281
0
 71
0
 74
0
110
0.0
120
0.0
130
0.0
111
1.0
121
0.0
131
0.0
112
0.0
122
1.0
132
0.0
 79
0
146
0.0
  0
ENDBLK
  5
4CA
330
4C8
100
AcDbEntity
  8
0
100
AcDbBlockEnd
  0
BLOCK
  5
4CF
330
4CE
100
AcDbEntity
  8
0
100
AcDbBlockBegin
  2
*Paper_Space47
 70
0
 10
0.0
 20
0.0
 30
0.0
  3
*Paper_Space47
  1

  0
VIEWPORT
  5
4D2
330
4CE
100
AcDbEntity
 67
1
  8
VIEWPORTS
100
AcDbViewport
 10
105.0
 20
148.5
 30
0.0
 40
231.00000000000003
 41
326.70000000000005
 68
1
 69
1
 12
105.0
 22
148.5
 13
0.0
 23
0.0
 14
10.0
 24
10.0
 15
10.0
 25
10.0
 16
0.0
 26
0.0
 36
0.0
 17
0.0
 27
0.0
 37
0.0
 42
50.0
 43
0.0
 44
0.0
 45
326.70000000000005
 50
0.0
 51
0.0
 72
100
 90
557088
  1

281
0
 71
0
 74
0
110
0.0
120
0.0
130
0.0
111
1.0
121
0.0
131
0.0
112
0.0
122
1.0
132
0.0
 79
0
146
0.0
  0
VIEWPORT
  5
4D3
330
4CE
100
AcDbEntity
 67
1
  8
VIEWPORTS
100
AcDbViewport
 10
105.0
 20
148.5
 30
0.0
 40
210.0
 41
297.0
 68
1
 69
99
 12
1575.0
 22
-1336.5
 13
0.0
 23
0.0
 14
10.0
 24
10.0
 15
10.0
 25
10.0
 16
0.0
 26
0.0
 36
0.0
 17
0.0
 27
0.0
 37
0.0
 42
50.0
 43
0.0
 44
0.0
 45
297.0
 50
0.0
 51
0.0
 72
100
 90
0
  1

281
0
 71
0
 74
0
110
0.0
120
0.0
130
0.0
111
1.0
121
0.0
131
0.0
112
0.0
122
1.0
132
0.0
 79
0
146
0.0
  0
ENDBLK
  5
4D0
330
4CE
100
AcDbEntity
  8
0
100
AcDbBlockEnd
  0
BLOCK
  5
4D5
330
4D4
100
AcDbEntity
  8
0
100
AcDbBlockBegin
  2
*Paper_Space48
 70
0
 10
0.0
 20
0.0
 30
0.0
  3
*Paper_Space48
  1

  0
VIEWPORT
  5
4D8
330
4D4
100
AcDbEntity
 67
1
  8
VIEWPORTS
100
AcDbViewport
 10
105.0
 20
148.5
 30
0.0
 40
231.00000000000003
 41
326.70000000000005
 68
1
 69
1
 12
105.0
 22
148.5
 13
0.0
 23
0.0
 14
10.0
 24
10.0
 15
10.0
 25
10.0
 16
0.0
 26
0.0
 36
0.0
 17
0.0
 27
0.0
 37
0.0
 42
50.0
 43
0.0
 44
0.0
 45
326.70000000000005
 50
0.0
 51
0.0
 72
100
 90
557088
  1

281
0
 71
0
 74
0
110
0.0
120
0.0
130
0.0
111
1.0
121
0.0
131
0.0
112
0.0
122
1.0
132
0.0
 79
0
146
0.0
  0
VIEWPORT
  5
4D9
330
4D4
100
AcDbEntity
 67
1
  8
VIEWPORTS
100
AcDbViewport
 10
105.0
 20
148.5
 30
0.0
 40
210.0
 41
297.0
 68
1
 69
101
 12
1785.0
 22
-1336.5
 13
0.0
 23
0.0
 14
10.0
 24
10.0
 15
10.0
 25
10.0
 16
0.0
 26
0.0
 36
0.0
 17
0.0
 27
0.0
 37
0.0
 42
50.0
 43
0.0
 44
0.0
 45
297.0
 50
0.0
 51
0.0
 72
100
 90
0
  1

281
0
 71
0
 74
0
110
0.0
120
0.0
130
0.0
111
1.0
121
0.0
131
0.0
112
0.0
122
1.0
132
0.0
 79
0
146
0.0
  0
ENDBLK
  5
4D6
330
4D4
100
AcDbEntity
  8
0
100
AcDbBlockEnd
  0
BLOCK
  5
4DB
330
4DA
100
AcDbEntity
  8
0
100
AcDbBlockBegin
  2
*Paper_Space49
 70
0
 10
0.0
 20
0.0
 30
0.0
  3
*Paper_Space49
  1

  0
VIEWPORT
  5
4DE
330
4DA
100
AcDbEntity
 67
1
  8
VIEWPORTS
100
AcDbViewport
 10
105.0
 20
148.5
 30
0.0
 40
231.00000000000003
 41
326.70000000000005
 68
1
 69
1
 12
105.0
 22
148.5
 13
0.0
 23
0.0
 14
10.0
 24
10.0
 15
10.0
 25
10.0
 16
0.0
 26
0.0
 36
0.0
 17
0.0
 27
0.0
 37
0.0
 42
50.0
 43
0.0
 44
0.0
 45
326.70000000000005
 50
0.0
 51
0.0
 72
100
 90
557088
  1

281
0
 71
0
 74
0
110
0.0
120
0.0
130
0.0
111
1.0
121
0.0
131
0.0
112
0.0
122
1.0
132
0.0
 79
0
146
0.0
  0
VIEWPORT
  5
4DF
330
4DA
100
AcDbEntity
 67
1
  8
VIEWPORTS
100
AcDbViewport
 10
105.0
 20
148.5
 30
0.0
 40
210.0
 41
297.0
 68
1
 69
103
 12
1995.0
 22
-1336.5
 13
0.0
 23
0.0
 14
10.0
 24
10.0
 15
10.0
 25
10.0
 16
0.0
 26
0.0
 36
0.0
 17
0.0
 27
0.0
 37
0.0
 42
50.0
 43
0.0
 44
0.0
 45
297.0
 50
0.0
 51
0.0
 72
100
 90
0
  1

281
0
 71
0
 74
0
110
0.0
120
0.0
130
0.0
111
1.0
121
0.0
131
0.0
112
0.0
122
1.0
132
0.0
 79
0
146
0.0
  0
ENDBLK
  5
4DC
330
4DA
100
AcDbEntity
  8
0
100
AcDbBlockEnd
  0
BLOCK
  5
4E1
330
4E0
100
AcDbEntity
  8
0
100
AcDbBlockBegin
  2
*Paper_Space50
 70
0
 10
0.0
 20
0.0
 30
0.0
  3
*Paper_Space50
  1

  0
VIEWPORT
  5
4E4
330
4E0
100
AcDbEntity
 67
1
  8
VIEWPORTS
100
AcDbViewport
 10
105.0
 20
148.5
 30
0.0
 40
231.00000000000003
 41
326.70000000000005
 68
1
 69
1
 12
105.0
 22
148.5
 13
0.0
 23
0.0
 14
10.0
 24
10.0
 15
10.0
 25
10.0
 16
0.0
 26
0.0
 36
0.0
 17
0.0
 27
0.0
 37
0.0
 42
50.0
 43
0.0
 44
0.0
 45
326.70000000000005
 50
0.0
 51
0.0
 72
100
 90
557088
  1

281
0
 71
0
 74
0
110
0.0
120
0.0
130
0.0
111
1.0
121
0.0
131
0.0
112
0.0
122
1.0
132
0.0
 79
0
146
0.0
  0
VIEWPORT
  5
4E5
330
4E0
100
AcDbEntity
 67
1
  8
VIEWPORTS
100
AcDbViewport
 10
105.0
 20
148.5
 30
0.0
 40
210.0
 41
297.0
 68
1
 69
105
 12
105.0
 22
-1633.5
 13
0.0
 23
0.0
 14
10.0
 24
10.0
 15
10.0
 25
10.0
 16
0.0
 26
0.0
 36
0.0
 17
0.0
 27
0.0
 37
0.0
 42
50.0
 43
0.0
 44
0.0
 45
297.0
 50
0.0
 51
0.0
 72
100
 90
0
  1

281
0
 71
0
 74
0
110
0.0
120
0.0
130
0.0
111
1.0
121
0.0
131
0.0
112
0.0
122
1.0
132
0.0
 79
0
146
0.0
  0
ENDBLK
  5
4E2
330
4E0
100
AcDbEntity
  8
0
100
AcDbBlockEnd
  0
BLOCK
  5
4E7
330
4E6
100
AcDbEntity
  8
0
100
AcDbBlockBegin
  2
*Paper_Space51
 70
0
 10
0.0
 20
0.0
 30
0.0
  3
*Paper_Space51
  1

  0
VIEWPORT
  5
4EA
330
4E6
100
AcDbEntity
 67
1
  8
VIEWPORTS
100
AcDbViewport
 10
105.0
 20
148.5
 30
0.0
 40
231.00000000000003
 41
326.70000000000005
 68
1
 69
1
 12
105.0
 22
148.5
 13
0.0
 23
0.0
 14
10.0
 24
10.0
 15
10.0
 25
10.0
 16
0.0
 26
0.0
 36
0.0
 17
0.0
 27
0.0
 37
0.0
 42
50.0
 43
0.0
 44
0.0
 45
326.70000000000005
 50
0.0
 51
0.0
 72
100
 90
557088
  1

281
0
 71
0
 74
0
110
0.0
120
0.0
130
0.0
111
1.0
121
0.0
131
0.0
112
0.0
122
1.0
132
0.0
 79
0
146
0.0
  0
VIEWPORT
  5
4EB
330
4E6
100
AcDbEntity
 67
1
  8
VIEWPORTS
100
AcDbViewport
 10
105.0
 20
148.5
 30
0.0
 40
210.0
 41
297.0
 68
1
 69
107
 12
315.0
 22
-1633.5
 13
0.0
 23
0.0
 14
10.0
 24
10.0
 15
10.0
 25
10.0
 16
0.0
 26
0.0
 36
0.0
 17
0.0
 27
0.0
 37
0.0
 42
50.0
 43
0.0
 44
0.0
 45
297.0
 50
0.0
 51
0.0
 72
100
 90
0
  1

281
0
 71
0
 74
0
110
0.0
120
0.0
130
0.0
111
1.0
121
0.0
131
0.0
112
0.0
122
1.0
132
0.0
 79
0
146
0.0
  0
ENDBLK
  5
4E8
330
4E6
100
AcDbEntity
  8
0
100
AcDbBlockEnd
  0
BLOCK
  5
4ED
330
4EC
100
AcDbEntity
  8
0
100
AcDbBlockBegin
  2
*Paper_Space52
 70
0
 10
0.0
 20
0.0
 30
0.0
  3
*Paper_Space52
  1

  0
VIEWPORT
  5
4F0
330
4EC
100
AcDbEntity
 67
1
  8
VIEWPORTS
100
AcDbViewport
 10
105.0
 20
148.5
 30
0.0
 40
231.00000000000003
 41
326.70000000000005
 68
1
 69
1
 12
105.0
 22
148.5
 13
0.0
 23
0.0
 14
10.0
 24
10.0
 15
10.0
 25
10.0
 16
0.0
 26
0.0
 36
0.0
 17
0.0
 27
0.0
 37
0.0
 42
50.0
 43
0.0
 44
0.0
 45
326.70000000000005
 50
0.0
 51
0.0
 72
100
 90
557088
  1

281
0
 71
0
 74
0
110
0.0
120
0.0
130
0.0
111
1.0
121
0.0
131
0.0
112
0.0
122
1.0
132
0.0
 79
0
146
0.0
  0
VIEWPORT
  5
4F1
330
4EC
100
AcDbEntity
 67
1
  8
VIEWPORTS
100
AcDbViewport
 10
105.0
 20
148.5
 30
0.0
 40
210.0
 41
297.0
 68
1
 69
109
 12
525.0
 22
-1633.5
 13
0.0
 23
0.0
 14
10.0
 24
10.0
 15
10.0
 25
10.0
 16
0.0
 26
0.0
 36
0.0
 17
0.0
 27
0.0
 37
0.0
 42
50.0
 43
0.0
 44
0.0
 45
297.0
 50
0.0
 51
0.0
 72
100
 90
0
  1

281
0
 71
0
 74
0
110
0.0
120
0.0
130
0.0
111
1.0
121
0.0
131
0.0
112
0.0
122
1.0
132
0.0
 79
0
146
0.0
  0
ENDBLK
  5
4EE
330
4EC
100
AcDbEntity
  8
0
100
AcDbBlockEnd
  0
BLOCK
  5
4F3
330
4F2
100
AcDbEntity
  8
0
100
AcDbBlockBegin
  2
*Paper_Space53
 70
0
 10
0.0
 20
0.0
 30
0.0
  3
*Paper_Space53
  1

  0
VIEWPORT
  5
4F6
330
4F2
100
AcDbEntity
 67
1
  8
VIEWPORTS
100
AcDbViewport
 10
105.0
 20
148.5
 30
0.0
 40
231.00000000000003
 41
326.70000000000005
 68
1
 69
1
 12
105.0
 22
148.5
 13
0.0
 23
0.0
 14
10.0
 24
10.0
 15
10.0
 25
10.0
 16
0.0
 26
0.0
 36
0.0
 17
0.0
 27
0.0
 37
0.0
 42
50.0
 43
0.0
 44
0.0
 45
326.70000000000005
 50
0.0
 51
0.0
 72
100
 90
557088
  1

281
0
 71
0
 74
0
110
0.0
120
0.0
130
0.0
111
1.0
121
0.0
131
0.0
112
0.0
122
1.0
132
0.0
 79
0
146
0.0
  0
VIEWPORT
  5
4F7
330
4F2
100
AcDbEntity
 67
1
  8
VIEWPORTS
100
AcDbViewport
 10
105.0
 20
148.5
 30
0.0
 40
210.0
 41
297.0
 68
1
 69
111
 12
735.0
 22
-1633.5
 13
0.0
 23
0.0
 14
10.0
 24
10.0
 15
10.0
 25
10.0
 16
0.0
 26
0.0
 36
0.0
 17
0.0
 27
0.0
 37
0.0
 42
50.0
 43
0.0
 44
0.0
 45
297.0
 50
0.0
 51
0.0
 72
100
 90
0
  1

281
0
 71
0
 74
0
110
0.0
120
0.0
130
0.0
111
1.0
121
0.0
131
0.0
112
0.0
122
1.0
132
0.0
 79
0
146
0.0
  0
ENDBLK
  5
4F4
330
4F2
100
AcDbEntity
  8
0
100
AcDbBlockEnd
  0
BLOCK
  5
4F9
330
4F8
100
AcDbEntity
  8
0
100
AcDbBlockBegin
  2
*Paper_Space54
 70
0
 10
0.0
 20
0.0
 30
0.0
  3
*Paper_Space54
  1

  0
VIEWPORT
  5
4FC
330
4F8
100
AcDbEntity
 67
1
  8
VIEWPORTS
100
AcDbViewport
 10
105.0
 20
148.5
 30
0.0
 40
231.00000000000003
 41
326.70000000000005
 68
1
 69
1
 12
105.0
 22
148.5
 13
0.0
 23
0.0
 14
10.0
 24
10.0
 15
10.0
 25
10.0
 16
0.0
 26
0.0
 36
0.0
 17
0.0
 27
0.0
 37
0.0
 42
50.0
 43
0.0
 44
0.0
 45
326.70000000000005
 50
0.0
 51
0.0
 72
100
 90
557088
  1

281
0
 71
0
 74
0
110
0.0
120
0.0
130
0.0
111
1.0
121
0.0
131
0.0
112
0.0
122
1.0
132
0.0
 79
0
146
0.0
  0
VIEWPORT
  5
4FD
330
4F8
100
AcDbEntity
 67
1
  8
VIEWPORTS
100
AcDbViewport
 10
105.0
 20
148.5
 30
0.0
 40
210.0
 41
297.0
 68
1
 69
113
 12
945.0
 22
-1633.5
 13
0.0
 23
0.0
 14
10.0
 24
10.0
 15
10.0
 25
10.0
 16
0.0
 26
0.0
 36
0.0
 17
0.0
 27
0.0
 37
0.0
 42
50.0
 43
0.0
 44
0.0
 45
297.0
 50
0.0
 51
0.0
 72
100
 90
0
  1

281
0
 71
0
 74
0
110
0.0
120
0.0
130
0.0
111
1.0
121
0.0
131
0.0
112
0.0
122
1.0
132
0.0
 79
0
146
0.0
  0
ENDBLK
  5
4FA
330
4F8
100
AcDbEntity
  8
0
100
AcDbBlockEnd
  0
BLOCK
  5
4FF
330
4FE
100
AcDbEntity
  8
0
100
AcDbBlockBegin
  2
*Paper_Space55
 70
0
 10
0.0
 20
0.0
 30
0.0
  3
*Paper_Space55
  1

  0
VIEWPORT
  5
502
330
4FE
100
AcDbEntity
 67
1
  8
VIEWPORTS
100
AcDbViewport
 10
105.0
 20
148.5
 30
0.0
 40
231.00000000000003
 41
326.70000000000005
 68
1
 69
1
 12
105.0
 22
148.5
 13
0.0
 23
0.0
 14
10.0
 24
10.0
 15
10.0
 25
10.0
 16
0.0
 26
0.0
 36
0.0
 17
0.0
 27
0.0
 37
0.0
 42
50.0
 43
0.0
 44
0.0
 45
326.70000000000005
 50
0.0
 51
0.0
 72
100
 90
557088
  1

281
0
 71
0
 74
0
110
0.0
120
0.0
130
0.0
111
1.0
121
0.0
131
0.0
112
0.0
122
1.0
132
0.0
 79
0
146
0.0
  0
VIEWPORT
  5
503
330
4FE
100
AcDbEntity
 67
1
  8
VIEWPORTS
100
AcDbViewport
 10
105.0
 20
148.5
 30
0.0
 40
210.0
 41
297.0
 68
1
 69
115
 12
1155.0
 22
-1633.5
 13
0.0
 23
0.0
 14
10.0
 24
10.0
 15
10.0
 25
10.0
 16
0.0
 26
0.0
 36
0.0
 17
0.0
 27
0.0
 37
0.0
 42
50.0
 43
0.0
 44
0.0
 45
297.0
 50
0.0
 51
0.0
 72
100
 90
0
  1

281
0
 71
0
 74
0
110
0.0
120
0.0
130
0.0
111
1.0
121
0.0
131
0.0
112
0.0
122
1.0
132
0.0
 79
0
146
0.0
  0
ENDBLK
  5
500
330
4FE
100
AcDbEntity
  8
0
100
AcDbBlockEnd
  0
BLOCK
  5
505
330
504
100
AcDbEntity
  8
0
100
AcDbBlockBegin
  2
*Paper_Space56
 70
0
 10
0.0
 20
0.0
 30
0.0
  3
*Paper_Space56
  1

  0
VIEWPORT
  5
508
330
504
100
AcDbEntity
 67
1
  8
VIEWPORTS
100
AcDbViewport
 10
105.0
 20
148.5
 30
0.0
 40
231.00000000000003
 41
326.70000000000005
 68
1
 69
1
 12
105.0
 22
148.5
 13
0.0
 23
0.0
 14
10.0
 24
10.0
 15
10.0
 25
10.0
 16
0.0
 26
0.0
 36
0.0
 17
0.0
 27
0.0
 37
0.0
 42
50.0
 43
0.0
 44
0.0
 45
326.70000000000005
 50
0.0
 51
0.0
 72
100
 90
557088
  1

281
0
 71
0
 74
0
110
0.0
120
0.0
130
0.0
111
1.0
121
0.0
131
0.0
112
0.0
122
1.0
132
0.0
 79
0
146
0.0
  0
VIEWPORT
  5
509
330
504
100
AcDbEntity
 67
1
  8
VIEWPORTS
100
AcDbViewport
 10
105.0
 20
148.5
 30
0.0
 40
210.0
 41
297.0
 68
1
 69
117
 12
1365.0
 22
-1633.5
 13
0.0
 23
0.0
 14
10.0
 24
10.0
 15
10.0
 25
10.0
 16
0.0
 26
0.0
 36
0.0
 17
0.0
 27
0.0
 37
0.0
 42
50.0
 43
0.0
 44
0.0
 45
297.0
 50
0.0
 51
0.0
 72
100
 90
0
  1

281
0
 71
0
 74
0
110
0.0
120
0.0
130
0.0
111
1.0
121
0.0
131
0.0
112
0.0
122
1.0
132
0.0
 79
0
146
0.0
  0
ENDBLK
  5
506
330
504
100
AcDbEntity
  8
0
100
AcDbBlockEnd
  0
BLOCK
  5
50B
330
50A
100
AcDbEntity
  8
0
100
AcDbBlockBegin
  2
*Paper_Space57
 70
0
 10
0.0
 20
0.0
 30
0.0
  3
*Paper_Space57
  1

  0
VIEWPORT
  5
50E
330
50A
100
AcDbEntity
 67
1
  8
VIEWPORTS
100
AcDbViewport
 10
105.0
 20
148.5
 30
0.0
 40
231.00000000000003
 41
326.70000000000005
 68
1
 69
1
 12
105.0
 22
148.5
 13
0.0
 23
0.0
 14
10.0
 24
10.0
 15
10.0
 25
10.0
 16
0.0
 26
0.0
 36
0.0
 17
0.0
 27
0.0
 37
0.0
 42
50.0
 43
0.0
 44
0.0
 45
326.70000000000005
 50
0.0
 51
0.0
 72
100
 90
557088
  1

281
0
 71
0
 74
0
110
0.0
120
0.0
130
0.0
111
1.0
121
0.0
131
0.0
112
0.0
122
1.0
132
0.0
 79
0
146
0.0
  0
VIEWPORT
  5
50F
330
50A
100
AcDbEntity
 67
1
  8
VIEWPORTS
100
AcDbViewport
 10
105.0
 20
148.5
 30
0.0
 40
210.0
 41
297.0
 68
1
 69
119
 12
1575.0
 22
-1633.5
 13
0.0
 23
0.0
 14
10.0
 24
10.0
 15
10.0
 25
10.0
 16
0.0
 26
0.0
 36
0.0
 17
0.0
 27
0.0
 37
0.0
 42
50.0
 43
0.0
 44
0.0
 45
297.0
 50
0.0
 51
0.0
 72
100
 90
0
  1

281
0
 71
0
 74
0
110
0.0
120
0.0
130
0.0
111
1.0
121
0.0
131
0.0
112
0.0
122
1.0
132
0.0
 79
0
146
0.0
  0
ENDBLK
  5
50C
330
50A
100
AcDbEntity
  8
0
100
AcDbBlockEnd
  0
BLOCK
  5
511
330
510
100
AcDbEntity
  8
0
100
AcDbBlockBegin
  2
*Paper_Space58
 70
0
 10
0.0
 20
0.0
 30
0.0
  3
*Paper_Space58
  1

  0
VIEWPORT
  5
514
330
510
100
AcDbEntity
 67
1
  8
VIEWPORTS
100
AcDbViewport
 10
105.0
 20
148.5
 30
0.0
 40
231.00000000000003
 41
326.70000000000005
 68
1
 69
1
 12
105.0
 22
148.5
 13
0.0
 23
0.0
 14
10.0
 24
10.0
 15
10.0
 25
10.0
 16
0.0
 26
0.0
 36
0.0
 17
0.0
 27
0.0
 37
0.0
 42
50.0
 43
0.0
 44
0.0
 45
326.70000000000005
 50
0.0
 51
0.0
 72
100
 90
557088
  1

281
0
 71
0
 74
0
110
0.0
120
0.0
130
0.0
111
1.0
121
0.0
131
0.0
112
0.0
122
1.0
132
0.0
 79
0
146
0.0
  0
VIEWPORT
  5
515
330
510
100
AcDbEntity
 67
1
  8
VIEWPORTS
100
AcDbViewport
 10
105.0
 20
148.5
 30
0.0
 40
210.0
 41
297.0
 68
1
 69
121
 12
1785.0
 22
-1633.5
 13
0.0
 23
0.0
 14
10.0
 24
10.0
 15
10.0
 25
10.0
 16
0.0
 26
0.0
 36
0.0
 17
0.0
 27
0.0
 37
0.0
 42
50.0
 43
0.0
 44
0.0
 45
297.0
 50
0.0
 51
0.0
 72
100
 90
0
  1

281
0
 71
0
 74
0
110
0.0
120
0.0
130
0.0
111
1.0
121
0.0
131
0.0
112
0.0
122
1.0
132
0.0
 79
0
146
0.0
  0
ENDBLK
  5
512
330
510
100
AcDbEntity
  8
0
100
AcDbBlockEnd
  0
BLOCK
  5
517
330
516
100
AcDbEntity
  8
0
100
AcDbBlockBegin
  2
*Paper_Space59
 70
0
 10
0.0
 20
0.0
 30
0.0
  3
*Paper_Space59
  1

  0
VIEWPORT
  5
51A
330
516
100
AcDbEntity
 67
1
  8
VIEWPORTS
100
AcDbViewport
 10
105.0
 20
148.5
 30
0.0
 40
231.00000000000003
 41
326.70000000000005
 68
1
 69
1
 12
105.0
 22
148.5
 13
0.0
 23
0.0
 14
10.0
 24
10.0
 15
10.0
 25
10.0
 16
0.0
 26
0.0
 36
0.0
 17
0.0
 27
0.0
 37
0.0
 42
50.0
 43
0.0
 44
0.0
 45
326.70000000000005
 50
0.0
 51
0.0
 72
100
 90
557088
  1

281
0
 71
0
 74
0
110
0.0
120
0.0
130
0.0
111
1.0
121
0.0
131
0.0
112
0.0
122
1.0
132
0.0
 79
0
146
0.0
  0
VIEWPORT
  5
51B
330
516
100
AcDbEntity
 67
1
  8
VIEWPORTS
100
AcDbViewport
 10
105.0
 20
148.5
 30
0.0
 40
210.0
 41
297.0
 68
1
 69
123
 12
1995.0
 22
-1633.5
 13
0.0
 23
0.0
 14
10.0
 24
10.0
 15
10.0
 25
10.0
 16
0.0
 26
0.0
 36
0.0
 17
0.0
 27
0.0
 37
0.0
 42
50.0
 43
0.0
 44
0.0
 45
297.0
 50
0.0
 51
0.0
 72
100
 90
0
  1

281
0
 71
0
 74
0
110
0.0
120
0.0
130
0.0
111
1.0
121
0.0
131
0.0
112
0.0
122
1.0
132
0.0
 79
0
146
0.0
  0
ENDBLK
  5
518
330
516
100
AcDbEntity
  8
0
100
AcDbBlockEnd
  0
BLOCK
  5
51D
330
51C
100
AcDbEntity
  8
0
100
AcDbBlockBegin
  2
*Paper_Space60
 70
0
 10
0.0
 20
0.0
 30
0.0
  3
*Paper_Space60
  1

  0
VIEWPORT
  5
520
330
51C
100
AcDbEntity
 67
1
  8
VIEWPORTS
100
AcDbViewport
 10
105.0
 20
148.5
 30
0.0
 40
231.00000000000003
 41
326.70000000000005
 68
1
 69
1
 12
105.0
 22
148.5
 13
0.0
 23
0.0
 14
10.0
 24
10.0
 15
10.0
 25
10.0
 16
0.0
 26
0.0
 36
0.0
 17
0.0
 27
0.0
 37
0.0
 42
50.0
 43
0.0
 44
0.0
 45
326.70000000000005
 50
0.0
 51
0.0
 72
100
 90
557088
  1

281
0
 71
0
 74
0
110
0.0
120
0.0
130
0.0
111
1.0
121
0.0
131
0.0
112
0.0
122
1.0
132
0.0
 79
0
146
0.0
  0
VIEWPORT
  5
521
330
51C
100
AcDbEntity
 67
1
  8
VIEWPORTS
100
AcDbViewport
 10
105.0
 20
148.5
 30
0.0
 40
210.0
 41
297.0
 68
1
 69
125
 12
105.0
 22
-1930.5
 13
0.0
 23
0.0
 14
10.0
 24
10.0
 15
10.0
 25
10.0
 16
0.0
 26
0.0
 36
0.0
 17
0.0
 27
0.0
 37
0.0
 42
50.0
 43
0.0
 44
0.0
 45
297.0
 50
0.0
 51
0.0
 72
100
 90
0
  1

281
0
 71
0
 74
0
110
0.0
120
0.0
130
0.0
111
1.0
121
0.0
131
0.0
112
0.0
122
1.0
132
0.0
 79
0
146
0.0
  0
ENDBLK
  5
51E
330
51C
100
AcDbEntity
  8
0
100
AcDbBlockEnd
  0
BLOCK
  5
523
330
522
100
AcDbEntity
  8
0
100
AcDbBlockBegin
  2
*Paper_Space61
 70
0
 10
0.0
 20
0.0
 30
0.0
  3
*Paper_Space61
  1

  0
VIEWPORT
  5
526
330
522
100
AcDbEntity
 67
1
  8
VIEWPORTS
100
AcDbViewport
 10
105.0
 20
148.5
 30
0.0
 40
231.00000000000003
 41
326.70000000000005
 68
1
 69
1
 12
105.0
 22
148.5
 13
0.0
 23
0.0
 14
10.0
 24
10.0
 15
10.0
 25
10.0
 16
0.0
 26
0.0
 36
0.0
 17
0.0
 27
0.0
 37
0.0
 42
50.0
 43
0.0
 44
0.0
 45
326.70000000000005
 50
0.0
 51
0.0
 72
100
 90
557088
  1

281
0
 71
0
 74
0
110
0.0
120
0.0
130
0.0
111
1.0
121
0.0
131
0.0
112
0.0
122
1.0
132
0.0
 79
0
146
0.0
  0
VIEWPORT
  5
527
330
522
100
AcDbEntity
 67
1
  8
VIEWPORTS
100
AcDbViewport
 10
105.0
 20
148.5
 30
0.0
 40
210.0
 41
297.0
 68
1
 69
127
 12
315.0
 22
-1930.5
 13
0.0
 23
0.0
 14
10.0
 24
10.0
 15
10.0
 25
10.0
 16
0.0
 26
0.0
 36
0.0
 17
0.0
 27
0.0
 37
0.0
 42
50.0
 43
0.0
 44
0.0
 45
297.0
 50
0.0
 51
0.0
 72
100
 90
0
  1

281
0
 71
0
 74
0
110
0.0
120
0.0
130
0.0
111
1.0
121
0.0
131
0.0
112
0.0
122
1.0
132
0.0
 79
0
146
0.0
  0
ENDBLK
  5
524
330
522
100
AcDbEntity
  8
0
100
AcDbBlockEnd
  0
BLOCK
  5
529
330
528
100
AcDbEntity
  8
0
100
AcDbBlockBegin
  2
*Paper_Space62
 70
0
 10
0.0
 20
0.0
 30
0.0
  3
*Paper_Space62
  1

  0
VIEWPORT
  5
52C
330
528
100
AcDbEntity
 67
1
  8
VIEWPORTS
100
AcDbViewport
 10
105.0
 20
148.5
 30
0.0
 40
231.00000000000003
 41
326.70000000000005
 68
1
 69
1
 12
105.0
 22
148.5
 13
0.0
 23
0.0
 14
10.0
 24
10.0
 15
10.0
 25
10.0
 16
0.0
 26
0.0
 36
0.0
 17
0.0
 27
0.0
 37
0.0
 42
50.0
 43
0.0
 44
0.0
 45
326.70000000000005
 50
0.0
 51
0.0
 72
100
 90
557088
  1

281
0
 71
0
 74
0
110
0.0
120
0.0
130
0.0
111
1.0
121
0.0
131
0.0
112
0.0
122
1.0
132
0.0
 79
0
146
0.0
  0
VIEWPORT
  5
52D
330
528
100
AcDbEntity
 67
1
  8
VIEWPORTS
100
AcDbViewport
 10
105.0
 20
148.5
 30
0.0
 40
210.0
 41
297.0
 68
1
 69
129
 12
525.0
 22
-1930.5
 13
0.0
 23
0.0
 14
10.0
 24
10.0
 15
10.0
 25
10.0
 16
0.0
 26
0.0
 36
0.0
 17
0.0
 27
0.0
 37
0.0
 42
50.0
 43
0.0
 44
0.0
 45
297.0
 50
0.0
 51
0.0
 72
100
 90
0
  1

281
0
 71
0
 74
0
110
0.0
120
0.0
130
0.0
111
1.0
121
0.0
131
0.0
112
0.0
122
1.0
132
0.0
 79
0
146
0.0
  0
ENDBLK
  5
52A
330
528
100
AcDbEntity
  8
0
100
AcDbBlockEnd
  0
BLOCK
  5
52F
330
52E
100
AcDbEntity
  8
0
100
AcDbBlockBegin
  2
*Paper_Space63
 70
0
 10
0.0
 20
0.0
 30
0.0
  3
*Paper_Space63
  1

  0
VIEWPORT
  5
532
330
52E
100
AcDbEntity
 67
1
  8
VIEWPORTS
100
AcDbViewport
 10
105.0
 20
148.5
 30
0.0
 40
231.00000000000003
 41
326.70000000000005
 68
1
 69
1
 12
105.0
 22
148.5
 13
0.0
 23
0.0
 14
10.0
 24
10.0
 15
10.0
 25
10.0
 16
0.0
 26
0.0
 36
0.0
 17
0.0
 27
0.0
 37
0.0
 42
50.0
 43
0.0
 44
0.0
 45
326.70000000000005
 50
0.0
 51
0.0
 72
100
 90
557088
  1

281
0
 71
0
 74
0
110
0.0
120
0.0
130
0.0
111
1.0
121
0.0
131
0.0
112
0.0
122
1.0
132
0.0
 79
0
146
0.0
  0
VIEWPORT
  5
533
330
52E
100
AcDbEntity
 67
1
  8
VIEWPORTS
100
AcDbViewport
 10
105.0
 20
148.5
 30
0.0
 40
210.0
 41
297.0
 68
1
 69
131
 12
735.0
 22
-1930.5
 13
0.0
 23
0.0
 14
10.0
 24
10.0
 15
10.0
 25
10.0
 16
0.0
 26
0.0
 36
0.0
 17
0.0
 27
0.0
 37
0.0
 42
50.0
 43
0.0
 44
0.0
 45
297.0
 50
0.0
 51
0.0
 72
100
 90
0
  1

281
0
 71
0
 74
0
110
0.0
120
0.0
130
0.0
111
1.0
121
0.0
131
0.0
112
0.0
122
1.0
132
0.0
 79
0
146
0.0
  0
ENDBLK
  5
530
330
52E
100
AcDbEntity
  8
0
100
AcDbBlockEnd
  0
BLOCK
  5
535
330
534
100
AcDbEntity
  8
0
100
AcDbBlockBegin
  2
*Paper_Space64
 70
0
 10
0.0
 20
0.0
 30
0.0
  3
*Paper_Space64
  1

  0
VIEWPORT
  5
538
330
534
100
AcDbEntity
 67
1
  8
VIEWPORTS
100
AcDbViewport
 10
105.0
 20
148.5
 30
0.0
 40
231.00000000000003
 41
326.70000000000005
 68
1
 69
1
 12
105.0
 22
148.5
 13
0.0
 23
0.0
 14
10.0
 24
10.0
 15
10.0
 25
10.0
 16
0.0
 26
0.0
 36
0.0
 17
0.0
 27
0.0
 37
0.0
 42
50.0
 43
0.0
 44
0.0
 45
326.70000000000005
 50
0.0
 51
0.0
 72
100
 90
557088
  1

281
0
 71
0
 74
0
110
0.0
120
0.0
130
0.0
111
1.0
121
0.0
131
0.0
112
0.0
122
1.0
132
0.0
 79
0
146
0.0
  0
VIEWPORT
  5
539
330
534
100
AcDbEntity
 67
1
  8
VIEWPORTS
100
AcDbViewport
 10
105.0
 20
148.5
 30
0.0
 40
210.0
 41
297.0
 68
1
 69
133
 12
945.0
 22
-1930.5
 13
0.0
 23
0.0
 14
10.0
 24
10.0
 15
10.0
 25
10.0
 16
0.0
 26
0.0
 36
0.0
 17
0.0
 27
0.0
 37
0.0
 42
50.0
 43
0.0
 44
0.0
 45
297.0
 50
0.0
 51
0.0
 72
100
 90
0
  1

281
0
 71
0
 74
0
110
0.0
120
0.0
130
0.0
111
1.0
121
0.0
131
0.0
112
0.0
122
1.0
132
0.0
 79
0
146
0.0
  0
ENDBLK
  5
536
330
534
100
AcDbEntity
  8
0
100
AcDbBlockEnd
  0
BLOCK
  5
53B
330
53A
100
AcDbEntity
  8
0
100
AcDbBlockBegin
  2
*Paper_Space65
 70
0
 10
0.0
 20
0.0
 30
0.0
  3
*Paper_Space65
  1

  0
VIEWPORT
  5
53E
330
53A
100
AcDbEntity
 67
1
  8
VIEWPORTS
100
AcDbViewport
 10
105.0
 20
148.5
 30
0.0
 40
231.00000000000003
 41
326.70000000000005
 68
1
 69
1
 12
105.0
 22
148.5
 13
0.0
 23
0.0
 14
10.0
 24
10.0
 15
10.0
 25
10.0
 16
0.0
 26
0.0
 36
0.0
 17
0.0
 27
0.0
 37
0.0
 42
50.0
 43
0.0
 44
0.0
 45
326.70000000000005
 50
0.0
 51
0.0
 72
100
 90
557088
  1

281
0
 71
0
 74
0
110
0.0
120
0.0
130
0.0
111
1.0
121
0.0
131
0.0
112
0.0
122
1.0
132
0.0
 79
0
146
0.0
  0
VIEWPORT
  5
53F
330
53A
100
AcDbEntity
 67
1
  8
VIEWPORTS
100
AcDbViewport
 10
105.0
 20
148.5
 30
0.0
 40
210.0
 41
297.0
 68
1
 69
135
 12
1155.0
 22
-1930.5
 13
0.0
 23
0.0
 14
10.0
 24
10.0
 15
10.0
 25
10.0
 16
0.0
 26
0.0
 36
0.0
 17
0.0
 27
0.0
 37
0.0
 42
50.0
 43
0.0
 44
0.0
 45
297.0
 50
0.0
 51
0.0
 72
100
 90
0
  1

281
0
 71
0
 74
0
110
0.0
120
0.0
130
0.0
111
1.0
121
0.0
131
0.0
112
0.0
122
1.0
132
0.0
 79
0
146
0.0
  0
ENDBLK
  5
53C
330
53A
100
AcDbEntity
  8
0
100
AcDbBlockEnd
  0
BLOCK
  5
541
330
540
100
AcDbEntity
  8
0
100
AcDbBlockBegin
  2
*Paper_Space66
 70
0
 10
0.0
 20
0.0
 30
0.0
  3
*Paper_Space66
  1

  0
VIEWPORT
  5
544
330
540
100
AcDbEntity
 67
1
  8
VIEWPORTS
100
AcDbViewport
 10
105.0
 20
148.5
 30
0.0
 40
231.00000000000003
 41
326.70000000000005
 68
1
 69
1
 12
105.0
 22
148.5
 13
0.0
 23
0.0
 14
10.0
 24
10.0
 15
10.0
 25
10.0
 16
0.0
 26
0.0
 36
0.0
 17
0.0
 27
0.0
 37
0.0
 42
50.0
 43
0.0
 44
0.0
 45
326.70000000000005
 50
0.0
 51
0.0
 72
100
 90
557088
  1

281
0
 71
0
 74
0
110
0.0
120
0.0
130
0.0
111
1.0
121
0.0
131
0.0
112
0.0
122
1.0
132
0.0
 79
0
146
0.0
  0
VIEWPORT
  5
545
330
540
100
AcDbEntity
 67
1
  8
VIEWPORTS
100
AcDbViewport
 10
105.0
 20
148.5
 30
0.0
 40
210.0
 41
297.0
 68
1
 69
137
 12
1365.0
 22
-1930.5
 13
0.0
 23
0.0
 14
10.0
 24
10.0
 15
10.0
 25
10.0
 16
0.0
 26
0.0
 36
0.0
 17
0.0
 27
0.0
 37
0.0
 42
50.0
 43
0.0
 44
0.0
 45
297.0
 50
0.0
 51
0.0
 72
100
 90
0
  1

281
0
 71
0
 74
0
110
0.0
120
0.0
130
0.0
111
1.0
121
0.0
131
0.0
112
0.0
122
1.0
132
0.0
 79
0
146
0.0
  0
ENDBLK
  5
542
330
540
100
AcDbEntity
  8
0
100
AcDbBlockEnd
  0
BLOCK
  5
547
330
546
100
AcDbEntity
  8
0
100
AcDbBlockBegin
  2
*Paper_Space67
 70
0
 10
0.0
 20
0.0
 30
0.0
  3
*Paper_Space67
  1

  0
VIEWPORT
  5
54A
330
546
100
AcDbEntity
 67
1
  8
VIEWPORTS
100
AcDbViewport
 10
105.0
 20
148.5
 30
0.0
 40
231.00000000000003
 41
326.70000000000005
 68
1
 69
1
 12
105.0
 22
148.5
 13
0.0
 23
0.0
 14
10.0
 24
10.0
 15
10.0
 25
10.0
 16
0.0
 26
0.0
 36
0.0
 17
0.0
 27
0.0
 37
0.0
 42
50.0
 43
0.0
 44
0.0
 45
326.70000000000005
 50
0.0
 51
0.0
 72
100
 90
557088
  1

281
0
 71
0
 74
0
110
0.0
120
0.0
130
0.0
111
1.0
121
0.0
131
0.0
112
0.0
122
1.0
132
0.0
 79
0
146
0.0
  0
VIEWPORT
  5
54B
330
546
100
AcDbEntity
 67
1
  8
VIEWPORTS
100
AcDbViewport
 10
105.0
 20
148.5
 30
0.0
 40
210.0
 41
297.0
 68
1
 69
139
 12
1575.0
 22
-1930.5
 13
0.0
 23
0.0
 14
10.0
 24
10.0
 15
10.0
 25
10.0
 16
0.0
 26
0.0
 36
0.0
 17
0.0
 27
0.0
 37
0.0
 42
50.0
 43
0.0
 44
0.0
 45
297.0
 50
0.0
 51
0.0
 72
100
 90
0
  1

281
0
 71
0
 74
0
110
0.0
120
0.0
130
0.0
111
1.0
121
0.0
131
0.0
112
0.0
122
1.0
132
0.0
 79
0
146
0.0
  0
ENDBLK
  5
548
330
546
100
AcDbEntity
  8
0
100
AcDbBlockEnd
  0
BLOCK
  5
54D
330
54C
100
AcDbEntity
  8
0
100
AcDbBlockBegin
  2
*Paper_Space68
 70
0
 10
0.0
 20
0.0
 30
0.0
  3
*Paper_Space68
  1

  0
VIEWPORT
  5
550
330
54C
100
AcDbEntity
 67
1
  8
VIEWPORTS
100
AcDbViewport
 10
105.0
 20
148.5
 30
0.0
 40
231.00000000000003
 41
326.70000000000005
 68
1
 69
1
 12
105.0
 22
148.5
 13
0.0
 23
0.0
 14
10.0
 24
10.0
 15
10.0
 25
10.0
 16
0.0
 26
0.0
 36
0.0
 17
0.0
 27
0.0
 37
0.0
 42
50.0
 43
0.0
 44
0.0
 45
326.70000000000005
 50
0.0
 51
0.0
 72
100
 90
557088
  1

281
0
 71
0
 74
0
110
0.0
120
0.0
130
0.0
111
1.0
121
0.0
131
0.0
112
0.0
122
1.0
132
0.0
 79
0
146
0.0
  0
VIEWPORT
  5
551
330
54C
100
AcDbEntity
 67
1
  8
VIEWPORTS
100
AcDbViewport
 10
105.0
 20
148.5
 30
0.0
 40
210.0
 41
297.0
 68
1
 69
141
 12
1785.0
 22
-1930.5
 13
0.0
 23
0.0
 14
10.0
 24
10.0
 15
10.0
 25
10.0
 16
0.0
 26
0.0
 36
0.0
 17
0.0
 27
0.0
 37
0.0
 42
50.0
 43
0.0
 44
0.0
 45
297.0
 50
0.0
 51
0.0
 72
100
 90
0
  1

281
0
 71
0
 74
0
110
0.0
120
0.0
130
0.0
111
1.0
121
0.0
131
0.0
112
0.0
122
1.0
132
0.0
 79
0
146
0.0
  0
ENDBLK
  5
54E
330
54C
100
AcDbEntity
  8
0
100
AcDbBlockEnd
  0
BLOCK
  5
553
330
552
100
AcDbEntity
  8
0
100
AcDbBlockBegin
  2
*Paper_Space69
 70
0
 10
0.0
 20
0.0
 30
0.0
  3
*Paper_Space69
  1

  0
VIEWPORT
  5
556
330
552
100
AcDbEntity
 67
1
  8
VIEWPORTS
100
AcDbViewport
 10
105.0
 20
148.5
 30
0.0
 40
231.00000000000003
 41
326.70000000000005
 68
1
 69
1
 12
105.0
 22
148.5
 13
0.0
 23
0.0
 14
10.0
 24
10.0
 15
10.0
 25
10.0
 16
0.0
 26
0.0
 36
0.0
 17
0.0
 27
0.0
 37
0.0
 42
50.0
 43
0.0
 44
0.0
 45
326.70000000000005
 50
0.0
 51
0.0
 72
100
 90
557088
  1

281
0
 71
0
 74
0
110
0.0
120
0.0
130
0.0
111
1.0
121
0.0
131
0.0
112
0.0
122
1.0
132
0.0
 79
0
146
0.0
  0
VIEWPORT
  5
557
330
552
100
AcDbEntity
 67
1
  8
VIEWPORTS
100
AcDbViewport
 10
105.0
 20
148.5
 30
0.0
 40
210.0
 41
297.0
 68
1
 69
143
 12
1995.0
 22
-1930.5
 13
0.0
 23
0.0
 14
10.0
 24
10.0
 15
10.0
 25
10.0
 16
0.0
 26
0.0
 36
0.0
 17
0.0
 27
0.0
 37
0.0
 42
50.0
 43
0.0
 44
0.0
 45
297.0
 50
0.0
 51
0.0
 72
100
 90
0
  1

281
0
 71
0
 74
0
110
0.0
120
0.0
130
0.0
111
1.0
121
0.0
131
0.0
112
0.0
122
1.0
132
0.0
 79
0
146
0.0
  0
ENDBLK
  5
554
330
552
100
AcDbEntity
  8
0
100
AcDbBlockEnd
  0
BLOCK
  5
559
330
558
100
AcDbEntity
  8
0
100
AcDbBlockBegin
  2
*Paper_Space70
 70
0
 10
0.0
 20
0.0
 30
0.0
  3
*Paper_Space70
  1

  0
VIEWPORT
  5
55C
330
558
100
AcDbEntity
 67
1
  8
VIEWPORTS
100
AcDbViewport
 10
105.0
 20
148.5
 30
0.0
 40
231.00000000000003
 41
326.70000000000005
 68
1
 69
1
 12
105.0
 22
148.5
 13
0.0
 23
0.0
 14
10.0
 24
10.0
 15
10.0
 25
10.0
 16
0.0
 26
0.0
 36
0.0
 17
0.0
 27
0.0
 37
0.0
 42
50.0
 43
0.0
 44
0.0
 45
326.70000000000005
 50
0.0
 51
0.0
 72
100
 90
557088
  1

281
0
 71
0
 74
0
110
0.0
120
0.0
130
0.0
111
1.0
121
0.0
131
0.0
112
0.0
122
1.0
132
0.0
 79
0
146
0.0
  0
VIEWPORT
  5
55D
330
558
100
AcDbEntity
 67
1
  8
VIEWPORTS
100
AcDbViewport
 10
105.0
 20
148.5
 30
0.0
 40
210.0
 41
297.0
 68
1
 69
145
 12
105.0
 22
-2227.5
 13
0.0
 23
0.0
 14
10.0
 24
10.0
 15
10.0
 25
10.0
 16
0.0
 26
0.0
 36
0.0
 17
0.0
 27
0.0
 37
0.0
 42
50.0
 43
0.0
 44
0.0
 45
297.0
 50
0.0
 51
0.0
 72
100
 90
0
  1

281
0
 71
0
 74
0
110
0.0
120
0.0
130
0.0
111
1.0
121
0.0
131
0.0
112
0.0
122
1.0
132
0.0
 79
0
146
0.0
  0
ENDBLK
  5
55A
330
558
100
AcDbEntity
  8
0
100
AcDbBlockEnd
  0
BLOCK
  5
55F
330
55E
100
AcDbEntity
  8
0
100
AcDbBlockBegin
  2
*Paper_Space71
 70
0
 10
0.0
 20
0.0
 30
0.0
  3
*Paper_Space71
  1

  0
VIEWPORT
  5
562
330
55E
100
AcDbEntity
 67
1
  8
VIEWPORTS
100
AcDbViewport
 10
105.0
 20
148.5
 30
0.0
 40
231.00000000000003
 41
326.70000000000005
 68
1
 69
1
 12
105.0
 22
148.5
 13
0.0
 23
0.0
 14
10.0
 24
10.0
 15
10.0
 25
10.0
 16
0.0
 26
0.0
 36
0.0
 17
0.0
 27
0.0
 37
0.0
 42
50.0
 43
0.0
 44
0.0
 45
326.70000000000005
 50
0.0
 51
0.0
 72
100
 90
557088
  1

281
0
 71
0
 74
0
110
0.0
120
0.0
130
0.0
111
1.0
121
0.0
131
0.0
112
0.0
122
1.0
132
0.0
 79
0
146
0.0
  0
VIEWPORT
  5
563
330
55E
100
AcDbEntity
 67
1
  8
VIEWPORTS
100
AcDbViewport
 10
105.0
 20
148.5
 30
0.0
 40
210.0
 41
297.0
 68
1
 69
147
 12
315.0
 22
-2227.5
 13
0.0
 23
0.0
 14
10.0
 24
10.0
 15
10.0
 25
10.0
 16
0.0
 26
0.0
 36
0.0
 17
0.0
 27
0.0
 37
0.0
 42
50.0
 43
0.0
 44
0.0
 45
297.0
 50
0.0
 51
0.0
 72
100
 90
0
  1

281
0
 71
0
 74
0
110
0.0
120
0.0
130
0.0
111
1.0
121
0.0
131
0.0
112
0.0
122
1.0
132
0.0
 79
0
146
0.0
  0
ENDBLK
  5
560
330
55E
100
AcDbEntity
  8
0
100
AcDbBlockEnd
  0
BLOCK
  5
565
330
564
100
AcDbEntity
  8
0
100
AcDbBlockBegin
  2
*Paper_Space72
 70
0
 10
0.0
 20
0.0
 30
0.0
  3
*Paper_Space72
  1

  0
VIEWPORT
  5
568
330
564
100
AcDbEntity
 67
1
  8
VIEWPORTS
100
AcDbViewport
 10
105.0
 20
148.5
 30
0.0
 40
231.00000000000003
 41
326.70000000000005
 68
1
 69
1
 12
105.0
 22
148.5
 13
0.0
 23
0.0
 14
10.0
 24
10.0
 15
10.0
 25
10.0
 16
0.0
 26
0.0
 36
0.0
 17
0.0
 27
0.0
 37
0.0
 42
50.0
 43
0.0
 44
0.0
 45
326.70000000000005
 50
0.0
 51
0.0
 72
100
 90
557088
  1

281
0
 71
0
 74
0
110
0.0
120
0.0
130
0.0
111
1.0
121
0.0
131
0.0
112
0.0
122
1.0
132
0.0
 79
0
146
0.0
  0
VIEWPORT
  5
569
330
564
100
AcDbEntity
 67
1
  8
VIEWPORTS
100
AcDbViewport
 10
105.0
 20
148.5
 30
0.0
 40
210.0
 41
297.0
 68
1
 69
149
 12
525.0
 22
-2227.5
 13
0.0
 23
0.0
 14
10.0
 24
10.0
 15
10.0
 25
10.0
 16
0.0
 26
0.0
 36
0.0
 17
0.0
 27
0.0
 37
0.0
 42
50.0
 43
0.0
 44
0.0
 45
297.0
 50
0.0
 51
0.0
 72
100
 90
0
  1

281
0
 71
0
 74
0
110
0.0
120
0.0
130
0.0
111
1.0
121
0.0
131
0.0
112
0.0
122
1.0
132
0.0
 79
0
146
0.0
  0
ENDBLK
  5
566
330
564
100
AcDbEntity
  8
0
100
AcDbBlockEnd
  0
BLOCK
  5
56B
330
56A
100
AcDbEntity
  8
0
100
AcDbBlockBegin
  2
*Paper_Space73
 70
0
 10
0.0
 20
0.0
 30
0.0
  3
*Paper_Space73
  1

  0
VIEWPORT
  5
56E
330
56A
100
AcDbEntity
 67
1
  8
VIEWPORTS
100
AcDbViewport
 10
105.0
 20
148.5
 30
0.0
 40
231.00000000000003
 41
326.70000000000005
 68
1
 69
1
 12
105.0
 22
148.5
 13
0.0
 23
0.0
 14
10.0
 24
10.0
 15
10.0
 25
10.0
 16
0.0
 26
0.0
 36
0.0
 17
0.0
 27
0.0
 37
0.0
 42
50.0
 43
0.0
 44
0.0
 45
326.70000000000005
 50
0.0
 51
0.0
 72
100
 90
557088
  1

281
0
 71
0
 74
0
110
0.0
120
0.0
130
0.0
111
1.0
121
0.0
131
0.0
112
0.0
122
1.0
132
0.0
 79
0
146
0.0
  0
VIEWPORT
  5
56F
330
56A
100
AcDbEntity
 67
1
  8
VIEWPORTS
100
AcDbViewport
 10
105.0
 20
148.5
 30
0.0
 40
210.0
 41
297.0
 68
1
 69
151
 12
735.0
 22
-2227.5
 13
0.0
 23
0.0
 14
10.0
 24
10.0
 15
10.0
 25
10.0
 16
0.0
 26
0.0
 36
0.0
 17
0.0
 27
0.0
 37
0.0
 42
50.0
 43
0.0
 44
0.0
 45
297.0
 50
0.0
 51
0.0
 72
100
 90
0
  1

281
0
 71
0
 74
0
110
0.0
120
0.0
130
0.0
111
1.0
121
0.0
131
0.0
112
0.0
122
1.0
132
0.0
 79
0
146
0.0
  0
ENDBLK
  5
56C
330
56A
100
AcDbEntity
  8
0
100
AcDbBlockEnd
  0
BLOCK
  5
571
330
570
100
AcDbEntity
  8
0
100
AcDbBlockBegin
  2
*Paper_Space74
 70
0
 10
0.0
 20
0.0
 30
0.0
  3
*Paper_Space74
  1

  0
VIEWPORT
  5
574
330
570
100
AcDbEntity
 67
1
  8
VIEWPORTS
100
AcDbViewport
 10
105.0
 20
148.5
 30
0.0
 40
231.00000000000003
 41
326.70000000000005
 68
1
 69
1
 12
105.0
 22
148.5
 13
0.0
 23
0.0
 14
10.0
 24
10.0
 15
10.0
 25
10.0
 16
0.0
 26
0.0
 36
0.0
 17
0.0
 27
0.0
 37
0.0
 42
50.0
 43
0.0
 44
0.0
 45
326.70000000000005
 50
0.0
 51
0.0
 72
100
 90
557088
  1

281
0
 71
0
 74
0
110
0.0
120
0.0
130
0.0
111
1.0
121
0.0
131
0.0
112
0.0
122
1.0
132
0.0
 79
0
146
0.0
  0
VIEWPORT
  5
575
330
570
100
AcDbEntity
 67
1
  8
VIEWPORTS
100
AcDbViewport
 10
105.0
 20
148.5
 30
0.0
 40
210.0
 41
297.0
 68
1
 69
153
 12
945.0
 22
-2227.5
 13
0.0
 23
0.0
 14
10.0
 24
10.0
 15
10.0
 25
10.0
 16
0.0
 26
0.0
 36
0.0
 17
0.0
 27
0.0
 37
0.0
 42
50.0
 43
0.0
 44
0.0
 45
297.0
 50
0.0
 51
0.0
 72
100
 90
0
  1

281
0
 71
0
 74
0
110
0.0
120
0.0
130
0.0
111
1.0
121
0.0
131
0.0
112
0.0
122
1.0
132
0.0
 79
0
146
0.0
  0
ENDBLK
  5
572
330
570
100
AcDbEntity
  8
0
100
AcDbBlockEnd
  0
BLOCK
  5
577
330
576
100
AcDbEntity
  8
0
100
AcDbBlockBegin
  2
*Paper_Space75
 70
0
 10
0.0
 20
0.0
 30
0.0
  3
*Paper_Space75
  1

  0
VIEWPORT
  5
57A
330
576
100
AcDbEntity
 67
1
  8
VIEWPORTS
100
AcDbViewport
 10
105.0
 20
148.5
 30
0.0
 40
231.00000000000003
 41
326.70000000000005
 68
1
 69
1
 12
105.0
 22
148.5
 13
0.0
 23
0.0
 14
10.0
 24
10.0
 15
10.0
 25
10.0
 16
0.0
 26
0.0
 36
0.0
 17
0.0
 27
0.0
 37
0.0
 42
50.0
 43
0.0
 44
0.0
 45
326.70000000000005
 50
0.0
 51
0.0
 72
100
 90
557088
  1

281
0
 71
0
 74
0
110
0.0
120
0.0
130
0.0
111
1.0
121
0.0
131
0.0
112
0.0
122
1.0
132
0.0
 79
0
146
0.0
  0
VIEWPORT
  5
57B
330
576
100
AcDbEntity
 67
1
  8
VIEWPORTS
100
AcDbViewport
 10
105.0
 20
148.5
 30
0.0
 40
210.0
 41
297.0
 68
1
 69
155
 12
1155.0
 22
-2227.5
 13
0.0
 23
0.0
 14
10.0
 24
10.0
 15
10.0
 25
10.0
 16
0.0
 26
0.0
 36
0.0
 17
0.0
 27
0.0
 37
0.0
 42
50.0
 43
0.0
 44
0.0
 45
297.0
 50
0.0
 51
0.0
 72
100
 90
0
  1

281
0
 71
0
 74
0
110
0.0
120
0.0
130
0.0
111
1.0
121
0.0
131
0.0
112
0.0
122
1.0
132
0.0
 79
0
146
0.0
  0
ENDBLK
  5
578
330
576
100
AcDbEntity
  8
0
100
AcDbBlockEnd
  0
BLOCK
  5
57D
330
57C
100
AcDbEntity
  8
0
100
AcDbBlockBegin
  2
*Paper_Space76
 70
0
 10
0.0
 20
0.0
 30
0.0
  3
*Paper_Space76
  1

  0
VIEWPORT
  5
580
330
57C
100
AcDbEntity
 67
1
  8
VIEWPORTS
100
AcDbViewport
 10
105.0
 20
148.5
 30
0.0
 40
231.00000000000003
 41
326.70000000000005
 68
1
 69
1
 12
105.0
 22
148.5
 13
0.0
 23
0.0
 14
10.0
 24
10.0
 15
10.0
 25
10.0
 16
0.0
 26
0.0
 36
0.0
 17
0.0
 27
0.0
 37
0.0
 42
50.0
 43
0.0
 44
0.0
 45
326.70000000000005
 50
0.0
 51
0.0
 72
100
 90
557088
  1

281
0
 71
0
 74
0
110
0.0
120
0.0
130
0.0
111
1.0
121
0.0
131
0.0
112
0.0
122
1.0
132
0.0
 79
0
146
0.0
  0
VIEWPORT
  5
581
330
57C
100
AcDbEntity
 67
1
  8
VIEWPORTS
100
AcDbViewport
 10
105.0
 20
148.5
 30
0.0
 40
210.0
 41
297.0
 68
1
 69
157
 12
1365.0
 22
-2227.5
 13
0.0
 23
0.0
 14
10.0
 24
10.0
 15
10.0
 25
10.0
 16
0.0
 26
0.0
 36
0.0
 17
0.0
 27
0.0
 37
0.0
 42
50.0
 43
0.0
 44
0.0
 45
297.0
 50
0.0
 51
0.0
 72
100
 90
0
  1

281
0
 71
0
 74
0
110
0.0
120
0.0
130
0.0
111
1.0
121
0.0
131
0.0
112
0.0
122
1.0
132
0.0
 79
0
146
0.0
  0
ENDBLK
  5
57E
330
57C
100
AcDbEntity
  8
0
100
AcDbBlockEnd
  0
BLOCK
  5
583
330
582
100
AcDbEntity
  8
0
100
AcDbBlockBegin
  2
*Paper_Space77
 70
0
 10
0.0
 20
0.0
 30
0.0
  3
*Paper_Space77
  1

  0
VIEWPORT
  5
586
330
582
100
AcDbEntity
 67
1
  8
VIEWPORTS
100
AcDbViewport
 10
105.0
 20
148.5
 30
0.0
 40
231.00000000000003
 41
326.70000000000005
 68
1
 69
1
 12
105.0
 22
148.5
 13
0.0
 23
0.0
 14
10.0
 24
10.0
 15
10.0
 25
10.0
 16
0.0
 26
0.0
 36
0.0
 17
0.0
 27
0.0
 37
0.0
 42
50.0
 43
0.0
 44
0.0
 45
326.70000000000005
 50
0.0
 51
0.0
 72
100
 90
557088
  1

281
0
 71
0
 74
0
110
0.0
120
0.0
130
0.0
111
1.0
121
0.0
131
0.0
112
0.0
122
1.0
132
0.0
 79
0
146
0.0
  0
VIEWPORT
  5
587
330
582
100
AcDbEntity
 67
1
  8
VIEWPORTS
100
AcDbViewport
 10
105.0
 20
148.5
 30
0.0
 40
210.0
 41
297.0
 68
1
 69
159
 12
1575.0
 22
-2227.5
 13
0.0
 23
0.0
 14
10.0
 24
10.0
 15
10.0
 25
10.0
 16
0.0
 26
0.0
 36
0.0
 17
0.0
 27
0.0
 37
0.0
 42
50.0
 43
0.0
 44
0.0
 45
297.0
 50
0.0
 51
0.0
 72
100
 90
0
  1

281
0
 71
0
 74
0
110
0.0
120
0.0
130
0.0
111
1.0
121
0.0
131
0.0
112
0.0
122
1.0
132
0.0
 79
0
146
0.0
  0
ENDBLK
  5
584
330
582
100
AcDbEntity
  8
0
100
AcDbBlockEnd
  0
BLOCK
  5
589
330
588
100
AcDbEntity
  8
0
100
AcDbBlockBegin
  2
*Paper_Space78
 70
0
 10
0.0
 20
0.0
 30
0.0
  3
*Paper_Space78
  1

  0
VIEWPORT
  5
58C
330
588
100
AcDbEntity
 67
1
  8
VIEWPORTS
100
AcDbViewport
 10
105.0
 20
148.5
 30
0.0
 40
231.00000000000003
 41
326.70000000000005
 68
1
 69
1
 12
105.0
 22
148.5
 13
0.0
 23
0.0
 14
10.0
 24
10.0
 15
10.0
 25
10.0
 16
0.0
 26
0.0
 36
0.0
 17
0.0
 27
0.0
 37
0.0
 42
50.0
 43
0.0
 44
0.0
 45
326.70000000000005
 50
0.0
 51
0.0
 72
100
 90
557088
  1

281
0
 71
0
 74
0
110
0.0
120
0.0
130
0.0
111
1.0
121
0.0
131
0.0
112
0.0
122
1.0
132
0.0
 79
0
146
0.0
  0
VIEWPORT
  5
58D
330
588
100
AcDbEntity
 67
1
  8
VIEWPORTS
100
AcDbViewport
 10
105.0
 20
148.5
 30
0.0
 40
210.0
 41
297.0
 68
1
 69
161
 12
1785.0
 22
-2227.5
 13
0.0
 23
0.0
 14
10.0
 24
10.0
 15
10.0
 25
10.0
 16
0.0
 26
0.0
 36
0.0
 17
0.0
 27
0.0
 37
0.0
 42
50.0
 43
0.0
 44
0.0
 45
297.0
 50
0.0
 51
0.0
 72
100
 90
0
  1

281
0
 71
0
 74
0
110
0.0
120
0.0
130
0.0
111
1.0
121
0.0
131
0.0
112
0.0
122
1.0
132
0.0
 79
0
146
0.0
  0
ENDBLK
  5
58A
330
588
100
AcDbEntity
  8
0
100
AcDbBlockEnd
  0
BLOCK
  5
58F
330
58E
100
AcDbEntity
  8
0
100
AcDbBlockBegin
  2
*Paper_Space79
 70
0
 10
0.0
 20
0.0
 30
0.0
  3
*Paper_Space79
  1

  0
VIEWPORT
  5
592
330
58E
100
AcDbEntity
 67
1
  8
VIEWPORTS
100
AcDbViewport
 10
105.0
 20
148.5
 30
0.0
 40
231.00000000000003
 41
326.70000000000005
 68
1
 69
1
 12
105.0
 22
148.5
 13
0.0
 23
0.0
 14
10.0
 24
10.0
 15
10.0
 25
10.0
 16
0.0
 26
0.0
 36
0.0
 17
0.0
 27
0.0
 37
0.0
 42
50.0
 43
0.0
 44
0.0
 45
326.70000000000005
 50
0.0
 51
0.0
 72
100
 90
557088
  1

281
0
 71
0
 74
0
110
0.0
120
0.0
130
0.0
111
1.0
121
0.0
131
0.0
112
0.0
122
1.0
132
0.0
 79
0
146
0.0
  0
VIEWPORT
  5
593
330
58E
100
AcDbEntity
 67
1
  8
VIEWPORTS
100
AcDbViewport
 10
105.0
 20
148.5
 30
0.0
 40
210.0
 41
297.0
 68
1
 69
163
 12
1995.0
 22
-2227.5
 13
0.0
 23
0.0
 14
10.0
 24
10.0
 15
10.0
 25
10.0
 16
0.0
 26
0.0
 36
0.0
 17
0.0
 27
0.0
 37
0.0
 42
50.0
 43
0.0
 44
0.0
 45
297.0
 50
0.0
 51
0.0
 72
100
 90
0
  1

281
0
 71
0
 74
0
110
0.0
120
0.0
130
0.0
111
1.0
121
0.0
131
0.0
112
0.0
122
1.0
132
0.0
 79
0
146
0.0
  0
ENDBLK
  5
590
330
58E
100
AcDbEntity
  8
0
100
AcDbBlockEnd
  0
BLOCK
  5
595
330
594
100
AcDbEntity
  8
0
100
AcDbBlockBegin
  2
*Paper_Space80
 70
0
 10
0.0
 20
0.0
 30
0.0
  3
*Paper_Space80
  1

  0
VIEWPORT
  5
598
330
594
100
AcDbEntity
 67
1
  8
VIEWPORTS
100
AcDbViewport
 10
105.0
 20
148.5
 30
0.0
 40
231.00000000000003
 41
326.70000000000005
 68
1
 69
1
 12
105.0
 22
148.5
 13
0.0
 23
0.0
 14
10.0
 24
10.0
 15
10.0
 25
10.0
 16
0.0
 26
0.0
 36
0.0
 17
0.0
 27
0.0
 37
0.0
 42
50.0
 43
0.0
 44
0.0
 45
326.70000000000005
 50
0.0
 51
0.0
 72
100
 90
557088
  1

281
0
 71
0
 74
0
110
0.0
120
0.0
130
0.0
111
1.0
121
0.0
131
0.0
112
0.0
122
1.0
132
0.0
 79
0
146
0.0
  0
VIEWPORT
  5
599
330
594
100
AcDbEntity
 67
1
  8
VIEWPORTS
100
AcDbViewport
 10
105.0
 20
148.5
 30
0.0
 40
210.0
 41
297.0
 68
1
 69
165
 12
105.0
 22
-2524.5
 13
0.0
 23
0.0
 14
10.0
 24
10.0
 15
10.0
 25
10.0
 16
0.0
 26
0.0
 36
0.0
 17
0.0
 27
0.0
 37
0.0
 42
50.0
 43
0.0
 44
0.0
 45
297.0
 50
0.0
 51
0.0
 72
100
 90
0
  1

281
0
 71
0
 74
0
110
0.0
120
0.0
130
0.0
111
1.0
121
0.0
131
0.0
112
0.0
122
1.0
132
0.0
 79
0
146
0.0
  0
ENDBLK
  5
596
330
594
100
AcDbEntity
  8
0
100
AcDbBlockEnd
  0
BLOCK
  5
59B
330
59A
100
AcDbEntity
  8
0
100
AcDbBlockBegin
  2
*Paper_Space81
 70
0
 10
0.0
 20
0.0
 30
0.0
  3
*Paper_Space81
  1

  0
VIEWPORT
  5
59E
330
59A
100
AcDbEntity
 67
1
  8
VIEWPORTS
100
AcDbViewport
 10
105.0
 20
148.5
 30
0.0
 40
231.00000000000003
 41
326.70000000000005
 68
1
 69
1
 12
105.0
 22
148.5
 13
0.0
 23
0.0
 14
10.0
 24
10.0
 15
10.0
 25
10.0
 16
0.0
 26
0.0
 36
0.0
 17
0.0
 27
0.0
 37
0.0
 42
50.0
 43
0.0
 44
0.0
 45
326.70000000000005
 50
0.0
 51
0.0
 72
100
 90
557088
  1

281
0
 71
0
 74
0
110
0.0
120
0.0
130
0.0
111
1.0
121
0.0
131
0.0
112
0.0
122
1.0
132
0.0
 79
0
146
0.0
  0
VIEWPORT
  5
59F
330
59A
100
AcDbEntity
 67
1
  8
VIEWPORTS
100
AcDbViewport
 10
105.0
 20
148.5
 30
0.0
 40
210.0
 41
297.0
 68
1
 69
167
 12
315.0
 22
-2524.5
 13
0.0
 23
0.0
 14
10.0
 24
10.0
 15
10.0
 25
10.0
 16
0.0
 26
0.0
 36
0.0
 17
0.0
 27
0.0
 37
0.0
 42
50.0
 43
0.0
 44
0.0
 45
297.0
 50
0.0
 51
0.0
 72
100
 90
0
  1

281
0
 71
0
 74
0
110
0.0
120
0.0
130
0.0
111
1.0
121
0.0
131
0.0
112
0.0
122
1.0
132
0.0
 79
0
146
0.0
  0
ENDBLK
  5
59C
330
59A
100
AcDbEntity
  8
0
100
AcDbBlockEnd
  0
BLOCK
  5
5A1
330
5A0
100
AcDbEntity
  8
0
100
AcDbBlockBegin
  2
*Paper_Space82
 70
0
 10
0.0
 20
0.0
 30
0.0
  3
*Paper_Space82
  1

  0
VIEWPORT
  5
5A4
330
5A0
100
AcDbEntity
 67
1
  8
VIEWPORTS
100
AcDbViewport
 10
105.0
 20
148.5
 30
0.0
 40
231.00000000000003
 41
326.70000000000005
 68
1
 69
1
 12
105.0
 22
148.5
 13
0.0
 23
0.0
 14
10.0
 24
10.0
 15
10.0
 25
10.0
 16
0.0
 26
0.0
 36
0.0
 17
0.0
 27
0.0
 37
0.0
 42
50.0
 43
0.0
 44
0.0
 45
326.70000000000005
 50
0.0
 51
0.0
 72
100
 90
557088
  1

281
0
 71
0
 74
0
110
0.0
120
0.0
130
0.0
111
1.0
121
0.0
131
0.0
112
0.0
122
1.0
132
0.0
 79
0
146
0.0
  0
VIEWPORT
  5
5A5
330
5A0
100
AcDbEntity
 67
1
  8
VIEWPORTS
100
AcDbViewport
 10
105.0
 20
148.5
 30
0.0
 40
210.0
 41
297.0
 68
1
 69
169
 12
525.0
 22
-2524.5
 13
0.0
 23
0.0
 14
10.0
 24
10.0
 15
10.0
 25
10.0
 16
0.0
 26
0.0
 36
0.0
 17
0.0
 27
0.0
 37
0.0
 42
50.0
 43
0.0
 44
0.0
 45
297.0
 50
0.0
 51
0.0
 72
100
 90
0
  1

281
0
 71
0
 74
0
110
0.0
120
0.0
130
0.0
111
1.0
121
0.0
131
0.0
112
0.0
122
1.0
132
0.0
 79
0
146
0.0
  0
ENDBLK
  5
5A2
330
5A0
100
AcDbEntity
  8
0
100
AcDbBlockEnd
  0
BLOCK
  5
5A7
330
5A6
100
AcDbEntity
  8
0
100
AcDbBlockBegin
  2
*Paper_Space83
 70
0
 10
0.0
 20
0.0
 30
0.0
  3
*Paper_Space83
  1

  0
VIEWPORT
  5
5AA
330
5A6
100
AcDbEntity
 67
1
  8
VIEWPORTS
100
AcDbViewport
 10
105.0
 20
148.5
 30
0.0
 40
231.00000000000003
 41
326.70000000000005
 68
1
 69
1
 12
105.0
 22
148.5
 13
0.0
 23
0.0
 14
10.0
 24
10.0
 15
10.0
 25
10.0
 16
0.0
 26
0.0
 36
0.0
 17
0.0
 27
0.0
 37
0.0
 42
50.0
 43
0.0
 44
0.0
 45
326.70000000000005
 50
0.0
 51
0.0
 72
100
 90
557088
  1

281
0
 71
0
 74
0
110
0.0
120
0.0
130
0.0
111
1.0
121
0.0
131
0.0
112
0.0
122
1.0
132
0.0
 79
0
146
0.0
  0
VIEWPORT
  5
5AB
330
5A6
100
AcDbEntity
 67
1
  8
VIEWPORTS
100
AcDbViewport
 10
105.0
 20
148.5
 30
0.0
 40
210.0
 41
297.0
 68
1
 69
171
 12
735.0
 22
-2524.5
 13
0.0
 23
0.0
 14
10.0
 24
10.0
 15
10.0
 25
10.0
 16
0.0
 26
0.0
 36
0.0
 17
0.0
 27
0.0
 37
0.0
 42
50.0
 43
0.0
 44
0.0
 45
297.0
 50
0.0
 51
0.0
 72
100
 90
0
  1

281
0
 71
0
 74
0
110
0.0
120
0.0
130
0.0
111
1.0
121
0.0
131
0.0
112
0.0
122
1.0
132
0.0
 79
0
146
0.0
  0
ENDBLK
  5
5A8
330
5A6
100
AcDbEntity
  8
0
100
AcDbBlockEnd
  0
BLOCK
  5
5AD
330
5AC
100
AcDbEntity
  8
0
100
AcDbBlockBegin
  2
*Paper_Space84
 70
0
 10
0.0
 20
0.0
 30
0.0
  3
*Paper_Space84
  1

  0
VIEWPORT
  5
5B0
330
5AC
100
AcDbEntity
 67
1
  8
VIEWPORTS
100
AcDbViewport
 10
105.0
 20
148.5
 30
0.0
 40
231.00000000000003
 41
326.70000000000005
 68
1
 69
1
 12
105.0
 22
148.5
 13
0.0
 23
0.0
 14
10.0
 24
10.0
 15
10.0
 25
10.0
 16
0.0
 26
0.0
 36
0.0
 17
0.0
 27
0.0
 37
0.0
 42
50.0
 43
0.0
 44
0.0
 45
326.70000000000005
 50
0.0
 51
0.0
 72
100
 90
557088
  1

281
0
 71
0
 74
0
110
0.0
120
0.0
130
0.0
111
1.0
121
0.0
131
0.0
112
0.0
122
1.0
132
0.0
 79
0
146
0.0
  0
VIEWPORT
  5
5B1
330
5AC
100
AcDbEntity
 67
1
  8
VIEWPORTS
100
AcDbViewport
 10
105.0
 20
148.5
 30
0.0
 40
210.0
 41
297.0
 68
1
 69
173
 12
945.0
 22
-2524.5
 13
0.0
 23
0.0
 14
10.0
 24
10.0
 15
10.0
 25
10.0
 16
0.0
 26
0.0
 36
0.0
 17
0.0
 27
0.0
 37
0.0
 42
50.0
 43
0.0
 44
0.0
 45
297.0
 50
0.0
 51
0.0
 72
100
 90
0
  1

281
0
 71
0
 74
0
110
0.0
120
0.0
130
0.0
111
1.0
121
0.0
131
0.0
112
0.0
122
1.0
132
0.0
 79
0
146
0.0
  0
ENDBLK
  5
5AE
330
5AC
100
AcDbEntity
  8
0
100
AcDbBlockEnd
  0
BLOCK
  5
5B3
330
5B2
100
AcDbEntity
  8
0
100
AcDbBlockBegin
  2
*Paper_Space85
 70
0
 10
0.0
 20
0.0
 30
0.0
  3
*Paper_Space85
  1

  0
VIEWPORT
  5
5B6
330
5B2
100
AcDbEntity
 67
1
  8
VIEWPORTS
100
AcDbViewport
 10
105.0
 20
148.5
 30
0.0
 40
231.00000000000003
 41
326.70000000000005
 68
1
 69
1
 12
105.0
 22
148.5
 13
0.0
 23
0.0
 14
10.0
 24
10.0
 15
10.0
 25
10.0
 16
0.0
 26
0.0
 36
0.0
 17
0.0
 27
0.0
 37
0.0
 42
50.0
 43
0.0
 44
0.0
 45
326.70000000000005
 50
0.0
 51
0.0
 72
100
 90
557088
  1

281
0
 71
0
 74
0
110
0.0
120
0.0
130
0.0
111
1.0
121
0.0
131
0.0
112
0.0
122
1.0
132
0.0
 79
0
146
0.0
  0
VIEWPORT
  5
5B7
330
5B2
100
AcDbEntity
 67
1
  8
VIEWPORTS
100
AcDbViewport
 10
105.0
 20
148.5
 30
0.0
 40
210.0
 41
297.0
 68
1
 69
175
 12
1155.0
 22
-2524.5
 13
0.0
 23
0.0
 14
10.0
 24
10.0
 15
10.0
 25
10.0
 16
0.0
 26
0.0
 36
0.0
 17
0.0
 27
0.0
 37
0.0
 42
50.0
 43
0.0
 44
0.0
 45
297.0
 50
0.0
 51
0.0
 72
100
 90
0
  1

281
0
 71
0
 74
0
110
0.0
120
0.0
130
0.0
111
1.0
121
0.0
131
0.0
112
0.0
122
1.0
132
0.0
 79
0
146
0.0
  0
ENDBLK
  5
5B4
330
5B2
100
AcDbEntity
  8
0
100
AcDbBlockEnd
  0
BLOCK
  5
5B9
330
5B8
100
AcDbEntity
  8
0
100
AcDbBlockBegin
  2
*Paper_Space86
 70
0
 10
0.0
 20
0.0
 30
0.0
  3
*Paper_Space86
  1

  0
VIEWPORT
  5
5BC
330
5B8
100
AcDbEntity
 67
1
  8
VIEWPORTS
100
AcDbViewport
 10
105.0
 20
148.5
 30
0.0
 40
231.00000000000003
 41
326.70000000000005
 68
1
 69
1
 12
105.0
 22
148.5
 13
0.0
 23
0.0
 14
10.0
 24
10.0
 15
10.0
 25
10.0
 16
0.0
 26
0.0
 36
0.0
 17
0.0
 27
0.0
 37
0.0
 42
50.0
 43
0.0
 44
0.0
 45
326.70000000000005
 50
0.0
 51
0.0
 72
100
 90
557088
  1

281
0
 71
0
 74
0
110
0.0
120
0.0
130
0.0
111
1.0
121
0.0
131
0.0
112
0.0
122
1.0
132
0.0
 79
0
146
0.0
  0
VIEWPORT
  5
5BD
330
5B8
100
AcDbEntity
 67
1
  8
VIEWPORTS
100
AcDbViewport
 10
105.0
 20
148.5
 30
0.0
 40
210.0
 41
297.0
 68
1
 69
177
 12
1365.0
 22
-2524.5
 13
0.0
 23
0.0
 14
10.0
 24
10.0
 15
10.0
 25
10.0
 16
0.0
 26
0.0
 36
0.0
 17
0.0
 27
0.0
 37
0.0
 42
50.0
 43
0.0
 44
0.0
 45
297.0
 50
0.0
 51
0.0
 72
100
 90
0
  1

281
0
 71
0
 74
0
110
0.0
120
0.0
130
0.0
111
1.0
121
0.0
131
0.0
112
0.0
122
1.0
132
0.0
 79
0
146
0.0
  0
ENDBLK
  5
5BA
330
5B8
100
AcDbEntity
  8
0
100
AcDbBlockEnd
  0
BLOCK
  5
5BF
330
5BE
100
AcDbEntity
  8
0
100
AcDbBlockBegin
  2
*Paper_Space87
 70
0
 10
0.0
 20
0.0
 30
0.0
  3
*Paper_Space87
  1

  0
VIEWPORT
  5
5C2
330
5BE
100
AcDbEntity
 67
1
  8
VIEWPORTS
100
AcDbViewport
 10
105.0
 20
148.5
 30
0.0
 40
231.00000000000003
 41
326.70000000000005
 68
1
 69
1
 12
105.0
 22
148.5
 13
0.0
 23
0.0
 14
10.0
 24
10.0
 15
10.0
 25
10.0
 16
0.0
 26
0.0
 36
0.0
 17
0.0
 27
0.0
 37
0.0
 42
50.0
 43
0.0
 44
0.0
 45
326.70000000000005
 50
0.0
 51
0.0
 72
100
 90
557088
  1

281
0
 71
0
 74
0
110
0.0
120
0.0
130
0.0
111
1.0
121
0.0
131
0.0
112
0.0
122
1.0
132
0.0
 79
0
146
0.0
  0
VIEWPORT
  5
5C3
330
5BE
100
AcDbEntity
 67
1
  8
VIEWPORTS
100
AcDbViewport
 10
105.0
 20
148.5
 30
0.0
 40
210.0
 41
297.0
 68
1
 69
179
 12
1575.0
 22
-2524.5
 13
0.0
 23
0.0
 14
10.0
 24
10.0
 15
10.0
 25
10.0
 16
0.0
 26
0.0
 36
0.0
 17
0.0
 27
0.0
 37
0.0
 42
50.0
 43
0.0
 44
0.0
 45
297.0
 50
0.0
 51
0.0
 72
100
 90
0
  1

281
0
 71
0
 74
0
110
0.0
120
0.0
130
0.0
111
1.0
121
0.0
131
0.0
112
0.0
122
1.0
132
0.0
 79
0
146
0.0
  0
ENDBLK
  5
5C0
330
5BE
100
AcDbEntity
  8
0
100
AcDbBlockEnd
  0
BLOCK
  5
5C5
330
5C4
100
AcDbEntity
  8
0
100
AcDbBlockBegin
  2
*Paper_Space88
 70
0
 10
0.0
 20
0.0
 30
0.0
  3
*Paper_Space88
  1

  0
VIEWPORT
  5
5C8
330
5C4
100
AcDbEntity
 67
1
  8
VIEWPORTS
100
AcDbViewport
 10
105.0
 20
148.5
 30
0.0
 40
231.00000000000003
 41
326.70000000000005
 68
1
 69
1
 12
105.0
 22
148.5
 13
0.0
 23
0.0
 14
10.0
 24
10.0
 15
10.0
 25
10.0
 16
0.0
 26
0.0
 36
0.0
 17
0.0
 27
0.0
 37
0.0
 42
50.0
 43
0.0
 44
0.0
 45
326.70000000000005
 50
0.0
 51
0.0
 72
100
 90
557088
  1

281
0
 71
0
 74
0
110
0.0
120
0.0
130
0.0
111
1.0
121
0.0
131
0.0
112
0.0
122
1.0
132
0.0
 79
0
146
0.0
  0
VIEWPORT
  5
5C9
330
5C4
100
AcDbEntity
 67
1
  8
VIEWPORTS
100
AcDbViewport
 10
105.0
 20
148.5
 30
0.0
 40
210.0
 41
297.0
 68
1
 69
181
 12
1785.0
 22
-2524.5
 13
0.0
 23
0.0
 14
10.0
 24
10.0
 15
10.0
 25
10.0
 16
0.0
 26
0.0
 36
0.0
 17
0.0
 27
0.0
 37
0.0
 42
50.0
 43
0.0
 44
0.0
 45
297.0
 50
0.0
 51
0.0
 72
100
 90
0
  1

281
0
 71
0
 74
0
110
0.0
120
0.0
130
0.0
111
1.0
121
0.0
131
0.0
112
0.0
122
1.0
132
0.0
 79
0
146
0.0
  0
ENDBLK
  5
5C6
330
5C4
100
AcDbEntity
  8
0
100
AcDbBlockEnd
  0
BLOCK
  5
5CB
330
5CA
100
AcDbEntity
  8
0
100
AcDbBlockBegin
  2
*Paper_Space89
 70
0
 10
0.0
 20
0.0
 30
0.0
  3
*Paper_Space89
  1

  0
VIEWPORT
  5
5CE
330
5CA
100
AcDbEntity
 67
1
  8
VIEWPORTS
100
AcDbViewport
 10
105.0
 20
148.5
 30
0.0
 40
231.00000000000003
 41
326.70000000000005
 68
1
 69
1
 12
105.0
 22
148.5
 13
0.0
 23
0.0
 14
10.0
 24
10.0
 15
10.0
 25
10.0
 16
0.0
 26
0.0
 36
0.0
 17
0.0
 27
0.0
 37
0.0
 42
50.0
 43
0.0
 44
0.0
 45
326.70000000000005
 50
0.0
 51
0.0
 72
100
 90
557088
  1

281
0
 71
0
 74
0
110
0.0
120
0.0
130
0.0
111
1.0
121
0.0
131
0.0
112
0.0
122
1.0
132
0.0
 79
0
146
0.0
  0
VIEWPORT
  5
5CF
330
5CA
100
AcDbEntity
 67
1
  8
VIEWPORTS
100
AcDbViewport
 10
105.0
 20
148.5
 30
0.0
 40
210.0
 41
297.0
 68
1
 69
183
 12
1995.0
 22
-2524.5
 13
0.0
 23
0.0
 14
10.0
 24
10.0
 15
10.0
 25
10.0
 16
0.0
 26
0.0
 36
0.0
 17
0.0
 27
0.0
 37
0.0
 42
50.0
 43
0.0
 44
0.0
 45
297.0
 50
0.0
 51
0.0
 72
100
 90
0
  1

281
0
 71
0
 74
0
110
0.0
120
0.0
130
0.0
111
1.0
121
0.0
131
0.0
112
0.0
122
1.0
132
0.0
 79
0
146
0.0
  0
ENDBLK
  5
5CC
330
5CA
100
AcDbEntity
  8
0
100
AcDbBlockEnd
  0
BLOCK
  5
5D1
330
5D0
100
AcDbEntity
  8
0
100
AcDbBlockBegin
  2
*Paper_Space90
 70
0
 10
0.0
 20
0.0
 30
0.0
  3
*Paper_Space90
  1

  0
VIEWPORT
  5
5D4
330
5D0
100
AcDbEntity
 67
1
  8
VIEWPORTS
100
AcDbViewport
 10
105.0
 20
148.5
 30
0.0
 40
231.00000000000003
 41
326.70000000000005
 68
1
 69
1
 12
105.0
 22
148.5
 13
0.0
 23
0.0
 14
10.0
 24
10.0
 15
10.0
 25
10.0
 16
0.0
 26
0.0
 36
0.0
 17
0.0
 27
0.0
 37
0.0
 42
50.0
 43
0.0
 44
0.0
 45
326.70000000000005
 50
0.0
 51
0.0
 72
100
 90
557088
  1

281
0
 71
0
 74
0
110
0.0
120
0.0
130
0.0
111
1.0
121
0.0
131
0.0
112
0.0
122
1.0
132
0.0
 79
0
146
0.0
  0
VIEWPORT
  5
5D5
330
5D0
100
AcDbEntity
 67
1
  8
VIEWPORTS
100
AcDbViewport
 10
105.0
 20
148.5
 30
0.0
 40
210.0
 41
297.0
 68
1
 69
185
 12
105.0
 22
-2821.5
 13
0.0
 23
0.0
 14
10.0
 24
10.0
 15
10.0
 25
10.0
 16
0.0
 26
0.0
 36
0.0
 17
0.0
 27
0.0
 37
0.0
 42
50.0
 43
0.0
 44
0.0
 45
297.0
 50
0.0
 51
0.0
 72
100
 90
0
  1

281
0
 71
0
 74
0
110
0.0
120
0.0
130
0.0
111
1.0
121
0.0
131
0.0
112
0.0
122
1.0
132
0.0
 79
0
146
0.0
  0
ENDBLK
  5
5D2
330
5D0
100
AcDbEntity
  8
0
100
AcDbBlockEnd
  0
BLOCK
  5
5D7
330
5D6
100
AcDbEntity
  8
0
100
AcDbBlockBegin
  2
*Paper_Space91
 70
0
 10
0.0
 20
0.0
 30
0.0
  3
*Paper_Space91
  1

  0
VIEWPORT
  5
5DA
330
5D6
100
AcDbEntity
 67
1
  8
VIEWPORTS
100
AcDbViewport
 10
105.0
 20
148.5
 30
0.0
 40
231.00000000000003
 41
326.70000000000005
 68
1
 69
1
 12
105.0
 22
148.5
 13
0.0
 23
0.0
 14
10.0
 24
10.0
 15
10.0
 25
10.0
 16
0.0
 26
0.0
 36
0.0
 17
0.0
 27
0.0
 37
0.0
 42
50.0
 43
0.0
 44
0.0
 45
326.70000000000005
 50
0.0
 51
0.0
 72
100
 90
557088
  1

281
0
 71
0
 74
0
110
0.0
120
0.0
130
0.0
111
1.0
121
0.0
131
0.0
112
0.0
122
1.0
132
0.0
 79
0
146
0.0
  0
VIEWPORT
  5
5DB
330
5D6
100
AcDbEntity
 67
1
  8
VIEWPORTS
100
AcDbViewport
 10
105.0
 20
148.5
 30
0.0
 40
210.0
 41
297.0
 68
1
 69
187
 12
315.0
 22
-2821.5
 13
0.0
 23
0.0
 14
10.0
 24
10.0
 15
10.0
 25
10.0
 16
0.0
 26
0.0
 36
0.0
 17
0.0
 27
0.0
 37
0.0
 42
50.0
 43
0.0
 44
0.0
 45
297.0
 50
0.0
 51
0.0
 72
100
 90
0
  1

281
0
 71
0
 74
0
110
0.0
120
0.0
130
0.0
111
1.0
121
0.0
131
0.0
112
0.0
122
1.0
132
0.0
 79
0
146
0.0
  0
ENDBLK
  5
5D8
330
5D6
100
AcDbEntity
  8
0
100
AcDbBlockEnd
  0
BLOCK
  5
5DD
330
5DC
100
AcDbEntity
  8
0
100
AcDbBlockBegin
  2
*Paper_Space92
 70
0
 10
0.0
 20
0.0
 30
0.0
  3
*Paper_Space92
  1

  0
VIEWPORT
  5
5E0
330
5DC
100
AcDbEntity
 67
1
  8
VIEWPORTS
100
AcDbViewport
 10
105.0
 20
148.5
 30
0.0
 40
231.00000000000003
 41
326.70000000000005
 68
1
 69
1
 12
105.0
 22
148.5
 13
0.0
 23
0.0
 14
10.0
 24
10.0
 15
10.0
 25
10.0
 16
0.0
 26
0.0
 36
0.0
 17
0.0
 27
0.0
 37
0.0
 42
50.0
 43
0.0
 44
0.0
 45
326.70000000000005
 50
0.0
 51
0.0
 72
100
 90
557088
  1

281
0
 71
0
 74
0
110
0.0
120
0.0
130
0.0
111
1.0
121
0.0
131
0.0
112
0.0
122
1.0
132
0.0
 79
0
146
0.0
  0
VIEWPORT
  5
5E1
330
5DC
100
AcDbEntity
 67
1
  8
VIEWPORTS
100
AcDbViewport
 10
105.0
 20
148.5
 30
0.0
 40
210.0
 41
297.0
 68
1
 69
189
 12
525.0
 22
-2821.5
 13
0.0
 23
0.0
 14
10.0
 24
10.0
 15
10.0
 25
10.0
 16
0.0
 26
0.0
 36
0.0
 17
0.0
 27
0.0
 37
0.0
 42
50.0
 43
0.0
 44
0.0
 45
297.0
 50
0.0
 51
0.0
 72
100
 90
0
  1

281
0
 71
0
 74
0
110
0.0
120
0.0
130
0.0
111
1.0
121
0.0
131
0.0
112
0.0
122
1.0
132
0.0
 79
0
146
0.0
  0
ENDBLK
  5
5DE
330
5DC
100
AcDbEntity
  8
0
100
AcDbBlockEnd
  0
BLOCK
  5
5E3
330
5E2
100
AcDbEntity
  8
0
100
AcDbBlockBegin
  2
*Paper_Space93
 70
0
 10
0.0
 20
0.0
 30
0.0
  3
*Paper_Space93
  1

  0
VIEWPORT
  5
5E6
330
5E2
100
AcDbEntity
 67
1
  8
VIEWPORTS
100
AcDbViewport
 10
105.0
 20
148.5
 30
0.0
 40
231.00000000000003
 41
326.70000000000005
 68
1
 69
1
 12
105.0
 22
148.5
 13
0.0
 23
0.0
 14
10.0
 24
10.0
 15
10.0
 25
10.0
 16
0.0
 26
0.0
 36
0.0
 17
0.0
 27
0.0
 37
0.0
 42
50.0
 43
0.0
 44
0.0
 45
326.70000000000005
 50
0.0
 51
0.0
 72
100
 90
557088
  1

281
0
 71
0
 74
0
110
0.0
120
0.0
130
0.0
111
1.0
121
0.0
131
0.0
112
0.0
122
1.0
132
0.0
 79
0
146
0.0
  0
VIEWPORT
  5
5E7
330
5E2
100
AcDbEntity
 67
1
  8
VIEWPORTS
100
AcDbViewport
 10
105.0
 20
148.5
 30
0.0
 40
210.0
 41
297.0
 68
1
 69
191
 12
735.0
 22
-2821.5
 13
0.0
 23
0.0
 14
10.0
 24
10.0
 15
10.0
 25
10.0
 16
0.0
 26
0.0
 36
0.0
 17
0.0
 27
0.0
 37
0.0
 42
50.0
 43
0.0
 44
0.0
 45
297.0
 50
0.0
 51
0.0
 72
100
 90
0
  1

281
0
 71
0
 74
0
110
0.0
120
0.0
130
0.0
111
1.0
121
0.0
131
0.0
112
0.0
122
1.0
132
0.0
 79
0
146
0.0
  0
ENDBLK
  5
5E4
330
5E2
100
AcDbEntity
  8
0
100
AcDbBlockEnd
  0
BLOCK
  5
5E9
330
5E8
100
AcDbEntity
  8
0
100
AcDbBlockBegin
  2
*Paper_Space94
 70
0
 10
0.0
 20
0.0
 30
0.0
  3
*Paper_Space94
  1

  0
VIEWPORT
  5
5EC
330
5E8
100
AcDbEntity
 67
1
  8
VIEWPORTS
100
AcDbViewport
 10
105.0
 20
148.5
 30
0.0
 40
231.00000000000003
 41
326.70000000000005
 68
1
 69
1
 12
105.0
 22
148.5
 13
0.0
 23
0.0
 14
10.0
 24
10.0
 15
10.0
 25
10.0
 16
0.0
 26
0.0
 36
0.0
 17
0.0
 27
0.0
 37
0.0
 42
50.0
 43
0.0
 44
0.0
 45
326.70000000000005
 50
0.0
 51
0.0
 72
100
 90
557088
  1

281
0
 71
0
 74
0
110
0.0
120
0.0
130
0.0
111
1.0
121
0.0
131
0.0
112
0.0
122
1.0
132
0.0
 79
0
146
0.0
  0
VIEWPORT
  5
5ED
330
5E8
100
AcDbEntity
 67
1
  8
VIEWPORTS
100
AcDbViewport
 10
105.0
 20
148.5
 30
0.0
 40
210.0
 41
297.0
 68
1
 69
193
 12
945.0
 22
-2821.5
 13
0.0
 23
0.0
 14
10.0
 24
10.0
 15
10.0
 25
10.0
 16
0.0
 26
0.0
 36
0.0
 17
0.0
 27
0.0
 37
0.0
 42
50.0
 43
0.0
 44
0.0
 45
297.0
 50
0.0
 51
0.0
 72
100
 90
0
  1

281
0
 71
0
 74
0
110
0.0
120
0.0
130
0.0
111
1.0
121
0.0
131
0.0
112
0.0
122
1.0
132
0.0
 79
0
146
0.0
  0
ENDBLK
  5
5EA
330
5E8
100
AcDbEntity
  8
0
100
AcDbBlockEnd
  0
BLOCK
  5
5EF
330
5EE
100
AcDbEntity
  8
0
100
AcDbBlockBegin
  2
*Paper_Space95
 70
0
 10
0.0
 20
0.0
 30
0.0
  3
*Paper_Space95
  1

  0
VIEWPORT
  5
5F2
330
5EE
100
AcDbEntity
 67
1
  8
VIEWPORTS
100
AcDbViewport
 10
105.0
 20
148.5
 30
0.0
 40
231.00000000000003
 41
326.70000000000005
 68
1
 69
1
 12
105.0
 22
148.5
 13
0.0
 23
0.0
 14
10.0
 24
10.0
 15
10.0
 25
10.0
 16
0.0
 26
0.0
 36
0.0
 17
0.0
 27
0.0
 37
0.0
 42
50.0
 43
0.0
 44
0.0
 45
326.70000000000005
 50
0.0
 51
0.0
 72
100
 90
557088
  1

281
0
 71
0
 74
0
110
0.0
120
0.0
130
0.0
111
1.0
121
0.0
131
0.0
112
0.0
122
1.0
132
0.0
 79
0
146
0.0
  0
VIEWPORT
  5
5F3
330
5EE
100
AcDbEntity
 67
1
  8
VIEWPORTS
100
AcDbViewport
 10
105.0
 20
148.5
 30
0.0
 40
210.0
 41
297.0
 68
1
 69
195
 12
1155.0
 22
-2821.5
 13
0.0
 23
0.0
 14
10.0
 24
10.0
 15
10.0
 25
10.0
 16
0.0
 26
0.0
 36
0.0
 17
0.0
 27
0.0
 37
0.0
 42
50.0
 43
0.0
 44
0.0
 45
297.0
 50
0.0
 51
0.0
 72
100
 90
0
  1

281
0
 71
0
 74
0
110
0.0
120
0.0
130
0.0
111
1.0
121
0.0
131
0.0
112
0.0
122
1.0
132
0.0
 79
0
146
0.0
  0
ENDBLK
  5
5F0
330
5EE
100
AcDbEntity
  8
0
100
AcDbBlockEnd
  0
BLOCK
  5
5F5
330
5F4
100
AcDbEntity
  8
0
100
AcDbBlockBegin
  2
*Paper_Space96
 70
0
 10
0.0
 20
0.0
 30
0.0
  3
*Paper_Space96
  1

  0
VIEWPORT
  5
5F8
330
5F4
100
AcDbEntity
 67
1
  8
VIEWPORTS
100
AcDbViewport
 10
105.0
 20
148.5
 30
0.0
 40
231.00000000000003
 41
326.70000000000005
 68
1
 69
1
 12
105.0
 22
148.5
 13
0.0
 23
0.0
 14
10.0
 24
10.0
 15
10.0
 25
10.0
 16
0.0
 26
0.0
 36
0.0
 17
0.0
 27
0.0
 37
0.0
 42
50.0
 43
0.0
 44
0.0
 45
326.70000000000005
 50
0.0
 51
0.0
 72
100
 90
557088
  1

281
0
 71
0
 74
0
110
0.0
120
0.0
130
0.0
111
1.0
121
0.0
131
0.0
112
0.0
122
1.0
132
0.0
 79
0
146
0.0
  0
VIEWPORT
  5
5F9
330
5F4
100
AcDbEntity
 67
1
  8
VIEWPORTS
100
AcDbViewport
 10
105.0
 20
148.5
 30
0.0
 40
210.0
 41
297.0
 68
1
 69
197
 12
1365.0
 22
-2821.5
 13
0.0
 23
0.0
 14
10.0
 24
10.0
 15
10.0
 25
10.0
 16
0.0
 26
0.0
 36
0.0
 17
0.0
 27
0.0
 37
0.0
 42
50.0
 43
0.0
 44
0.0
 45
297.0
 50
0.0
 51
0.0
 72
100
 90
0
  1

281
0
 71
0
 74
0
110
0.0
120
0.0
130
0.0
111
1.0
121
0.0
131
0.0
112
0.0
122
1.0
132
0.0
 79
0
146
0.0
  0
ENDBLK
  5
5F6
330
5F4
100
AcDbEntity
  8
0
100
AcDbBlockEnd
  0
BLOCK
  5
5FB
330
5FA
100
AcDbEntity
  8
0
100
AcDbBlockBegin
  2
*Paper_Space97
 70
0
 10
0.0
 20
0.0
 30
0.0
  3
*Paper_Space97
  1

  0
VIEWPORT
  5
5FE
330
5FA
100
AcDbEntity
 67
1
  8
VIEWPORTS
100
AcDbViewport
 10
105.0
 20
148.5
 30
0.0
 40
231.00000000000003
 41
326.70000000000005
 68
1
 69
1
 12
105.0
 22
148.5
 13
0.0
 23
0.0
 14
10.0
 24
10.0
 15
10.0
 25
10.0
 16
0.0
 26
0.0
 36
0.0
 17
0.0
 27
0.0
 37
0.0
 42
50.0
 43
0.0
 44
0.0
 45
326.70000000000005
 50
0.0
 51
0.0
 72
100
 90
557088
  1

281
0
 71
0
 74
0
110
0.0
120
0.0
130
0.0
111
1.0
121
0.0
131
0.0
112
0.0
122
1.0
132
0.0
 79
0
146
0.0
  0
VIEWPORT
  5
5FF
330
5FA
100
AcDbEntity
 67
1
  8
VIEWPORTS
100
AcDbViewport
 10
105.0
 20
148.5
 30
0.0
 40
210.0
 41
297.0
 68
1
 69
199
 12
1575.0
 22
-2821.5
 13
0.0
 23
0.0
 14
10.0
 24
10.0
 15
10.0
 25
10.0
 16
0.0
 26
0.0
 36
0.0
 17
0.0
 27
0.0
 37
0.0
 42
50.0
 43
0.0
 44
0.0
 45
297.0
 50
0.0
 51
0.0
 72
100
 90
0
  1

281
0
 71
0
 74
0
110
0.0
120
0.0
130
0.0
111
1.0
121
0.0
131
0.0
112
0.0
122
1.0
132
0.0
 79
0
146
0.0
  0
ENDBLK
  5
5FC
330
5FA
100
AcDbEntity
  8
0
100
AcDbBlockEnd
  0
BLOCK
  5
601
330
600
100
AcDbEntity
  8
0
100
AcDbBlockBegin
  2
*Paper_Space98
 70
0
 10
0.0
 20
0.0
 30
0.0
  3
*Paper_Space98
  1

  0
VIEWPORT
  5
604
330
600
100
AcDbEntity
 67
1
  8
VIEWPORTS
100
AcDbViewport
 10
105.0
 20
148.5
 30
0.0
 40
231.00000000000003
 41
326.70000000000005
 68
1
 69
1
 12
105.0
 22
148.5
 13
0.0
 23
0.0
 14
10.0
 24
10.0
 15
10.0
 25
10.0
 16
0.0
 26
0.0
 36
0.0
 17
0.0
 27
0.0
 37
0.0
 42
50.0
 43
0.0
 44
0.0
 45
326.70000000000005
 50
0.0
 51
0.0
 72
100
 90
557088
  1

281
0
 71
0
 74
0
110
0.0
120
0.0
130
0.0
111
1.0
121
0.0
131
0.0
112
0.0
122
1.0
132
0.0
 79
0
146
0.0
  0
VIEWPORT
  5
605
330
600
100
AcDbEntity
 67
1
  8
VIEWPORTS
100
AcDbViewport
 10
105.0
 20
148.5
 30
0.0
 40
210.0
 41
297.0
 68
1
 69
201
 12
1785.0
 22
-2821.5
 13
0.0
 23
0.0
 14
10.0
 24
10.0
 15
10.0
 25
10.0
 16
0.0
 26
0.0
 36
0.0
 17
0.0
 27
0.0
 37
0.0
 42
50.0
 43
0.0
 44
0.0
 45
297.0
 50
0.0
 51
0.0
 72
100
 90
0
  1

281
0
 71
0
 74
0
110
0.0
120
0.0
130
0.0
111
1.0
121
0.0
131
0.0
112
0.0
122
1.0
132
0.0
 79
0
146
0.0
  0
ENDBLK
  5
602
330
600
100
AcDbEntity
  8
0
100
AcDbBlockEnd
  0
BLOCK
  5
607
330
606
100
AcDbEntity
  8
0
100
AcDbBlockBegin
  2
*Paper_Space99
 70
0
 10
0.0
 20
0.0
 30
0.0
  3
*Paper_Space99
  1

  0
VIEWPORT
  5
60A
330
606
100
AcDbEntity
 67
1
  8
VIEWPORTS
100
AcDbViewport
 10
105.0
 20
148.5
 30
0.0
 40
231.00000000000003
 41
326.70000000000005
 68
1
 69
1
 12
105.0
 22
148.5
 13
0.0
 23
0.0
 14
10.0
 24
10.0
 15
10.0
 25
10.0
 16
0.0
 26
0.0
 36
0.0
 17
0.0
 27
0.0
 37
0.0
 42
50.0
 43
0.0
 44
0.0
 45
326.70000000000005
 50
0.0
 51
0.0
 72
100
 90
557088
  1

281
0
 71
0
 74
0
110
0.0
120
0.0
130
0.0
111
1.0
121
0.0
131
0.0
112
0.0
122
1.0
132
0.0
 79
0
146
0.0
  0
VIEWPORT
  5
60B
330
606
100
AcDbEntity
 67
1
  8
VIEWPORTS
100
AcDbViewport
 10
105.0
 20
148.5
 30
0.0
 40
210.0
 41
297.0
 68
1
 69
203
 12
1995.0
 22
-2821.5
 13
0.0
 23
0.0
 14
10.0
 24
10.0
 15
10.0
 25
10.0
 16
0.0
 26
0.0
 36
0.0
 17
0.0
 27
0.0
 37
0.0
 42
50.0
 43
0.0
 44
0.0
 45
297.0
 50
0.0
 51
0.0
 72
100
 90
0
  1

281
0
 71
0
 74
0
110
0.0
120
0.0
130
0.0
111
1.0
121
0.0
131
0.0
112
0.0
122
1.0
132
0.0
 79
0
146
0.0
  0
ENDBLK
  5
608
330
606
100
AcDbEntity
  8
0
100
AcDbBlockEnd
  0
ENDSEC
  0
SECTION
  2
ENTITIES
  0
LINE
  5
2D
330
17
100
AcDbEntity
  8
0
 62
9
100
AcDbLine
 10
0.0
 20
0.0
 30
0.0
 11
210.0
 21
0.0
 31
0.0
  0
LINE
  5
2E
330
17
100
AcDbEntity
  8
0
 62
9
100
AcDbLine
 10
0.0
 20
-297.0
 30
0.0
 11
210.0
 21
-297.0
 31
0.0
  0
LINE
  5
2F
330
17
100
AcDbEntity
  8
0
 62
9
100
AcDbLine
 10
0.0
 20
0.0
 30
0.0
 11
0.0
 21
-297.0
 31
0.0
  0
LINE
  5
30
330
17
100
AcDbEntity
  8
0
 62
9
100
AcDbLine
 10
210.0
 20
0.0
 30
0.0
 11
210.0
 21
-297.0
 31
0.0
  0
LINE
  5
31
330
17
100
AcDbEntity
  8
0
 62
9
100
AcDbLine
 10
80.0
 20
-123.5
 30
0.0
 11
130.0
 21
-123.5
 31
0.0
  0
LINE
  5
32
330
17
100
AcDbEntity
  8
0
 62
9
100
AcDbLine
 10
130.0
 20
-173.5
 30
0.0
 11
130.0
 21
-123.5
 31
0.0
  0
LINE
  5
33
330
17
100
AcDbEntity
  8
0
 62
9
100
AcDbLine
 10
80.0
 20
-123.5
 30
0.0
 11
80.0
 21
-173.5
 31
0.0
  0
LINE
  5
34
330
17
100
AcDbEntity
  8
0
 62
9
100
AcDbLine
 10
80.0
 20
-173.5
 30
0.0
 11
130.0
 21
-173.5
 31
0.0
  0
TEXT
  5
35
330
17
100
AcDbEntity
  8
TEXTLAYER
 62
1
100
AcDbText
 10
105.0
 20
-148.5
 30
0.0
 40
10.0
  1
1-1
 72
1
 11
105.0
 21
-148.5
 31
0.0
100
AcDbText
  0
LINE
  5
36
330
17
100
AcDbEntity
  8
0
 62
9
100
AcDbLine
 10
210.0
 20
0.0
 30
0.0
 11
420.0
 21
0.0
 31
0.0
  0
LINE
  5
37
330
17
100
AcDbEntity
  8
0
 62
9
100
AcDbLine
 10
210.0
 20
-297.0
 30
0.0
 11
420.0
 21
-297.0
 31
0.0
  0
LINE
  5
38
330
17
100
AcDbEntity
  8
0
 62
9
100
AcDbLine
 10
210.0
 20
0.0
 30
0.0
 11
210.0
 21
-297.0
 31
0.0
  0
LINE
  5
39
330
17
100
AcDbEntity
  8
0
 62
9
100
AcDbLine
 10
420.0
 20
0.0
 30
0.0
 11
420.0
 21
-297.0
 31
0.0
  0
LINE
  5
3A
330
17
100
AcDbEntity
  8
0
 62
9
100
AcDbLine
 10
290.0
 20
-123.5
 30
0.0
 11
340.0
 21
-123.5
 31
0.0
  0
LINE
  5
3B
330
17
100
AcDbEntity
  8
0
 62
9
100
AcDbLine
 10
340.0
 20
-173.5
 30
0.0
 11
340.0
 21
-123.5
 31
0.0
  0
LINE
  5
3C
330
17
100
AcDbEntity
  8
0
 62
9
100
AcDbLine
 10
290.0
 20
-123.5
 30
0.0
 11
290.0
 21
-173.5
 31
0.0
  0
LINE
  5
3D
330
17
100
AcDbEntity
  8
0
 62
9
100
AcDbLine
 10
290.0
 20
-173.5
 30
0.0
 11
340.0
 21
-173.5
 31
0.0
  0
TEXT
  5
3E
330
17
100
AcDbEntity
  8
TEXTLAYER
 62
1
100
AcDbText
 10
315.0
 20
-148.5
 30
0.0
 40
10.0
  1
1-2
 72
1
 11
315.0
 21
-148.5
 31
0.0
100
AcDbText
  0
LINE
  5
3F
330
17
100
AcDbEntity
  8
0
 62
9
100
AcDbLine
 10
420.0
 20
0.0
 30
0.0
 11
630.0
 21
0.0
 31
0.0
  0
LINE
  5
40
330
17
100
AcDbEntity
  8
0
 62
9
100
AcDbLine
 10
420.0
 20
-297.0
 30
0.0
 11
630.0
 21
-297.0
 31
0.0
  0
LINE
  5
41
330
17
100
AcDbEntity
  8
0
 62
9
100
AcDbLine
 10
420.0
 20
0.0
 30
0.0
 11
420.0
 21
-297.0
 31
0.0
  0
LINE
  5
42
330
17
100
AcDbEntity
  8
0
 62
9
100
AcDbLine
 10
630.0
 20
0.0
 30
0.0
 11
630.0
 21
-297.0
 31
0.0
  0
LINE
  5
43
330
17
100
AcDbEntity
  8
0
 62
9
100
AcDbLine
 10
500.0
 20
-123.5
 30
0.0
 11
550.0
 21
-123.5
 31
0.0
  0
LINE
  5
44
330
17
100
AcDbEntity
  8
0
 62
9
100
AcDbLine
 10
550.0
 20
-173.5
 30
0.0
 11
550.0
 21
-123.5
 31
0.0
  0
LINE
  5
45
330
17
100
AcDbEntity
  8
0
 62
9
100
AcDbLine
 10
500.0
 20
-123.5
 30
0.0
 11
500.0
 21
-173.5
 31
0.0
  0
LINE
  5
46
330
17
100
AcDbEntity
  8
0
 62
9
100
AcDbLine
 10
500.0
 20
-173.5
 30
0.0
 11
550.0
 21
-173.5
 31
0.0
  0
TEXT
  5
47
330
17
100
AcDbEntity
  8
TEXTLAYER
 62
1
100
AcDbText
 10
525.0
 20
-148.5
 30
0.0
 40
10.0
  1
1-3
 72
1
 11
525.0
 21
-148.5
 31
0.0
100
AcDbText
  0
LINE
  5
48
330
17
100
AcDbEntity
  8
0
 62
9
100
AcDbLine
 10
630.0
 20
0.0
 30
0.0
 11
840.0
 21
0.0
 31
0.0
  0
LINE
  5
49
330
17
100
AcDbEntity
  8
0
 62
9
100
AcDbLine
 10
630.0
 20
-297.0
 30
0.0
 11
840.0
 21
-297.0
 31
0.0
  0
LINE
  5
4A
330
17
100
AcDbEntity
  8
0
 62
9
100
AcDbLine
 10
630.0
 20
0.0
 30
0.0
 11
630.0
 21
-297.0
 31
0.0
  0
LINE
  5
4B
330
17
100
AcDbEntity
  8
0
 62
9
100
AcDbLine
 10
840.0
 20
0.0
 30
0.0
 11
840.0
 21
-297.0
 31
0.0
  0
LINE
  5
4C
330
17
100
AcDbEntity
  8
0
 62
9
100
AcDbLine
 10
710.0
 20
-123.5
 30
0.0
 11
760.0
 21
-123.5
 31
0.0
  0
LINE
  5
4D
330
17
100
AcDbEntity
  8
0
 62
9
100
AcDbLine
 10
760.0
 20
-173.5
 30
0.0
 11
760.0
 21
-123.5
 31
0.0
  0
LINE
  5
4E
330
17
100
AcDbEntity
  8
0
 62
9
100
AcDbLine
 10
710.0
 20
-123.5
 30
0.0
 11
710.0
 21
-173.5
 31
0.0
  0
LINE
  5
4F
330
17
100
AcDbEntity
  8
0
 62
9
100
AcDbLine
 10
710.0
 20
-173.5
 30
0.0
 11
760.0
 21
-173.5
 31
0.0
  0
TEXT
  5
50
330
17
100
AcDbEntity
  8
TEXTLAYER
 62
1
100
AcDbText
 10
735.0
 20
-148.5
 30
0.0
 40
10.0
  1
1-4
 72
1
 11
735.0
 21
-148.5
 31
0.0
100
AcDbText
  0
LINE
  5
51
330
17
100
AcDbEntity
  8
0
 62
9
100
AcDbLine
 10
840.0
 20
0.0
 30
0.0
 11
1050.0
 21
0.0
 31
0.0
  0
LINE
  5
52
330
17
100
AcDbEntity
  8
0
 62
9
100
AcDbLine
 10
840.0
 20
-297.0
 30
0.0
 11
1050.0
 21
-297.0
 31
0.0
  0
LINE
  5
53
330
17
100
AcDbEntity
  8
0
 62
9
100
AcDbLine
 10
840.0
 20
0.0
 30
0.0
 11
840.0
 21
-297.0
 31
0.0
  0
LINE
  5
54
330
17
100
AcDbEntity
  8
0
 62
9
100
AcDbLine
 10
1050.0
 20
0.0
 30
0.0
 11
1050.0
 21
-297.0
 31
0.0
  0
LINE
  5
55
330
17
100
AcDbEntity
  8
0
 62
9
100
AcDbLine
 10
920.0
 20
-123.5
 30
0.0
 11
970.0
 21
-123.5
 31
0.0
  0
LINE
  5
56
330
17
100
AcDbEntity
  8
0
 62
9
100
AcDbLine
 10
970.0
 20
-173.5
 30
0.0
 11
970.0
 21
-123.5
 31
0.0
  0
LINE
  5
57
330
17
100
AcDbEntity
  8
0
 62
9
100
AcDbLine
 10
920.0
 20
-123.5
 30
0.0
 11
920.0
 21
-173.5
 31
0.0
  0
LINE
  5
58
330
17
100
AcDbEntity
  8
0
 62
9
100
AcDbLine
 10
920.0
 20
-173.5
 30
0.0
 11
970.0
 21
-173.5
 31
0.0
  0
TEXT
  5
59
330
17
100
AcDbEntity
  8
TEXTLAYER
 62
1
100
AcDbText
 10
945.0
 20
-148.5
 30
0.0
 40
10.0
  1
1-5
 72
1
 11
945.0
 21
-148.5
 31
0.0
100
AcDbText
  0
LINE
  5
5A
330
17
100
AcDbEntity
  8
0
 62
9
100
AcDbLine
 10
1050.0
 20
0.0
 30
0.0
 11
1260.0
 21
0.0
 31
0.0
  0
LINE
  5
5B
330
17
100
AcDbEntity
  8
0
 62
9
100
AcDbLine
 10
1050.0
 20
-297.0
 30
0.0
 11
1260.0
 21
-297.0
 31
0.0
  0
LINE
  5
5C
330
17
100
AcDbEntity
  8
0
 62
9
100
AcDbLine
 10
1050.0
 20
0.0
 30
0.0
 11
1050.0
 21
-297.0
 31
0.0
  0
LINE
  5
5D
330
17
100
AcDbEntity
  8
0
 62
9
100
AcDbLine
 10
1260.0
 20
0.0
 30
0.0
 11
1260.0
 21
-297.0
 31
0.0
  0
LINE
  5
5E
330
17
100
AcDbEntity
  8
0
 62
9
100
AcDbLine
 10
1130.0
 20
-123.5
 30
0.0
 11
1180.0
 21
-123.5
 31
0.0
  0
LINE
  5
5F
330
17
100
AcDbEntity
  8
0
 62
9
100
AcDbLine
 10
1180.0
 20
-173.5
 30
0.0
 11
1180.0
 21
-123.5
 31
0.0
  0
LINE
  5
60
330
17
100
AcDbEntity
  8
0
 62
9
100
AcDbLine
 10
1130.0
 20
-123.5
 30
0.0
 11
1130.0
 21
-173.5
 31
0.0
  0
LINE
  5
61
330
17
100
AcDbEntity
  8
0
 62
9
100
AcDbLine
 10
1130.0
 20
-173.5
 30
0.0
 11
1180.0
 21
-173.5
 31
0.0
  0
TEXT
  5
62
330
17
100
AcDbEntity
  8
TEXTLAYER
 62
1
100
AcDbText
 10
1155.0
 20
-148.5
 30
0.0
 40
10.0
  1
1-6
 72
1
 11
1155.0
 21
-148.5
 31
0.0
100
AcDbText
  0
LINE
  5
63
330
17
100
AcDbEntity
  8
0
 62
9
100
AcDbLine
 10
1260.0
 20
0.0
 30
0.0
 11
1470.0
 21
0.0
 31
0.0
  0
LINE
  5
64
330
17
100
AcDbEntity
  8
0
 62
9
100
AcDbLine
 10
1260.0
 20
-297.0
 30
0.0
 11
1470.0
 21
-297.0
 31
0.0
  0
LINE
  5
65
330
17
100
AcDbEntity
  8
0
 62
9
100
AcDbLine
 10
1260.0
 20
0.0
 30
0.0
 11
1260.0
 21
-297.0
 31
0.0
  0
LINE
  5
66
330
17
100
AcDbEntity
  8
0
 62
9
100
AcDbLine
 10
1470.0
 20
0.0
 30
0.0
 11
1470.0
 21
-297.0
 31
0.0
  0
LINE
  5
67
330
17
100
AcDbEntity
  8
0
 62
9
100
AcDbLine
 10
1340.0
 20
-123.5
 30
0.0
 11
1390.0
 21
-123.5
 31
0.0
  0
LINE
  5
68
330
17
100
AcDbEntity
  8
0
 62
9
100
AcDbLine
 10
1390.0
 20
-173.5
 30
0.0
 11
1390.0
 21
-123.5
 31
0.0
  0
LINE
  5
69
330
17
100
AcDbEntity
  8
0
 62
9
100
AcDbLine
 10
1340.0
 20
-123.5
 30
0.0
 11
1340.0
 21
-173.5
 31
0.0
  0
LINE
  5
6A
330
17
100
AcDbEntity
  8
0
 62
9
100
AcDbLine
 10
1340.0
 20
-173.5
 30
0.0
 11
1390.0
 21
-173.5
 31
0.0
  0
TEXT
  5
6B
330
17
100
AcDbEntity
  8
TEXTLAYER
 62
1
100
AcDbText
 10
1365.0
 20
-148.5
 30
0.0
 40
10.0
  1
1-7
 72
1
 11
1365.0
 21
-148.5
 31
0.0
100
AcDbText
  0
LINE
  5
6C
330
17
100
AcDbEntity
  8
0
 62
9
100
AcDbLine
 10
1470.0
 20
0.0
 30
0.0
 11
1680.0
 21
0.0
 31
0.0
  0
LINE
  5
6D
330
17
100
AcDbEntity
  8
0
 62
9
100
AcDbLine
 10
1470.0
 20
-297.0
 30
0.0
 11
1680.0
 21
-297.0
 31
0.0
  0
LINE
  5
6E
330
17
100
AcDbEntity
  8
0
 62
9
100
AcDbLine
 10
1470.0
 20
0.0
 30
0.0
 11
1470.0
 21
-297.0
 31
0.0
  0
LINE
  5
6F
330
17
100
AcDbEntity
  8
0
 62
9
100
AcDbLine
 10
1680.0
 20
0.0
 30
0.0
 11
1680.0
 21
-297.0
 31
0.0
  0
LINE
  5
70
330
17
100
AcDbEntity
  8
0
 62
9
100
AcDbLine
 10
1550.0
 20
-123.5
 30
0.0
 11
1600.0
 21
-123.5
 31
0.0
  0
LINE
  5
71
330
17
100
AcDbEntity
  8
0
 62
9
100
AcDbLine
 10
1600.0
 20
-173.5
 30
0.0
 11
1600.0
 21
-123.5
 31
0.0
  0
LINE
  5
72
330
17
100
AcDbEntity
  8
0
 62
9
100
AcDbLine
 10
1550.0
 20
-123.5
 30
0.0
 11
1550.0
 21
-173.5
 31
0.0
  0
LINE
  5
73
330
17
100
AcDbEntity
  8
0
 62
9
100
AcDbLine
 10
1550.0
 20
-173.5
 30
0.0
 11
1600.0
 21
-173.5
 31
0.0
  0
TEXT
  5
74
330
17
100
AcDbEntity
  8
TEXTLAYER
 62
1
100
AcDbText
 10
1575.0
 20
-148.5
 30
0.0
 40
10.0
  1
1-8
 72
1
 11
1575.0
 21
-148.5
 31
0.0
100
AcDbText
  0
LINE
  5
75
330
17
100
AcDbEntity
  8
0
 62
9
100
AcDbLine
 10
1680.0
 20
0.0
 30
0.0
 11
1890.0
 21
0.0
 31
0.0
  0
LINE
  5
76
330
17
100
AcDbEntity
  8
0
 62
9
100
AcDbLine
 10
1680.0
 20
-297.0
 30
0.0
 11
1890.0
 21
-297.0
 31
0.0
  0
LINE
  5
77
330
17
100
AcDbEntity
  8
0
 62
9
100
AcDbLine
 10
1680.0
 20
0.0
 30
0.0
 11
1680.0
 21
-297.0
 31
0.0
  0
LINE
  5
78
330
17
100
AcDbEntity
  8
0
 62
9
100
AcDbLine
 10
1890.0
 20
0.0
 30
0.0
 11
1890.0
 21
-297.0
 31
0.0
  0
LINE
  5
79
330
17
100
AcDbEntity
  8
0
 62
9
100
AcDbLine
 10
1760.0
 20
-123.5
 30
0.0
 11
1810.0
 21
-123.5
 31
0.0
  0
LINE
  5
7A
330
17
100
AcDbEntity
  8
0
 62
9
100
AcDbLine
 10
1810.0
 20
-173.5
 30
0.0
 11
1810.0
 21
-123.5
 31
0.0
  0
LINE
  5
7B
330
17
100
AcDbEntity
  8
0
 62
9
100
AcDbLine
 10
1760.0
 20
-123.5
 30
0.0
 11
1760.0
 21
-173.5
 31
0.0
  0
LINE
  5
7C
330
17
100
AcDbEntity
  8
0
 62
9
100
AcDbLine
 10
1760.0
 20
-173.5
 30
0.0
 11
1810.0
 21
-173.5
 31
0.0
  0
TEXT
  5
7D
330
17
100
AcDbEntity
  8
TEXTLAYER
 62
1
100
AcDbText
 10
1785.0
 20
-148.5
 30
0.0
 40
10.0
  1
1-9
 72
1
 11
1785.0
 21
-148.5
 31
0.0
100
AcDbText
  0
LINE
  5
7E
330
17
100
AcDbEntity
  8
0
 62
9
100
AcDbLine
 10
1890.0
 20
0.0
 30
0.0
 11
2100.0
 21
0.0
 31
0.0
  0
LINE
  5
7F
330
17
100
AcDbEntity
  8
0
 62
9
100
AcDbLine
 10
1890.0
 20
-297.0
 30
0.0
 11
2100.0
 21
-297.0
 31
0.0
  0
LINE
  5
80
330
17
100
AcDbEntity
  8
0
 62
9
100
AcDbLine
 10
1890.0
 20
0.0
 30
0.0
 11
1890.0
 21
-297.0
 31
0.0
  0
LINE
  5
81
330
17
100
AcDbEntity
  8
0
 62
9
100
AcDbLine
 10
2100.0
 20
0.0
 30
0.0
 11
2100.0
 21
-297.0
 31
0.0
  0
LINE
  5
82
330
17
100
AcDbEntity
  8
0
 62
9
100
AcDbLine
 10
1970.0
 20
-123.5
 30
0.0
 11
2020.0
 21
-123.5
 31
0.0
  0
LINE
  5
83
330
17
100
AcDbEntity
  8
0
 62
9
100
AcDbLine
 10
2020.0
 20
-173.5
 30
0.0
 11
2020.0
 21
-123.5
 31
0.0
  0
LINE
  5
84
330
17
100
AcDbEntity
  8
0
 62
9
100
AcDbLine
 10
1970.0
 20
-123.5
 30
0.0
 11
1970.0
 21
-173.5
 31
0.0
  0
LINE
  5
85
330
17
100
AcDbEntity
  8
0
 62
9
100
AcDbLine
 10
1970.0
 20
-173.5
 30
0.0
 11
2020.0
 21
-173.5
 31
0.0
  0
TEXT
  5
86
330
17
100
AcDbEntity
  8
TEXTLAYER
 62
1
100
AcDbText
 10
1995.0
 20
-148.5
 30
0.0
 40
10.0
  1
1-10
 72
1
 11
1995.0
 21
-148.5
 31
0.0
100
AcDbText
  0
LINE
  5
87
330
17
100
AcDbEntity
  8
0
 62
9
100
AcDbLine
 10
0.0
 20
-297.0
 30
0.0
 11
210.0
 21
-297.0
 31
0.0
  0
LINE
  5
88
330
17
100
AcDbEntity
  8
0
 62
9
100
AcDbLine
 10
0.0
 20
-594.0
 30
0.0
 11
210.0
 21
-594.0
 31
0.0
  0
LINE
  5
89
330
17
100
AcDbEntity
  8
0
 62
9
100
AcDbLine
 10
0.0
 20
-297.0
 30
0.0
 11
0.0
 21
-594.0
 31
0.0
  0
LINE
  5
8A
330
17
100
AcDbEntity
  8
0
 62
9
100
AcDbLine
 10
210.0
 20
-297.0
 30
0.0
 11
210.0
 21
-594.0
 31
0.0
  0
LINE
  5
8B
330
17
100
AcDbEntity
  8
0
 62
9
100
AcDbLine
 10
80.0
 20
-420.5
 30
0.0
 11
130.0
 21
-420.5
 31
0.0
  0
LINE
  5
8C
330
17
100
AcDbEntity
  8
0
 62
9
100
AcDbLine
 10
130.0
 20
-470.5
 30
0.0
 11
130.0
 21
-420.5
 31
0.0
  0
LINE
  5
8D
330
17
100
AcDbEntity
  8
0
 62
9
100
AcDbLine
 10
80.0
 20
-420.5
 30
0.0
 11
80.0
 21
-470.5
 31
0.0
  0
LINE
  5
8E
330
17
100
AcDbEntity
  8
0
 62
9
100
AcDbLine
 10
80.0
 20
-470.5
 30
0.0
 11
130.0
 21
-470.5
 31
0.0
  0
TEXT
  5
8F
330
17
100
AcDbEntity
  8
TEXTLAYER
 62
1
100
AcDbText
 10
105.0
 20
-445.5
 30
0.0
 40
10.0
  1
2-1
 72
1
 11
105.0
 21
-445.5
 31
0.0
100
AcDbText
  0
LINE
  5
90
330
17
100
AcDbEntity
  8
0
 62
9
100
AcDbLine
 10
210.0
 20
-297.0
 30
0.0
 11
420.0
 21
-297.0
 31
0.0
  0
LINE
  5
91
330
17
100
AcDbEntity
  8
0
 62
9
100
AcDbLine
 10
210.0
 20
-594.0
 30
0.0
 11
420.0
 21
-594.0
 31
0.0
  0
LINE
  5
92
330
17
100
AcDbEntity
  8
0
 62
9
100
AcDbLine
 10
210.0
 20
-297.0
 30
0.0
 11
210.0
 21
-594.0
 31
0.0
  0
LINE
  5
93
330
17
100
AcDbEntity
  8
0
 62
9
100
AcDbLine
 10
420.0
 20
-297.0
 30
0.0
 11
420.0
 21
-594.0
 31
0.0
  0
LINE
  5
94
330
17
100
AcDbEntity
  8
0
 62
9
100
AcDbLine
 10
290.0
 20
-420.5
 30
0.0
 11
340.0
 21
-420.5
 31
0.0
  0
LINE
  5
95
330
17
100
AcDbEntity
  8
0
 62
9
100
AcDbLine
 10
340.0
 20
-470.5
 30
0.0
 11
340.0
 21
-420.5
 31
0.0
  0
LINE
  5
96
330
17
100
AcDbEntity
  8
0
 62
9
100
AcDbLine
 10
290.0
 20
-420.5
 30
0.0
 11
290.0
 21
-470.5
 31
0.0
  0
LINE
  5
97
330
17
100
AcDbEntity
  8
0
 62
9
100
AcDbLine
 10
290.0
 20
-470.5
 30
0.0
 11
340.0
 21
-470.5
 31
0.0
  0
TEXT
  5
98
330
17
100
AcDbEntity
  8
TEXTLAYER
 62
1
100
AcDbText
 10
315.0
 20
-445.5
 30
0.0
 40
10.0
  1
2-2
 72
1
 11
315.0
 21
-445.5
 31
0.0
100
AcDbText
  0
LINE
  5
99
330
17
100
AcDbEntity
  8
0
 62
9
100
AcDbLine
 10
420.0
 20
-297.0
 30
0.0
 11
630.0
 21
-297.0
 31
0.0
  0
LINE
  5
9A
330
17
100
AcDbEntity
  8
0
 62
9
100
AcDbLine
 10
420.0
 20
-594.0
 30
0.0
 11
630.0
 21
-594.0
 31
0.0
  0
LINE
  5
9B
330
17
100
AcDbEntity
  8
0
 62
9
100
AcDbLine
 10
420.0
 20
-297.0
 30
0.0
 11
420.0
 21
-594.0
 31
0.0
  0
LINE
  5
9C
330
17
100
AcDbEntity
  8
0
 62
9
100
AcDbLine
 10
630.0
 20
-297.0
 30
0.0
 11
630.0
 21
-594.0
 31
0.0
  0
LINE
  5
9D
330
17
100
AcDbEntity
  8
0
 62
9
100
AcDbLine
 10
500.0
 20
-420.5
 30
0.0
 11
550.0
 21
-420.5
 31
0.0
  0
LINE
  5
9E
330
17
100
AcDbEntity
  8
0
 62
9
100
AcDbLine
 10
550.0
 20
-470.5
 30
0.0
 11
550.0
 21
-420.5
 31
0.0
  0
LINE
  5
9F
330
17
100
AcDbEntity
  8
0
 62
9
100
AcDbLine
 10
500.0
 20
-420.5
 30
0.0
 11
500.0
 21
-470.5
 31
0.0
  0
LINE
  5
A0
330
17
100
AcDbEntity
  8
0
 62
9
100
AcDbLine
 10
500.0
 20
-470.5
 30
0.0
 11
550.0
 21
-470.5
 31
0.0
  0
TEXT
  5
A1
330
17
100
AcDbEntity
  8
TEXTLAYER
 62
1
100
AcDbText
 10
525.0
 20
-445.5
 30
0.0
 40
10.0
  1
2-3
 72
1
 11
525.0
 21
-445.5
 31
0.0
100
AcDbText
  0
LINE
  5
A2
330
17
100
AcDbEntity
  8
0
 62
9
100
AcDbLine
 10
630.0
 20
-297.0
 30
0.0
 11
840.0
 21
-297.0
 31
0.0
  0
LINE
  5
A3
330
17
100
AcDbEntity
  8
0
 62
9
100
AcDbLine
 10
630.0
 20
-594.0
 30
0.0
 11
840.0
 21
-594.0
 31
0.0
  0
LINE
  5
A4
330
17
100
AcDbEntity
  8
0
 62
9
100
AcDbLine
 10
630.0
 20
-297.0
 30
0.0
 11
630.0
 21
-594.0
 31
0.0
  0
LINE
  5
A5
330
17
100
AcDbEntity
  8
0
 62
9
100
AcDbLine
 10
840.0
 20
-297.0
 30
0.0
 11
840.0
 21
-594.0
 31
0.0
  0
LINE
  5
A6
330
17
100
AcDbEntity
  8
0
 62
9
100
AcDbLine
 10
710.0
 20
-420.5
 30
0.0
 11
760.0
 21
-420.5
 31
0.0
  0
LINE
  5
A7
330
17
100
AcDbEntity
  8
0
 62
9
100
AcDbLine
 10
760.0
 20
-470.5
 30
0.0
 11
760.0
 21
-420.5
 31
0.0
  0
LINE
  5
A8
330
17
100
AcDbEntity
  8
0
 62
9
100
AcDbLine
 10
710.0
 20
-420.5
 30
0.0
 11
710.0
 21
-470.5
 31
0.0
  0
LINE
  5
A9
330
17
100
AcDbEntity
  8
0
 62
9
100
AcDbLine
 10
710.0
 20
-470.5
 30
0.0
 11
760.0
 21
-470.5
 31
0.0
  0
TEXT
  5
AA
330
17
100
AcDbEntity
  8
TEXTLAYER
 62
1
100
AcDbText
 10
735.0
 20
-445.5
 30
0.0
 40
10.0
  1
2-4
 72
1
 11
735.0
 21
-445.5
 31
0.0
100
AcDbText
  0
LINE
  5
AB
330
17
100
AcDbEntity
  8
0
 62
9
100
AcDbLine
 10
840.0
 20
-297.0
 30
0.0
 11
1050.0
 21
-297.0
 31
0.0
  0
LINE
  5
AC
330
17
100
AcDbEntity
  8
0
 62
9
100
AcDbLine
 10
840.0
 20
-594.0
 30
0.0
 11
1050.0
 21
-594.0
 31
0.0
  0
LINE
  5
AD
330
17
100
AcDbEntity
  8
0
 62
9
100
AcDbLine
 10
840.0
 20
-297.0
 30
0.0
 11
840.0
 21
-594.0
 31
0.0
  0
LINE
  5
AE
330
17
100
AcDbEntity
  8
0
 62
9
100
AcDbLine
 10
1050.0
 20
-297.0
 30
0.0
 11
1050.0
 21
-594.0
 31
0.0
  0
LINE
  5
AF
330
17
100
AcDbEntity
  8
0
 62
9
100
AcDbLine
 10
920.0
 20
-420.5
 30
0.0
 11
970.0
 21
-420.5
 31
0.0
  0
LINE
  5
B0
330
17
100
AcDbEntity
  8
0
 62
9
100
AcDbLine
 10
970.0
 20
-470.5
 30
0.0
 11
970.0
 21
-420.5
 31
0.0
  0
LINE
  5
B1
330
17
100
AcDbEntity
  8
0
 62
9
100
AcDbLine
 10
920.0
 20
-420.5
 30
0.0
 11
920.0
 21
-470.5
 31
0.0
  0
LINE
  5
B2
330
17
100
AcDbEntity
  8
0
 62
9
100
AcDbLine
 10
920.0
 20
-470.5
 30
0.0
 11
970.0
 21
-470.5
 31
0.0
  0
TEXT
  5
B3
330
17
100
AcDbEntity
  8
TEXTLAYER
 62
1
100
AcDbText
 10
945.0
 20
-445.5
 30
0.0
 40
10.0
  1
2-5
 72
1
 11
945.0
 21
-445.5
 31
0.0
100
AcDbText
  0
LINE
  5
B4
330
17
100
AcDbEntity
  8
0
 62
9
100
AcDbLine
 10
1050.0
 20
-297.0
 30
0.0
 11
1260.0
 21
-297.0
 31
0.0
  0
LINE
  5
B5
330
17
100
AcDbEntity
  8
0
 62
9
100
AcDbLine
 10
1050.0
 20
-594.0
 30
0.0
 11
1260.0
 21
-594.0
 31
0.0
  0
LINE
  5
B6
330
17
100
AcDbEntity
  8
0
 62
9
100
AcDbLine
 10
1050.0
 20
-297.0
 30
0.0
 11
1050.0
 21
-594.0
 31
0.0
  0
LINE
  5
B7
330
17
100
AcDbEntity
  8
0
 62
9
100
AcDbLine
 10
1260.0
 20
-297.0
 30
0.0
 11
1260.0
 21
-594.0
 31
0.0
  0
LINE
  5
B8
330
17
100
AcDbEntity
  8
0
 62
9
100
AcDbLine
 10
1130.0
 20
-420.5
 30
0.0
 11
1180.0
 21
-420.5
 31
0.0
  0
LINE
  5
B9
330
17
100
AcDbEntity
  8
0
 62
9
100
AcDbLine
 10
1180.0
 20
-470.5
 30
0.0
 11
1180.0
 21
-420.5
 31
0.0
  0
LINE
  5
BA
330
17
100
AcDbEntity
  8
0
 62
9
100
AcDbLine
 10
1130.0
 20
-420.5
 30
0.0
 11
1130.0
 21
-470.5
 31
0.0
  0
LINE
  5
BB
330
17
100
AcDbEntity
  8
0
 62
9
100
AcDbLine
 10
1130.0
 20
-470.5
 30
0.0
 11
1180.0
 21
-470.5
 31
0.0
  0
TEXT
  5
BC
330
17
100
AcDbEntity
  8
TEXTLAYER
 62
1
100
AcDbText
 10
1155.0
 20
-445.5
 30
0.0
 40
10.0
  1
2-6
 72
1
 11
1155.0
 21
-445.5
 31
0.0
100
AcDbText
  0
LINE
  5
BD
330
17
100
AcDbEntity
  8
0
 62
9
100
AcDbLine
 10
1260.0
 20
-297.0
 30
0.0
 11
1470.0
 21
-297.0
 31
0.0
  0
LINE
  5
BE
330
17
100
AcDbEntity
  8
0
 62
9
100
AcDbLine
 10
1260.0
 20
-594.0
 30
0.0
 11
1470.0
 21
-594.0
 31
0.0
  0
LINE
  5
BF
330
17
100
AcDbEntity
  8
0
 62
9
100
AcDbLine
 10
1260.0
 20
-297.0
 30
0.0
 11
1260.0
 21
-594.0
 31
0.0
  0
LINE
  5
C0
330
17
100
AcDbEntity
  8
0
 62
9
100
AcDbLine
 10
1470.0
 20
-297.0
 30
0.0
 11
1470.0
 21
-594.0
 31
0.0
  0
LINE
  5
C1
330
17
100
AcDbEntity
  8
0
 62
9
100
AcDbLine
 10
1340.0
 20
-420.5
 30
0.0
 11
1390.0
 21
-420.5
 31
0.0
  0
LINE
  5
C2
330
17
100
AcDbEntity
  8
0
 62
9
100
AcDbLine
 10
1390.0
 20
-470.5
 30
0.0
 11
1390.0
 21
-420.5
 31
0.0
  0
LINE
  5
C3
330
17
100
AcDbEntity
  8
0
 62
9
100
AcDbLine
 10
1340.0
 20
-420.5
 30
0.0
 11
1340.0
 21
-470.5
 31
0.0
  0
LINE
  5
C4
330
17
100
AcDbEntity
  8
0
 62
9
100
AcDbLine
 10
1340.0
 20
-470.5
 30
0.0
 11
1390.0
 21
-470.5
 31
0.0
  0
TEXT
  5
C5
330
17
100
AcDbEntity
  8
TEXTLAYER
 62
1
100
AcDbText
 10
1365.0
 20
-445.5
 30
0.0
 40
10.0
  1
2-7
 72
1
 11
1365.0
 21
-445.5
 31
0.0
100
AcDbText
  0
LINE
  5
C6
330
17
100
AcDbEntity
  8
0
 62
9
100
AcDbLine
 10
1470.0
 20
-297.0
 30
0.0
 11
1680.0
 21
-297.0
 31
0.0
  0
LINE
  5
C7
330
17
100
AcDbEntity
  8
0
 62
9
100
AcDbLine
 10
1470.0
 20
-594.0
 30
0.0
 11
1680.0
 21
-594.0
 31
0.0
  0
LINE
  5
C8
330
17
100
AcDbEntity
  8
0
 62
9
100
AcDbLine
 10
1470.0
 20
-297.0
 30
0.0
 11
1470.0
 21
-594.0
 31
0.0
  0
LINE
  5
C9
330
17
100
AcDbEntity
  8
0
 62
9
100
AcDbLine
 10
1680.0
 20
-297.0
 30
0.0
 11
1680.0
 21
-594.0
 31
0.0
  0
LINE
  5
CA
330
17
100
AcDbEntity
  8
0
 62
9
100
AcDbLine
 10
1550.0
 20
-420.5
 30
0.0
 11
1600.0
 21
-420.5
 31
0.0
  0
LINE
  5
CB
330
17
100
AcDbEntity
  8
0
 62
9
100
AcDbLine
 10
1600.0
 20
-470.5
 30
0.0
 11
1600.0
 21
-420.5
 31
0.0
  0
LINE
  5
CC
330
17
100
AcDbEntity
  8
0
 62
9
100
AcDbLine
 10
1550.0
 20
-420.5
 30
0.0
 11
1550.0
 21
-470.5
 31
0.0
  0
LINE
  5
CD
330
17
100
AcDbEntity
  8
0
 62
9
100
AcDbLine
 10
1550.0
 20
-470.5
 30
0.0
 11
1600.0
 21
-470.5
 31
0.0
  0
TEXT
  5
CE
330
17
100
AcDbEntity
  8
TEXTLAYER
 62
1
100
AcDbText
 10
1575.0
 20
-445.5
 30
0.0
 40
10.0
  1
2-8
 72
1
 11
1575.0
 21
-445.5
 31
0.0
100
AcDbText
  0
LINE
  5
CF
330
17
100
AcDbEntity
  8
0
 62
9
100
AcDbLine
 10
1680.0
 20
-297.0
 30
0.0
 11
1890.0
 21
-297.0
 31
0.0
  0
LINE
  5
D0
330
17
100
AcDbEntity
  8
0
 62
9
100
AcDbLine
 10
1680.0
 20
-594.0
 30
0.0
 11
1890.0
 21
-594.0
 31
0.0
  0
LINE
  5
D1
330
17
100
AcDbEntity
  8
0
 62
9
100
AcDbLine
 10
1680.0
 20
-297.0
 30
0.0
 11
1680.0
 21
-594.0
 31
0.0
  0
LINE
  5
D2
330
17
100
AcDbEntity
  8
0
 62
9
100
AcDbLine
 10
1890.0
 20
-297.0
 30
0.0
 11
1890.0
 21
-594.0
 31
0.0
  0
LINE
  5
D3
330
17
100
AcDbEntity
  8
0
 62
9
100
AcDbLine
 10
1760.0
 20
-420.5
 30
0.0
 11
1810.0
 21
-420.5
 31
0.0
  0
LINE
  5
D4
330
17
100
AcDbEntity
  8
0
 62
9
100
AcDbLine
 10
1810.0
 20
-470.5
 30
0.0
 11
1810.0
 21
-420.5
 31
0.0
  0
LINE
  5
D5
330
17
100
AcDbEntity
  8
0
 62
9
100
AcDbLine
 10
1760.0
 20
-420.5
 30
0.0
 11
1760.0
 21
-470.5
 31
0.0
  0
LINE
  5
D6
330
17
100
AcDbEntity
  8
0
 62
9
100
AcDbLine
 10
1760.0
 20
-470.5
 30
0.0
 11
1810.0
 21
-470.5
 31
0.0
  0
TEXT
  5
D7
330
17
100
AcDbEntity
  8
TEXTLAYER
 62
1
100
AcDbText
 10
1785.0
 20
-445.5
 30
0.0
 40
10.0
  1
2-9
 72
1
 11
1785.0
 21
-445.5
 31
0.0
100
AcDbText
  0
LINE
  5
D8
330
17
100
AcDbEntity
  8
0
 62
9
100
AcDbLine
 10
1890.0
 20
-297.0
 30
0.0
 11
2100.0
 21
-297.0
 31
0.0
  0
LINE
  5
D9
330
17
100
AcDbEntity
  8
0
 62
9
100
AcDbLine
 10
1890.0
 20
-594.0
 30
0.0
 11
2100.0
 21
-594.0
 31
0.0
  0
LINE
  5
DA
330
17
100
AcDbEntity
  8
0
 62
9
100
AcDbLine
 10
1890.0
 20
-297.0
 30
0.0
 11
1890.0
 21
-594.0
 31
0.0
  0
LINE
  5
DB
330
17
100
AcDbEntity
  8
0
 62
9
100
AcDbLine
 10
2100.0
 20
-297.0
 30
0.0
 11
2100.0
 21
-594.0
 31
0.0
  0
LINE
  5
DC
330
17
100
AcDbEntity
  8
0
 62
9
100
AcDbLine
 10
1970.0
 20
-420.5
 30
0.0
 11
2020.0
 21
-420.5
 31
0.0
  0
LINE
  5
DD
330
17
100
AcDbEntity
  8
0
 62
9
100
AcDbLine
 10
2020.0
 20
-470.5
 30
0.0
 11
2020.0
 21
-420.5
 31
0.0
  0
LINE
  5
DE
330
17
100
AcDbEntity
  8
0
 62
9
100
AcDbLine
 10
1970.0
 20
-420.5
 30
0.0
 11
1970.0
 21
-470.5
 31
0.0
  0
LINE
  5
DF
330
17
100
AcDbEntity
  8
0
 62
9
100
AcDbLine
 10
1970.0
 20
-470.5
 30
0.0
 11
2020.0
 21
-470.5
 31
0.0
  0
TEXT
  5
E0
330
17
100
AcDbEntity
  8
TEXTLAYER
 62
1
100
AcDbText
 10
1995.0
 20
-445.5
 30
0.0
 40
10.0
  1
2-10
 72
1
 11
1995.0
 21
-445.5
 31
0.0
100
AcDbText
  0
LINE
  5
E1
330
17
100
AcDbEntity
  8
0
 62
9
100
AcDbLine
 10
0.0
 20
-594.0
 30
0.0
 11
210.0
 21
-594.0
 31
0.0
  0
LINE
  5
E2
330
17
100
AcDbEntity
  8
0
 62
9
100
AcDbLine
 10
0.0
 20
-891.0
 30
0.0
 11
210.0
 21
-891.0
 31
0.0
  0
LINE
  5
E3
330
17
100
AcDbEntity
  8
0
 62
9
100
AcDbLine
 10
0.0
 20
-594.0
 30
0.0
 11
0.0
 21
-891.0
 31
0.0
  0
LINE
  5
E4
330
17
100
AcDbEntity
  8
0
 62
9
100
AcDbLine
 10
210.0
 20
-594.0
 30
0.0
 11
210.0
 21
-891.0
 31
0.0
  0
LINE
  5
E5
330
17
100
AcDbEntity
  8
0
 62
9
100
AcDbLine
 10
80.0
 20
-717.5
 30
0.0
 11
130.0
 21
-717.5
 31
0.0
  0
LINE
  5
E6
330
17
100
AcDbEntity
  8
0
 62
9
100
AcDbLine
 10
130.0
 20
-767.5
 30
0.0
 11
130.0
 21
-717.5
 31
0.0
  0
LINE
  5
E7
330
17
100
AcDbEntity
  8
0
 62
9
100
AcDbLine
 10
80.0
 20
-717.5
 30
0.0
 11
80.0
 21
-767.5
 31
0.0
  0
LINE
  5
E8
330
17
100
AcDbEntity
  8
0
 62
9
100
AcDbLine
 10
80.0
 20
-767.5
 30
0.0
 11
130.0
 21
-767.5
 31
0.0
  0
TEXT
  5
E9
330
17
100
AcDbEntity
  8
TEXTLAYER
 62
1
100
AcDbText
 10
105.0
 20
-742.5
 30
0.0
 40
10.0
  1
3-1
 72
1
 11
105.0
 21
-742.5
 31
0.0
100
AcDbText
  0
LINE
  5
EA
330
17
100
AcDbEntity
  8
0
 62
9
100
AcDbLine
 10
210.0
 20
-594.0
 30
0.0
 11
420.0
 21
-594.0
 31
0.0
  0
LINE
  5
EB
330
17
100
AcDbEntity
  8
0
 62
9
100
AcDbLine
 10
210.0
 20
-891.0
 30
0.0
 11
420.0
 21
-891.0
 31
0.0
  0
LINE
  5
EC
330
17
100
AcDbEntity
  8
0
 62
9
100
AcDbLine
 10
210.0
 20
-594.0
 30
0.0
 11
210.0
 21
-891.0
 31
0.0
  0
LINE
  5
ED
330
17
100
AcDbEntity
  8
0
 62
9
100
AcDbLine
 10
420.0
 20
-594.0
 30
0.0
 11
420.0
 21
-891.0
 31
0.0
  0
LINE
  5
EE
330
17
100
AcDbEntity
  8
0
 62
9
100
AcDbLine
 10
290.0
 20
-717.5
 30
0.0
 11
340.0
 21
-717.5
 31
0.0
  0
LINE
  5
EF
330
17
100
AcDbEntity
  8
0
 62
9
100
AcDbLine
 10
340.0
 20
-767.5
 30
0.0
 11
340.0
 21
-717.5
 31
0.0
  0
LINE
  5
F0
330
17
100
AcDbEntity
  8
0
 62
9
100
AcDbLine
 10
290.0
 20
-717.5
 30
0.0
 11
290.0
 21
-767.5
 31
0.0
  0
LINE
  5
F1
330
17
100
AcDbEntity
  8
0
 62
9
100
AcDbLine
 10
290.0
 20
-767.5
 30
0.0
 11
340.0
 21
-767.5
 31
0.0
  0
TEXT
  5
F2
330
17
100
AcDbEntity
  8
TEXTLAYER
 62
1
100
AcDbText
 10
315.0
 20
-742.5
 30
0.0
 40
10.0
  1
3-2
 72
1
 11
315.0
 21
-742.5
 31
0.0
100
AcDbText
  0
LINE
  5
F3
330
17
100
AcDbEntity
  8
0
 62
9
100
AcDbLine
 10
420.0
 20
-594.0
 30
0.0
 11
630.0
 21
-594.0
 31
0.0
  0
LINE
  5
F4
330
17
100
AcDbEntity
  8
0
 62
9
100
AcDbLine
 10
420.0
 20
-891.0
 30
0.0
 11
630.0
 21
-891.0
 31
0.0
  0
LINE
  5
F5
330
17
100
AcDbEntity
  8
0
 62
9
100
AcDbLine
 10
420.0
 20
-594.0
 30
0.0
 11
420.0
 21
-891.0
 31
0.0
  0
LINE
  5
F6
330
17
100
AcDbEntity
  8
0
 62
9
100
AcDbLine
 10
630.0
 20
-594.0
 30
0.0
 11
630.0
 21
-891.0
 31
0.0
  0
LINE
  5
F7
330
17
100
AcDbEntity
  8
0
 62
9
100
AcDbLine
 10
500.0
 20
-717.5
 30
0.0
 11
550.0
 21
-717.5
 31
0.0
  0
LINE
  5
F8
330
17
100
AcDbEntity
  8
0
 62
9
100
AcDbLine
 10
550.0
 20
-767.5
 30
0.0
 11
550.0
 21
-717.5
 31
0.0
  0
LINE
  5
F9
330
17
100
AcDbEntity
  8
0
 62
9
100
AcDbLine
 10
500.0
 20
-717.5
 30
0.0
 11
500.0
 21
-767.5
 31
0.0
  0
LINE
  5
FA
330
17
100
AcDbEntity
  8
0
 62
9
100
AcDbLine
 10
500.0
 20
-767.5
 30
0.0
 11
550.0
 21
-767.5
 31
0.0
  0
TEXT
  5
FB
330
17
100
AcDbEntity
  8
TEXTLAYER
 62
1
100
AcDbText
 10
525.0
 20
-742.5
 30
0.0
 40
10.0
  1
3-3
 72
1
 11
525.0
 21
-742.5
 31
0.0
100
AcDbText
  0
LINE
  5
FC
330
17
100
AcDbEntity
  8
0
 62
9
100
AcDbLine
 10
630.0
 20
-594.0
 30
0.0
 11
840.0
 21
-594.0
 31
0.0
  0
LINE
  5
FD
330
17
100
AcDbEntity
  8
0
 62
9
100
AcDbLine
 10
630.0
 20
-891.0
 30
0.0
 11
840.0
 21
-891.0
 31
0.0
  0
LINE
  5
FE
330
17
100
AcDbEntity
  8
0
 62
9
100
AcDbLine
 10
630.0
 20
-594.0
 30
0.0
 11
630.0
 21
-891.0
 31
0.0
  0
LINE
  5
FF
330
17
100
AcDbEntity
  8
0
 62
9
100
AcDbLine
 10
840.0
 20
-594.0
 30
0.0
 11
840.0
 21
-891.0
 31
0.0
  0
LINE
  5
100
330
17
100
AcDbEntity
  8
0
 62
9
100
AcDbLine
 10
710.0
 20
-717.5
 30
0.0
 11
760.0
 21
-717.5
 31
0.0
  0
LINE
  5
101
330
17
100
AcDbEntity
  8
0
 62
9
100
AcDbLine
 10
760.0
 20
-767.5
 30
0.0
 11
760.0
 21
-717.5
 31
0.0
  0
LINE
  5
102
330
17
100
AcDbEntity
  8
0
 62
9
100
AcDbLine
 10
710.0
 20
-717.5
 30
0.0
 11
710.0
 21
-767.5
 31
0.0
  0
LINE
  5
103
330
17
100
AcDbEntity
  8
0
 62
9
100
AcDbLine
 10
710.0
 20
-767.5
 30
0.0
 11
760.0
 21
-767.5
 31
0.0
  0
TEXT
  5
104
330
17
100
AcDbEntity
  8
TEXTLAYER
 62
1
100
AcDbText
 10
735.0
 20
-742.5
 30
0.0
 40
10.0
  1
3-4
 72
1
 11
735.0
 21
-742.5
 31
0.0
100
AcDbText
  0
LINE
  5
105
330
17
100
AcDbEntity
  8
0
 62
9
100
AcDbLine
 10
840.0
 20
-594.0
 30
0.0
 11
1050.0
 21
-594.0
 31
0.0
  0
LINE
  5
106
330
17
100
AcDbEntity
  8
0
 62
9
100
AcDbLine
 10
840.0
 20
-891.0
 30
0.0
 11
1050.0
 21
-891.0
 31
0.0
  0
LINE
  5
107
330
17
100
AcDbEntity
  8
0
 62
9
100
AcDbLine
 10
840.0
 20
-594.0
 30
0.0
 11
840.0
 21
-891.0
 31
0.0
  0
LINE
  5
108
330
17
100
AcDbEntity
  8
0
 62
9
100
AcDbLine
 10
1050.0
 20
-594.0
 30
0.0
 11
1050.0
 21
-891.0
 31
0.0
  0
LINE
  5
109
330
17
100
AcDbEntity
  8
0
 62
9
100
AcDbLine
 10
920.0
 20
-717.5
 30
0.0
 11
970.0
 21
-717.5
 31
0.0
  0
LINE
  5
10A
330
17
100
AcDbEntity
  8
0
 62
9
100
AcDbLine
 10
970.0
 20
-767.5
 30
0.0
 11
970.0
 21
-717.5
 31
0.0
  0
LINE
  5
10B
330
17
100
AcDbEntity
  8
0
 62
9
100
AcDbLine
 10
920.0
 20
-717.5
 30
0.0
 11
920.0
 21
-767.5
 31
0.0
  0
LINE
  5
10C
330
17
100
AcDbEntity
  8
0
 62
9
100
AcDbLine
 10
920.0
 20
-767.5
 30
0.0
 11
970.0
 21
-767.5
 31
0.0
  0
TEXT
  5
10D
330
17
100
AcDbEntity
  8
TEXTLAYER
 62
1
100
AcDbText
 10
945.0
 20
-742.5
 30
0.0
 40
10.0
  1
3-5
 72
1
 11
945.0
 21
-742.5
 31
0.0
100
AcDbText
  0
LINE
  5
10E
330
17
100
AcDbEntity
  8
0
 62
9
100
AcDbLine
 10
1050.0
 20
-594.0
 30
0.0
 11
1260.0
 21
-594.0
 31
0.0
  0
LINE
  5
10F
330
17
100
AcDbEntity
  8
0
 62
9
100
AcDbLine
 10
1050.0
 20
-891.0
 30
0.0
 11
1260.0
 21
-891.0
 31
0.0
  0
LINE
  5
110
330
17
100
AcDbEntity
  8
0
 62
9
100
AcDbLine
 10
1050.0
 20
-594.0
 30
0.0
 11
1050.0
 21
-891.0
 31
0.0
  0
LINE
  5
111
330
17
100
AcDbEntity
  8
0
 62
9
100
AcDbLine
 10
1260.0
 20
-594.0
 30
0.0
 11
1260.0
 21
-891.0
 31
0.0
  0
LINE
  5
112
330
17
100
AcDbEntity
  8
0
 62
9
100
AcDbLine
 10
1130.0
 20
-717.5
 30
0.0
 11
1180.0
 21
-717.5
 31
0.0
  0
LINE
  5
113
330
17
100
AcDbEntity
  8
0
 62
9
100
AcDbLine
 10
1180.0
 20
-767.5
 30
0.0
 11
1180.0
 21
-717.5
 31
0.0
  0
LINE
  5
114
330
17
100
AcDbEntity
  8
0
 62
9
100
AcDbLine
 10
1130.0
 20
-717.5
 30
0.0
 11
1130.0
 21
-767.5
 31
0.0
  0
LINE
  5
115
330
17
100
AcDbEntity
  8
0
 62
9
100
AcDbLine
 10
1130.0
 20
-767.5
 30
0.0
 11
1180.0
 21
-767.5
 31
0.0
  0
TEXT
  5
116
330
17
100
AcDbEntity
  8
TEXTLAYER
 62
1
100
AcDbText
 10
1155.0
 20
-742.5
 30
0.0
 40
10.0
  1
3-6
 72
1
 11
1155.0
 21
-742.5
 31
0.0
100
AcDbText
  0
LINE
  5
117
330
17
100
AcDbEntity
  8
0
 62
9
100
AcDbLine
 10
1260.0
 20
-594.0
 30
0.0
 11
1470.0
 21
-594.0
 31
0.0
  0
LINE
  5
118
330
17
100
AcDbEntity
  8
0
 62
9
100
AcDbLine
 10
1260.0
 20
-891.0
 30
0.0
 11
1470.0
 21
-891.0
 31
0.0
  0
LINE
  5
119
330
17
100
AcDbEntity
  8
0
 62
9
100
AcDbLine
 10
1260.0
 20
-594.0
 30
0.0
 11
1260.0
 21
-891.0
 31
0.0
  0
LINE
  5
11A
330
17
100
AcDbEntity
  8
0
 62
9
100
AcDbLine
 10
1470.0
 20
-594.0
 30
0.0
 11
1470.0
 21
-891.0
 31
0.0
  0
LINE
  5
11B
330
17
100
AcDbEntity
  8
0
 62
9
100
AcDbLine
 10
1340.0
 20
-717.5
 30
0.0
 11
1390.0
 21
-717.5
 31
0.0
  0
LINE
  5
11C
330
17
100
AcDbEntity
  8
0
 62
9
100
AcDbLine
 10
1390.0
 20
-767.5
 30
0.0
 11
1390.0
 21
-717.5
 31
0.0
  0
LINE
  5
11D
330
17
100
AcDbEntity
  8
0
 62
9
100
AcDbLine
 10
1340.0
 20
-717.5
 30
0.0
 11
1340.0
 21
-767.5
 31
0.0
  0
LINE
  5
11E
330
17
100
AcDbEntity
  8
0
 62
9
100
AcDbLine
 10
1340.0
 20
-767.5
 30
0.0
 11
1390.0
 21
-767.5
 31
0.0
  0
TEXT
  5
11F
330
17
100
AcDbEntity
  8
TEXTLAYER
 62
1
100
AcDbText
 10
1365.0
 20
-742.5
 30
0.0
 40
10.0
  1
3-7
 72
1
 11
1365.0
 21
-742.5
 31
0.0
100
AcDbText
  0
LINE
  5
120
330
17
100
AcDbEntity
  8
0
 62
9
100
AcDbLine
 10
1470.0
 20
-594.0
 30
0.0
 11
1680.0
 21
-594.0
 31
0.0
  0
LINE
  5
121
330
17
100
AcDbEntity
  8
0
 62
9
100
AcDbLine
 10
1470.0
 20
-891.0
 30
0.0
 11
1680.0
 21
-891.0
 31
0.0
  0
LINE
  5
122
330
17
100
AcDbEntity
  8
0
 62
9
100
AcDbLine
 10
1470.0
 20
-594.0
 30
0.0
 11
1470.0
 21
-891.0
 31
0.0
  0
LINE
  5
123
330
17
100
AcDbEntity
  8
0
 62
9
100
AcDbLine
 10
1680.0
 20
-594.0
 30
0.0
 11
1680.0
 21
-891.0
 31
0.0
  0
LINE
  5
124
330
17
100
AcDbEntity
  8
0
 62
9
100
AcDbLine
 10
1550.0
 20
-717.5
 30
0.0
 11
1600.0
 21
-717.5
 31
0.0
  0
LINE
  5
125
330
17
100
AcDbEntity
  8
0
 62
9
100
AcDbLine
 10
1600.0
 20
-767.5
 30
0.0
 11
1600.0
 21
-717.5
 31
0.0
  0
LINE
  5
126
330
17
100
AcDbEntity
  8
0
 62
9
100
AcDbLine
 10
1550.0
 20
-717.5
 30
0.0
 11
1550.0
 21
-767.5
 31
0.0
  0
LINE
  5
127
330
17
100
AcDbEntity
  8
0
 62
9
100
AcDbLine
 10
1550.0
 20
-767.5
 30
0.0
 11
1600.0
 21
-767.5
 31
0.0
  0
TEXT
  5
128
330
17
100
AcDbEntity
  8
TEXTLAYER
 62
1
100
AcDbText
 10
1575.0
 20
-742.5
 30
0.0
 40
10.0
  1
3-8
 72
1
 11
1575.0
 21
-742.5
 31
0.0
100
AcDbText
  0
LINE
  5
129
330
17
100
AcDbEntity
  8
0
 62
9
100
AcDbLine
 10
1680.0
 20
-594.0
 30
0.0
 11
1890.0
 21
-594.0
 31
0.0
  0
LINE
  5
12A
330
17
100
AcDbEntity
  8
0
 62
9
100
AcDbLine
 10
1680.0
 20
-891.0
 30
0.0
 11
1890.0
 21
-891.0
 31
0.0
  0
LINE
  5
12B
330
17
100
AcDbEntity
  8
0
 62
9
100
AcDbLine
 10
1680.0
 20
-594.0
 30
0.0
 11
1680.0
 21
-891.0
 31
0.0
  0
LINE
  5
12C
330
17
100
AcDbEntity
  8
0
 62
9
100
AcDbLine
 10
1890.0
 20
-594.0
 30
0.0
 11
1890.0
 21
-891.0
 31
0.0
  0
LINE
  5
12D
330
17
100
AcDbEntity
  8
0
 62
9
100
AcDbLine
 10
1760.0
 20
-717.5
 30
0.0
 11
1810.0
 21
-717.5
 31
0.0
  0
LINE
  5
12E
330
17
100
AcDbEntity
  8
0
 62
9
100
AcDbLine
 10
1810.0
 20
-767.5
 30
0.0
 11
1810.0
 21
-717.5
 31
0.0
  0
LINE
  5
12F
330
17
100
AcDbEntity
  8
0
 62
9
100
AcDbLine
 10
1760.0
 20
-717.5
 30
0.0
 11
1760.0
 21
-767.5
 31
0.0
  0
LINE
  5
130
330
17
100
AcDbEntity
  8
0
 62
9
100
AcDbLine
 10
1760.0
 20
-767.5
 30
0.0
 11
1810.0
 21
-767.5
 31
0.0
  0
TEXT
  5
131
330
17
100
AcDbEntity
  8
TEXTLAYER
 62
1
100
AcDbText
 10
1785.0
 20
-742.5
 30
0.0
 40
10.0
  1
3-9
 72
1
 11
1785.0
 21
-742.5
 31
0.0
100
AcDbText
  0
LINE
  5
132
330
17
100
AcDbEntity
  8
0
 62
9
100
AcDbLine
 10
1890.0
 20
-594.0
 30
0.0
 11
2100.0
 21
-594.0
 31
0.0
  0
LINE
  5
133
330
17
100
AcDbEntity
  8
0
 62
9
100
AcDbLine
 10
1890.0
 20
-891.0
 30
0.0
 11
2100.0
 21
-891.0
 31
0.0
  0
LINE
  5
134
330
17
100
AcDbEntity
  8
0
 62
9
100
AcDbLine
 10
1890.0
 20
-594.0
 30
0.0
 11
1890.0
 21
-891.0
 31
0.0
  0
LINE
  5
135
330
17
100
AcDbEntity
  8
0
 62
9
100
AcDbLine
 10
2100.0
 20
-594.0
 30
0.0
 11
2100.0
 21
-891.0
 31
0.0
  0
LINE
  5
136
330
17
100
AcDbEntity
  8
0
 62
9
100
AcDbLine
 10
1970.0
 20
-717.5
 30
0.0
 11
2020.0
 21
-717.5
 31
0.0
  0
LINE
  5
137
330
17
100
AcDbEntity
  8
0
 62
9
100
AcDbLine
 10
2020.0
 20
-767.5
 30
0.0
 11
2020.0
 21
-717.5
 31
0.0
  0
LINE
  5
138
330
17
100
AcDbEntity
  8
0
 62
9
100
AcDbLine
 10
1970.0
 20
-717.5
 30
0.0
 11
1970.0
 21
-767.5
 31
0.0
  0
LINE
  5
139
330
17
100
AcDbEntity
  8
0
 62
9
100
AcDbLine
 10
1970.0
 20
-767.5
 30
0.0
 11
2020.0
 21
-767.5
 31
0.0
  0
TEXT
  5
13A
330
17
100
AcDbEntity
  8
TEXTLAYER
 62
1
100
AcDbText
 10
1995.0
 20
-742.5
 30
0.0
 40
10.0
  1
3-10
 72
1
 11
1995.0
 21
-742.5
 31
0.0
100
AcDbText
  0
LINE
  5
13B
330
17
100
AcDbEntity
  8
0
 62
9
100
AcDbLine
 10
0.0
 20
-891.0
 30
0.0
 11
210.0
 21
-891.0
 31
0.0
  0
LINE
  5
13C
330
17
100
AcDbEntity
  8
0
 62
9
100
AcDbLine
 10
0.0
 20
-1188.0
 30
0.0
 11
210.0
 21
-1188.0
 31
0.0
  0
LINE
  5
13D
330
17
100
AcDbEntity
  8
0
 62
9
100
AcDbLine
 10
0.0
 20
-891.0
 30
0.0
 11
0.0
 21
-1188.0
 31
0.0
  0
LINE
  5
13E
330
17
100
AcDbEntity
  8
0
 62
9
100
AcDbLine
 10
210.0
 20
-891.0
 30
0.0
 11
210.0
 21
-1188.0
 31
0.0
  0
LINE
  5
13F
330
17
100
AcDbEntity
  8
0
 62
9
100
AcDbLine
 10
80.0
 20
-1014.5
 30
0.0
 11
130.0
 21
-1014.5
 31
0.0
  0
LINE
  5
140
330
17
100
AcDbEntity
  8
0
 62
9
100
AcDbLine
 10
130.0
 20
-1064.5
 30
0.0
 11
130.0
 21
-1014.5
 31
0.0
  0
LINE
  5
141
330
17
100
AcDbEntity
  8
0
 62
9
100
AcDbLine
 10
80.0
 20
-1014.5
 30
0.0
 11
80.0
 21
-1064.5
 31
0.0
  0
LINE
  5
142
330
17
100
AcDbEntity
  8
0
 62
9
100
AcDbLine
 10
80.0
 20
-1064.5
 30
0.0
 11
130.0
 21
-1064.5
 31
0.0
  0
TEXT
  5
143
330
17
100
AcDbEntity
  8
TEXTLAYER
 62
1
100
AcDbText
 10
105.0
 20
-1039.5
 30
0.0
 40
10.0
  1
4-1
 72
1
 11
105.0
 21
-1039.5
 31
0.0
100
AcDbText
  0
LINE
  5
144
330
17
100
AcDbEntity
  8
0
 62
9
100
AcDbLine
 10
210.0
 20
-891.0
 30
0.0
 11
420.0
 21
-891.0
 31
0.0
  0
LINE
  5
145
330
17
100
AcDbEntity
  8
0
 62
9
100
AcDbLine
 10
210.0
 20
-1188.0
 30
0.0
 11
420.0
 21
-1188.0
 31
0.0
  0
LINE
  5
146
330
17
100
AcDbEntity
  8
0
 62
9
100
AcDbLine
 10
210.0
 20
-891.0
 30
0.0
 11
210.0
 21
-1188.0
 31
0.0
  0
LINE
  5
147
330
17
100
AcDbEntity
  8
0
 62
9
100
AcDbLine
 10
420.0
 20
-891.0
 30
0.0
 11
420.0
 21
-1188.0
 31
0.0
  0
LINE
  5
148
330
17
100
AcDbEntity
  8
0
 62
9
100
AcDbLine
 10
290.0
 20
-1014.5
 30
0.0
 11
340.0
 21
-1014.5
 31
0.0
  0
LINE
  5
149
330
17
100
AcDbEntity
  8
0
 62
9
100
AcDbLine
 10
340.0
 20
-1064.5
 30
0.0
 11
340.0
 21
-1014.5
 31
0.0
  0
LINE
  5
14A
330
17
100
AcDbEntity
  8
0
 62
9
100
AcDbLine
 10
290.0
 20
-1014.5
 30
0.0
 11
290.0
 21
-1064.5
 31
0.0
  0
LINE
  5
14B
330
17
100
AcDbEntity
  8
0
 62
9
100
AcDbLine
 10
290.0
 20
-1064.5
 30
0.0
 11
340.0
 21
-1064.5
 31
0.0
  0
TEXT
  5
14C
330
17
100
AcDbEntity
  8
TEXTLAYER
 62
1
100
AcDbText
 10
315.0
 20
-1039.5
 30
0.0
 40
10.0
  1
4-2
 72
1
 11
315.0
 21
-1039.5
 31
0.0
100
AcDbText
  0
LINE
  5
14D
330
17
100
AcDbEntity
  8
0
 62
9
100
AcDbLine
 10
420.0
 20
-891.0
 30
0.0
 11
630.0
 21
-891.0
 31
0.0
  0
LINE
  5
14E
330
17
100
AcDbEntity
  8
0
 62
9
100
AcDbLine
 10
420.0
 20
-1188.0
 30
0.0
 11
630.0
 21
-1188.0
 31
0.0
  0
LINE
  5
14F
330
17
100
AcDbEntity
  8
0
 62
9
100
AcDbLine
 10
420.0
 20
-891.0
 30
0.0
 11
420.0
 21
-1188.0
 31
0.0
  0
LINE
  5
150
330
17
100
AcDbEntity
  8
0
 62
9
100
AcDbLine
 10
630.0
 20
-891.0
 30
0.0
 11
630.0
 21
-1188.0
 31
0.0
  0
LINE
  5
151
330
17
100
AcDbEntity
  8
0
 62
9
100
AcDbLine
 10
500.0
 20
-1014.5
 30
0.0
 11
550.0
 21
-1014.5
 31
0.0
  0
LINE
  5
152
330
17
100
AcDbEntity
  8
0
 62
9
100
AcDbLine
 10
550.0
 20
-1064.5
 30
0.0
 11
550.0
 21
-1014.5
 31
0.0
  0
LINE
  5
153
330
17
100
AcDbEntity
  8
0
 62
9
100
AcDbLine
 10
500.0
 20
-1014.5
 30
0.0
 11
500.0
 21
-1064.5
 31
0.0
  0
LINE
  5
154
330
17
100
AcDbEntity
  8
0
 62
9
100
AcDbLine
 10
500.0
 20
-1064.5
 30
0.0
 11
550.0
 21
-1064.5
 31
0.0
  0
TEXT
  5
155
330
17
100
AcDbEntity
  8
TEXTLAYER
 62
1
100
AcDbText
 10
525.0
 20
-1039.5
 30
0.0
 40
10.0
  1
4-3
 72
1
 11
525.0
 21
-1039.5
 31
0.0
100
AcDbText
  0
LINE
  5
156
330
17
100
AcDbEntity
  8
0
 62
9
100
AcDbLine
 10
630.0
 20
-891.0
 30
0.0
 11
840.0
 21
-891.0
 31
0.0
  0
LINE
  5
157
330
17
100
AcDbEntity
  8
0
 62
9
100
AcDbLine
 10
630.0
 20
-1188.0
 30
0.0
 11
840.0
 21
-1188.0
 31
0.0
  0
LINE
  5
158
330
17
100
AcDbEntity
  8
0
 62
9
100
AcDbLine
 10
630.0
 20
-891.0
 30
0.0
 11
630.0
 21
-1188.0
 31
0.0
  0
LINE
  5
159
330
17
100
AcDbEntity
  8
0
 62
9
100
AcDbLine
 10
840.0
 20
-891.0
 30
0.0
 11
840.0
 21
-1188.0
 31
0.0
  0
LINE
  5
15A
330
17
100
AcDbEntity
  8
0
 62
9
100
AcDbLine
 10
710.0
 20
-1014.5
 30
0.0
 11
760.0
 21
-1014.5
 31
0.0
  0
LINE
  5
15B
330
17
100
AcDbEntity
  8
0
 62
9
100
AcDbLine
 10
760.0
 20
-1064.5
 30
0.0
 11
760.0
 21
-1014.5
 31
0.0
  0
LINE
  5
15C
330
17
100
AcDbEntity
  8
0
 62
9
100
AcDbLine
 10
710.0
 20
-1014.5
 30
0.0
 11
710.0
 21
-1064.5
 31
0.0
  0
LINE
  5
15D
330
17
100
AcDbEntity
  8
0
 62
9
100
AcDbLine
 10
710.0
 20
-1064.5
 30
0.0
 11
760.0
 21
-1064.5
 31
0.0
  0
TEXT
  5
15E
330
17
100
AcDbEntity
  8
TEXTLAYER
 62
1
100
AcDbText
 10
735.0
 20
-1039.5
 30
0.0
 40
10.0
  1
4-4
 72
1
 11
735.0
 21
-1039.5
 31
0.0
100
AcDbText
  0
LINE
  5
15F
330
17
100
AcDbEntity
  8
0
 62
9
100
AcDbLine
 10
840.0
 20
-891.0
 30
0.0
 11
1050.0
 21
-891.0
 31
0.0
  0
LINE
  5
160
330
17
100
AcDbEntity
  8
0
 62
9
100
AcDbLine
 10
840.0
 20
-1188.0
 30
0.0
 11
1050.0
 21
-1188.0
 31
0.0
  0
LINE
  5
161
330
17
100
AcDbEntity
  8
0
 62
9
100
AcDbLine
 10
840.0
 20
-891.0
 30
0.0
 11
840.0
 21
-1188.0
 31
0.0
  0
LINE
  5
162
330
17
100
AcDbEntity
  8
0
 62
9
100
AcDbLine
 10
1050.0
 20
-891.0
 30
0.0
 11
1050.0
 21
-1188.0
 31
0.0
  0
LINE
  5
163
330
17
100
AcDbEntity
  8
0
 62
9
100
AcDbLine
 10
920.0
 20
-1014.5
 30
0.0
 11
970.0
 21
-1014.5
 31
0.0
  0
LINE
  5
164
330
17
100
AcDbEntity
  8
0
 62
9
100
AcDbLine
 10
970.0
 20
-1064.5
 30
0.0
 11
970.0
 21
-1014.5
 31
0.0
  0
LINE
  5
165
330
17
100
AcDbEntity
  8
0
 62
9
100
AcDbLine
 10
920.0
 20
-1014.5
 30
0.0
 11
920.0
 21
-1064.5
 31
0.0
  0
LINE
  5
166
330
17
100
AcDbEntity
  8
0
 62
9
100
AcDbLine
 10
920.0
 20
-1064.5
 30
0.0
 11
970.0
 21
-1064.5
 31
0.0
  0
TEXT
  5
167
330
17
100
AcDbEntity
  8
TEXTLAYER
 62
1
100
AcDbText
 10
945.0
 20
-1039.5
 30
0.0
 40
10.0
  1
4-5
 72
1
 11
945.0
 21
-1039.5
 31
0.0
100
AcDbText
  0
LINE
  5
168
330
17
100
AcDbEntity
  8
0
 62
9
100
AcDbLine
 10
1050.0
 20
-891.0
 30
0.0
 11
1260.0
 21
-891.0
 31
0.0
  0
LINE
  5
169
330
17
100
AcDbEntity
  8
0
 62
9
100
AcDbLine
 10
1050.0
 20
-1188.0
 30
0.0
 11
1260.0
 21
-1188.0
 31
0.0
  0
LINE
  5
16A
330
17
100
AcDbEntity
  8
0
 62
9
100
AcDbLine
 10
1050.0
 20
-891.0
 30
0.0
 11
1050.0
 21
-1188.0
 31
0.0
  0
LINE
  5
16B
330
17
100
AcDbEntity
  8
0
 62
9
100
AcDbLine
 10
1260.0
 20
-891.0
 30
0.0
 11
1260.0
 21
-1188.0
 31
0.0
  0
LINE
  5
16C
330
17
100
AcDbEntity
  8
0
 62
9
100
AcDbLine
 10
1130.0
 20
-1014.5
 30
0.0
 11
1180.0
 21
-1014.5
 31
0.0
  0
LINE
  5
16D
330
17
100
AcDbEntity
  8
0
 62
9
100
AcDbLine
 10
1180.0
 20
-1064.5
 30
0.0
 11
1180.0
 21
-1014.5
 31
0.0
  0
LINE
  5
16E
330
17
100
AcDbEntity
  8
0
 62
9
100
AcDbLine
 10
1130.0
 20
-1014.5
 30
0.0
 11
1130.0
 21
-1064.5
 31
0.0
  0
LINE
  5
16F
330
17
100
AcDbEntity
  8
0
 62
9
100
AcDbLine
 10
1130.0
 20
-1064.5
 30
0.0
 11
1180.0
 21
-1064.5
 31
0.0
  0
TEXT
  5
170
330
17
100
AcDbEntity
  8
TEXTLAYER
 62
1
100
AcDbText
 10
1155.0
 20
-1039.5
 30
0.0
 40
10.0
  1
4-6
 72
1
 11
1155.0
 21
-1039.5
 31
0.0
100
AcDbText
  0
LINE
  5
171
330
17
100
AcDbEntity
  8
0
 62
9
100
AcDbLine
 10
1260.0
 20
-891.0
 30
0.0
 11
1470.0
 21
-891.0
 31
0.0
  0
LINE
  5
172
330
17
100
AcDbEntity
  8
0
 62
9
100
AcDbLine
 10
1260.0
 20
-1188.0
 30
0.0
 11
1470.0
 21
-1188.0
 31
0.0
  0
LINE
  5
173
330
17
100
AcDbEntity
  8
0
 62
9
100
AcDbLine
 10
1260.0
 20
-891.0
 30
0.0
 11
1260.0
 21
-1188.0
 31
0.0
  0
LINE
  5
174
330
17
100
AcDbEntity
  8
0
 62
9
100
AcDbLine
 10
1470.0
 20
-891.0
 30
0.0
 11
1470.0
 21
-1188.0
 31
0.0
  0
LINE
  5
175
330
17
100
AcDbEntity
  8
0
 62
9
100
AcDbLine
 10
1340.0
 20
-1014.5
 30
0.0
 11
1390.0
 21
-1014.5
 31
0.0
  0
LINE
  5
176
330
17
100
AcDbEntity
  8
0
 62
9
100
AcDbLine
 10
1390.0
 20
-1064.5
 30
0.0
 11
1390.0
 21
-1014.5
 31
0.0
  0
LINE
  5
177
330
17
100
AcDbEntity
  8
0
 62
9
100
AcDbLine
 10
1340.0
 20
-1014.5
 30
0.0
 11
1340.0
 21
-1064.5
 31
0.0
  0
LINE
  5
178
330
17
100
AcDbEntity
  8
0
 62
9
100
AcDbLine
 10
1340.0
 20
-1064.5
 30
0.0
 11
1390.0
 21
-1064.5
 31
0.0
  0
TEXT
  5
179
330
17
100
AcDbEntity
  8
TEXTLAYER
 62
1
100
AcDbText
 10
1365.0
 20
-1039.5
 30
0.0
 40
10.0
  1
4-7
 72
1
 11
1365.0
 21
-1039.5
 31
0.0
100
AcDbText
  0
LINE
  5
17A
330
17
100
AcDbEntity
  8
0
 62
9
100
AcDbLine
 10
1470.0
 20
-891.0
 30
0.0
 11
1680.0
 21
-891.0
 31
0.0
  0
LINE
  5
17B
330
17
100
AcDbEntity
  8
0
 62
9
100
AcDbLine
 10
1470.0
 20
-1188.0
 30
0.0
 11
1680.0
 21
-1188.0
 31
0.0
  0
LINE
  5
17C
330
17
100
AcDbEntity
  8
0
 62
9
100
AcDbLine
 10
1470.0
 20
-891.0
 30
0.0
 11
1470.0
 21
-1188.0
 31
0.0
  0
LINE
  5
17D
330
17
100
AcDbEntity
  8
0
 62
9
100
AcDbLine
 10
1680.0
 20
-891.0
 30
0.0
 11
1680.0
 21
-1188.0
 31
0.0
  0
LINE
  5
17E
330
17
100
AcDbEntity
  8
0
 62
9
100
AcDbLine
 10
1550.0
 20
-1014.5
 30
0.0
 11
1600.0
 21
-1014.5
 31
0.0
  0
LINE
  5
17F
330
17
100
AcDbEntity
  8
0
 62
9
100
AcDbLine
 10
1600.0
 20
-1064.5
 30
0.0
 11
1600.0
 21
-1014.5
 31
0.0
  0
LINE
  5
180
330
17
100
AcDbEntity
  8
0
 62
9
100
AcDbLine
 10
1550.0
 20
-1014.5
 30
0.0
 11
1550.0
 21
-1064.5
 31
0.0
  0
LINE
  5
181
330
17
100
AcDbEntity
  8
0
 62
9
100
AcDbLine
 10
1550.0
 20
-1064.5
 30
0.0
 11
1600.0
 21
-1064.5
 31
0.0
  0
TEXT
  5
182
330
17
100
AcDbEntity
  8
TEXTLAYER
 62
1
100
AcDbText
 10
1575.0
 20
-1039.5
 30
0.0
 40
10.0
  1
4-8
 72
1
 11
1575.0
 21
-1039.5
 31
0.0
100
AcDbText
  0
LINE
  5
183
330
17
100
AcDbEntity
  8
0
 62
9
100
AcDbLine
 10
1680.0
 20
-891.0
 30
0.0
 11
1890.0
 21
-891.0
 31
0.0
  0
LINE
  5
184
330
17
100
AcDbEntity
  8
0
 62
9
100
AcDbLine
 10
1680.0
 20
-1188.0
 30
0.0
 11
1890.0
 21
-1188.0
 31
0.0
  0
LINE
  5
185
330
17
100
AcDbEntity
  8
0
 62
9
100
AcDbLine
 10
1680.0
 20
-891.0
 30
0.0
 11
1680.0
 21
-1188.0
 31
0.0
  0
LINE
  5
186
330
17
100
AcDbEntity
  8
0
 62
9
100
AcDbLine
 10
1890.0
 20
-891.0
 30
0.0
 11
1890.0
 21
-1188.0
 31
0.0
  0
LINE
  5
187
330
17
100
AcDbEntity
  8
0
 62
9
100
AcDbLine
 10
1760.0
 20
-1014.5
 30
0.0
 11
1810.0
 21
-1014.5
 31
0.0
  0
LINE
  5
188
330
17
100
AcDbEntity
  8
0
 62
9
100
AcDbLine
 10
1810.0
 20
-1064.5
 30
0.0
 11
1810.0
 21
-1014.5
 31
0.0
  0
LINE
  5
189
330
17
100
AcDbEntity
  8
0
 62
9
100
AcDbLine
 10
1760.0
 20
-1014.5
 30
0.0
 11
1760.0
 21
-1064.5
 31
0.0
  0
LINE
  5
18A
330
17
100
AcDbEntity
  8
0
 62
9
100
AcDbLine
 10
1760.0
 20
-1064.5
 30
0.0
 11
1810.0
 21
-1064.5
 31
0.0
  0
TEXT
  5
18B
330
17
100
AcDbEntity
  8
TEXTLAYER
 62
1
100
AcDbText
 10
1785.0
 20
-1039.5
 30
0.0
 40
10.0
  1
4-9
 72
1
 11
1785.0
 21
-1039.5
 31
0.0
100
AcDbText
  0
LINE
  5
18C
330
17
100
AcDbEntity
  8
0
 62
9
100
AcDbLine
 10
1890.0
 20
-891.0
 30
0.0
 11
2100.0
 21
-891.0
 31
0.0
  0
LINE
  5
18D
330
17
100
AcDbEntity
  8
0
 62
9
100
AcDbLine
 10
1890.0
 20
-1188.0
 30
0.0
 11
2100.0
 21
-1188.0
 31
0.0
  0
LINE
  5
18E
330
17
100
AcDbEntity
  8
0
 62
9
100
AcDbLine
 10
1890.0
 20
-891.0
 30
0.0
 11
1890.0
 21
-1188.0
 31
0.0
  0
LINE
  5
18F
330
17
100
AcDbEntity
  8
0
 62
9
100
AcDbLine
 10
2100.0
 20
-891.0
 30
0.0
 11
2100.0
 21
-1188.0
 31
0.0
  0
LINE
  5
190
330
17
100
AcDbEntity
  8
0
 62
9
100
AcDbLine
 10
1970.0
 20
-1014.5
 30
0.0
 11
2020.0
 21
-1014.5
 31
0.0
  0
LINE
  5
191
330
17
100
AcDbEntity
  8
0
 62
9
100
AcDbLine
 10
2020.0
 20
-1064.5
 30
0.0
 11
2020.0
 21
-1014.5
 31
0.0
  0
LINE
  5
192
330
17
100
AcDbEntity
  8
0
 62
9
100
AcDbLine
 10
1970.0
 20
-1014.5
 30
0.0
 11
1970.0
 21
-1064.5
 31
0.0
  0
LINE
  5
193
330
17
100
AcDbEntity
  8
0
 62
9
100
AcDbLine
 10
1970.0
 20
-1064.5
 30
0.0
 11
2020.0
 21
-1064.5
 31
0.0
  0
TEXT
  5
194
330
17
100
AcDbEntity
  8
TEXTLAYER
 62
1
100
AcDbText
 10
1995.0
 20
-1039.5
 30
0.0
 40
10.0
  1
4-10
 72
1
 11
1995.0
 21
-1039.5
 31
0.0
100
AcDbText
  0
LINE
  5
195
330
17
100
AcDbEntity
  8
0
 62
9
100
AcDbLine
 10
0.0
 20
-1188.0
 30
0.0
 11
210.0
 21
-1188.0
 31
0.0
  0
LINE
  5
196
330
17
100
AcDbEntity
  8
0
 62
9
100
AcDbLine
 10
0.0
 20
-1485.0
 30
0.0
 11
210.0
 21
-1485.0
 31
0.0
  0
LINE
  5
197
330
17
100
AcDbEntity
  8
0
 62
9
100
AcDbLine
 10
0.0
 20
-1188.0
 30
0.0
 11
0.0
 21
-1485.0
 31
0.0
  0
LINE
  5
198
330
17
100
AcDbEntity
  8
0
 62
9
100
AcDbLine
 10
210.0
 20
-1188.0
 30
0.0
 11
210.0
 21
-1485.0
 31
0.0
  0
LINE
  5
199
330
17
100
AcDbEntity
  8
0
 62
9
100
AcDbLine
 10
80.0
 20
-1311.5
 30
0.0
 11
130.0
 21
-1311.5
 31
0.0
  0
LINE
  5
19A
330
17
100
AcDbEntity
  8
0
 62
9
100
AcDbLine
 10
130.0
 20
-1361.5
 30
0.0
 11
130.0
 21
-1311.5
 31
0.0
  0
LINE
  5
19B
330
17
100
AcDbEntity
  8
0
 62
9
100
AcDbLine
 10
80.0
 20
-1311.5
 30
0.0
 11
80.0
 21
-1361.5
 31
0.0
  0
LINE
  5
19C
330
17
100
AcDbEntity
  8
0
 62
9
100
AcDbLine
 10
80.0
 20
-1361.5
 30
0.0
 11
130.0
 21
-1361.5
 31
0.0
  0
TEXT
  5
19D
330
17
100
AcDbEntity
  8
TEXTLAYER
 62
1
100
AcDbText
 10
105.0
 20
-1336.5
 30
0.0
 40
10.0
  1
5-1
 72
1
 11
105.0
 21
-1336.5
 31
0.0
100
AcDbText
  0
LINE
  5
19E
330
17
100
AcDbEntity
  8
0
 62
9
100
AcDbLine
 10
210.0
 20
-1188.0
 30
0.0
 11
420.0
 21
-1188.0
 31
0.0
  0
LINE
  5
19F
330
17
100
AcDbEntity
  8
0
 62
9
100
AcDbLine
 10
210.0
 20
-1485.0
 30
0.0
 11
420.0
 21
-1485.0
 31
0.0
  0
LINE
  5
1A0
330
17
100
AcDbEntity
  8
0
 62
9
100
AcDbLine
 10
210.0
 20
-1188.0
 30
0.0
 11
210.0
 21
-1485.0
 31
0.0
  0
LINE
  5
1A1
330
17
100
AcDbEntity
  8
0
 62
9
100
AcDbLine
 10
420.0
 20
-1188.0
 30
0.0
 11
420.0
 21
-1485.0
 31
0.0
  0
LINE
  5
1A2
330
17
100
AcDbEntity
  8
0
 62
9
100
AcDbLine
 10
290.0
 20
-1311.5
 30
0.0
 11
340.0
 21
-1311.5
 31
0.0
  0
LINE
  5
1A3
330
17
100
AcDbEntity
  8
0
 62
9
100
AcDbLine
 10
340.0
 20
-1361.5
 30
0.0
 11
340.0
 21
-1311.5
 31
0.0
  0
LINE
  5
1A4
330
17
100
AcDbEntity
  8
0
 62
9
100
AcDbLine
 10
290.0
 20
-1311.5
 30
0.0
 11
290.0
 21
-1361.5
 31
0.0
  0
LINE
  5
1A5
330
17
100
AcDbEntity
  8
0
 62
9
100
AcDbLine
 10
290.0
 20
-1361.5
 30
0.0
 11
340.0
 21
-1361.5
 31
0.0
  0
TEXT
  5
1A6
330
17
100
AcDbEntity
  8
TEXTLAYER
 62
1
100
AcDbText
 10
315.0
 20
-1336.5
 30
0.0
 40
10.0
  1
5-2
 72
1
 11
315.0
 21
-1336.5
 31
0.0
100
AcDbText
  0
LINE
  5
1A7
330
17
100
AcDbEntity
  8
0
 62
9
100
AcDbLine
 10
420.0
 20
-1188.0
 30
0.0
 11
630.0
 21
-1188.0
 31
0.0
  0
LINE
  5
1A8
330
17
100
AcDbEntity
  8
0
 62
9
100
AcDbLine
 10
420.0
 20
-1485.0
 30
0.0
 11
630.0
 21
-1485.0
 31
0.0
  0
LINE
  5
1A9
330
17
100
AcDbEntity
  8
0
 62
9
100
AcDbLine
 10
420.0
 20
-1188.0
 30
0.0
 11
420.0
 21
-1485.0
 31
0.0
  0
LINE
  5
1AA
330
17
100
AcDbEntity
  8
0
 62
9
100
AcDbLine
 10
630.0
 20
-1188.0
 30
0.0
 11
630.0
 21
-1485.0
 31
0.0
  0
LINE
  5
1AB
330
17
100
AcDbEntity
  8
0
 62
9
100
AcDbLine
 10
500.0
 20
-1311.5
 30
0.0
 11
550.0
 21
-1311.5
 31
0.0
  0
LINE
  5
1AC
330
17
100
AcDbEntity
  8
0
 62
9
100
AcDbLine
 10
550.0
 20
-1361.5
 30
0.0
 11
550.0
 21
-1311.5
 31
0.0
  0
LINE
  5
1AD
330
17
100
AcDbEntity
  8
0
 62
9
100
AcDbLine
 10
500.0
 20
-1311.5
 30
0.0
 11
500.0
 21
-1361.5
 31
0.0
  0
LINE
  5
1AE
330
17
100
AcDbEntity
  8
0
 62
9
100
AcDbLine
 10
500.0
 20
-1361.5
 30
0.0
 11
550.0
 21
-1361.5
 31
0.0
  0
TEXT
  5
1AF
330
17
100
AcDbEntity
  8
TEXTLAYER
 62
1
100
AcDbText
 10
525.0
 20
-1336.5
 30
0.0
 40
10.0
  1
5-3
 72
1
 11
525.0
 21
-1336.5
 31
0.0
100
AcDbText
  0
LINE
  5
1B0
330
17
100
AcDbEntity
  8
0
 62
9
100
AcDbLine
 10
630.0
 20
-1188.0
 30
0.0
 11
840.0
 21
-1188.0
 31
0.0
  0
LINE
  5
1B1
330
17
100
AcDbEntity
  8
0
 62
9
100
AcDbLine
 10
630.0
 20
-1485.0
 30
0.0
 11
840.0
 21
-1485.0
 31
0.0
  0
LINE
  5
1B2
330
17
100
AcDbEntity
  8
0
 62
9
100
AcDbLine
 10
630.0
 20
-1188.0
 30
0.0
 11
630.0
 21
-1485.0
 31
0.0
  0
LINE
  5
1B3
330
17
100
AcDbEntity
  8
0
 62
9
100
AcDbLine
 10
840.0
 20
-1188.0
 30
0.0
 11
840.0
 21
-1485.0
 31
0.0
  0
LINE
  5
1B4
330
17
100
AcDbEntity
  8
0
 62
9
100
AcDbLine
 10
710.0
 20
-1311.5
 30
0.0
 11
760.0
 21
-1311.5
 31
0.0
  0
LINE
  5
1B5
330
17
100
AcDbEntity
  8
0
 62
9
100
AcDbLine
 10
760.0
 20
-1361.5
 30
0.0
 11
760.0
 21
-1311.5
 31
0.0
  0
LINE
  5
1B6
330
17
100
AcDbEntity
  8
0
 62
9
100
AcDbLine
 10
710.0
 20
-1311.5
 30
0.0
 11
710.0
 21
-1361.5
 31
0.0
  0
LINE
  5
1B7
330
17
100
AcDbEntity
  8
0
 62
9
100
AcDbLine
 10
710.0
 20
-1361.5
 30
0.0
 11
760.0
 21
-1361.5
 31
0.0
  0
TEXT
  5
1B8
330
17
100
AcDbEntity
  8
TEXTLAYER
 62
1
100
AcDbText
 10
735.0
 20
-1336.5
 30
0.0
 40
10.0
  1
5-4
 72
1
 11
735.0
 21
-1336.5
 31
0.0
100
AcDbText
  0
LINE
  5
1B9
330
17
100
AcDbEntity
  8
0
 62
9
100
AcDbLine
 10
840.0
 20
-1188.0
 30
0.0
 11
1050.0
 21
-1188.0
 31
0.0
  0
LINE
  5
1BA
330
17
100
AcDbEntity
  8
0
 62
9
100
AcDbLine
 10
840.0
 20
-1485.0
 30
0.0
 11
1050.0
 21
-1485.0
 31
0.0
  0
LINE
  5
1BB
330
17
100
AcDbEntity
  8
0
 62
9
100
AcDbLine
 10
840.0
 20
-1188.0
 30
0.0
 11
840.0
 21
-1485.0
 31
0.0
  0
LINE
  5
1BC
330
17
100
AcDbEntity
  8
0
 62
9
100
AcDbLine
 10
1050.0
 20
-1188.0
 30
0.0
 11
1050.0
 21
-1485.0
 31
0.0
  0
LINE
  5
1BD
330
17
100
AcDbEntity
  8
0
 62
9
100
AcDbLine
 10
920.0
 20
-1311.5
 30
0.0
 11
970.0
 21
-1311.5
 31
0.0
  0
LINE
  5
1BE
330
17
100
AcDbEntity
  8
0
 62
9
100
AcDbLine
 10
970.0
 20
-1361.5
 30
0.0
 11
970.0
 21
-1311.5
 31
0.0
  0
LINE
  5
1BF
330
17
100
AcDbEntity
  8
0
 62
9
100
AcDbLine
 10
920.0
 20
-1311.5
 30
0.0
 11
920.0
 21
-1361.5
 31
0.0
  0
LINE
  5
1C0
330
17
100
AcDbEntity
  8
0
 62
9
100
AcDbLine
 10
920.0
 20
-1361.5
 30
0.0
 11
970.0
 21
-1361.5
 31
0.0
  0
TEXT
  5
1C1
330
17
100
AcDbEntity
  8
TEXTLAYER
 62
1
100
AcDbText
 10
945.0
 20
-1336.5
 30
0.0
 40
10.0
  1
5-5
 72
1
 11
945.0
 21
-1336.5
 31
0.0
100
AcDbText
  0
LINE
  5
1C2
330
17
100
AcDbEntity
  8
0
 62
9
100
AcDbLine
 10
1050.0
 20
-1188.0
 30
0.0
 11
1260.0
 21
-1188.0
 31
0.0
  0
LINE
  5
1C3
330
17
100
AcDbEntity
  8
0
 62
9
100
AcDbLine
 10
1050.0
 20
-1485.0
 30
0.0
 11
1260.0
 21
-1485.0
 31
0.0
  0
LINE
  5
1C4
330
17
100
AcDbEntity
  8
0
 62
9
100
AcDbLine
 10
1050.0
 20
-1188.0
 30
0.0
 11
1050.0
 21
-1485.0
 31
0.0
  0
LINE
  5
1C5
330
17
100
AcDbEntity
  8
0
 62
9
100
AcDbLine
 10
1260.0
 20
-1188.0
 30
0.0
 11
1260.0
 21
-1485.0
 31
0.0
  0
LINE
  5
1C6
330
17
100
AcDbEntity
  8
0
 62
9
100
AcDbLine
 10
1130.0
 20
-1311.5
 30
0.0
 11
1180.0
 21
-1311.5
 31
0.0
  0
LINE
  5
1C7
330
17
100
AcDbEntity
  8
0
 62
9
100
AcDbLine
 10
1180.0
 20
-1361.5
 30
0.0
 11
1180.0
 21
-1311.5
 31
0.0
  0
LINE
  5
1C8
330
17
100
AcDbEntity
  8
0
 62
9
100
AcDbLine
 10
1130.0
 20
-1311.5
 30
0.0
 11
1130.0
 21
-1361.5
 31
0.0
  0
LINE
  5
1C9
330
17
100
AcDbEntity
  8
0
 62
9
100
AcDbLine
 10
1130.0
 20
-1361.5
 30
0.0
 11
1180.0
 21
-1361.5
 31
0.0
  0
TEXT
  5
1CA
330
17
100
AcDbEntity
  8
TEXTLAYER
 62
1
100
AcDbText
 10
1155.0
 20
-1336.5
 30
0.0
 40
10.0
  1
5-6
 72
1
 11
1155.0
 21
-1336.5
 31
0.0
100
AcDbText
  0
LINE
  5
1CB
330
17
100
AcDbEntity
  8
0
 62
9
100
AcDbLine
 10
1260.0
 20
-1188.0
 30
0.0
 11
1470.0
 21
-1188.0
 31
0.0
  0
LINE
  5
1CC
330
17
100
AcDbEntity
  8
0
 62
9
100
AcDbLine
 10
1260.0
 20
-1485.0
 30
0.0
 11
1470.0
 21
-1485.0
 31
0.0
  0
LINE
  5
1CD
330
17
100
AcDbEntity
  8
0
 62
9
100
AcDbLine
 10
1260.0
 20
-1188.0
 30
0.0
 11
1260.0
 21
-1485.0
 31
0.0
  0
LINE
  5
1CE
330
17
100
AcDbEntity
  8
0
 62
9
100
AcDbLine
 10
1470.0
 20
-1188.0
 30
0.0
 11
1470.0
 21
-1485.0
 31
0.0
  0
LINE
  5
1CF
330
17
100
AcDbEntity
  8
0
 62
9
100
AcDbLine
 10
1340.0
 20
-1311.5
 30
0.0
 11
1390.0
 21
-1311.5
 31
0.0
  0
LINE
  5
1D0
330
17
100
AcDbEntity
  8
0
 62
9
100
AcDbLine
 10
1390.0
 20
-1361.5
 30
0.0
 11
1390.0
 21
-1311.5
 31
0.0
  0
LINE
  5
1D1
330
17
100
AcDbEntity
  8
0
 62
9
100
AcDbLine
 10
1340.0
 20
-1311.5
 30
0.0
 11
1340.0
 21
-1361.5
 31
0.0
  0
LINE
  5
1D2
330
17
100
AcDbEntity
  8
0
 62
9
100
AcDbLine
 10
1340.0
 20
-1361.5
 30
0.0
 11
1390.0
 21
-1361.5
 31
0.0
  0
TEXT
  5
1D3
330
17
100
AcDbEntity
  8
TEXTLAYER
 62
1
100
AcDbText
 10
1365.0
 20
-1336.5
 30
0.0
 40
10.0
  1
5-7
 72
1
 11
1365.0
 21
-1336.5
 31
0.0
100
AcDbText
  0
LINE
  5
1D4
330
17
100
AcDbEntity
  8
0
 62
9
100
AcDbLine
 10
1470.0
 20
-1188.0
 30
0.0
 11
1680.0
 21
-1188.0
 31
0.0
  0
LINE
  5
1D5
330
17
100
AcDbEntity
  8
0
 62
9
100
AcDbLine
 10
1470.0
 20
-1485.0
 30
0.0
 11
1680.0
 21
-1485.0
 31
0.0
  0
LINE
  5
1D6
330
17
100
AcDbEntity
  8
0
 62
9
100
AcDbLine
 10
1470.0
 20
-1188.0
 30
0.0
 11
1470.0
 21
-1485.0
 31
0.0
  0
LINE
  5
1D7
330
17
100
AcDbEntity
  8
0
 62
9
100
AcDbLine
 10
1680.0
 20
-1188.0
 30
0.0
 11
1680.0
 21
-1485.0
 31
0.0
  0
LINE
  5
1D8
330
17
100
AcDbEntity
  8
0
 62
9
100
AcDbLine
 10
1550.0
 20
-1311.5
 30
0.0
 11
1600.0
 21
-1311.5
 31
0.0
  0
LINE
  5
1D9
330
17
100
AcDbEntity
  8
0
 62
9
100
AcDbLine
 10
1600.0
 20
-1361.5
 30
0.0
 11
1600.0
 21
-1311.5
 31
0.0
  0
LINE
  5
1DA
330
17
100
AcDbEntity
  8
0
 62
9
100
AcDbLine
 10
1550.0
 20
-1311.5
 30
0.0
 11
1550.0
 21
-1361.5
 31
0.0
  0
LINE
  5
1DB
330
17
100
AcDbEntity
  8
0
 62
9
100
AcDbLine
 10
1550.0
 20
-1361.5
 30
0.0
 11
1600.0
 21
-1361.5
 31
0.0
  0
TEXT
  5
1DC
330
17
100
AcDbEntity
  8
TEXTLAYER
 62
1
100
AcDbText
 10
1575.0
 20
-1336.5
 30
0.0
 40
10.0
  1
5-8
 72
1
 11
1575.0
 21
-1336.5
 31
0.0
100
AcDbText
  0
LINE
  5
1DD
330
17
100
AcDbEntity
  8
0
 62
9
100
AcDbLine
 10
1680.0
 20
-1188.0
 30
0.0
 11
1890.0
 21
-1188.0
 31
0.0
  0
LINE
  5
1DE
330
17
100
AcDbEntity
  8
0
 62
9
100
AcDbLine
 10
1680.0
 20
-1485.0
 30
0.0
 11
1890.0
 21
-1485.0
 31
0.0
  0
LINE
  5
1DF
330
17
100
AcDbEntity
  8
0
 62
9
100
AcDbLine
 10
1680.0
 20
-1188.0
 30
0.0
 11
1680.0
 21
-1485.0
 31
0.0
  0
LINE
  5
1E0
330
17
100
AcDbEntity
  8
0
 62
9
100
AcDbLine
 10
1890.0
 20
-1188.0
 30
0.0
 11
1890.0
 21
-1485.0
 31
0.0
  0
LINE
  5
1E1
330
17
100
AcDbEntity
  8
0
 62
9
100
AcDbLine
 10
1760.0
 20
-1311.5
 30
0.0
 11
1810.0
 21
-1311.5
 31
0.0
  0
LINE
  5
1E2
330
17
100
AcDbEntity
  8
0
 62
9
100
AcDbLine
 10
1810.0
 20
-1361.5
 30
0.0
 11
1810.0
 21
-1311.5
 31
0.0
  0
LINE
  5
1E3
330
17
100
AcDbEntity
  8
0
 62
9
100
AcDbLine
 10
1760.0
 20
-1311.5
 30
0.0
 11
1760.0
 21
-1361.5
 31
0.0
  0
LINE
  5
1E4
330
17
100
AcDbEntity
  8
0
 62
9
100
AcDbLine
 10
1760.0
 20
-1361.5
 30
0.0
 11
1810.0
 21
-1361.5
 31
0.0
  0
TEXT
  5
1E5
330
17
100
AcDbEntity
  8
TEXTLAYER
 62
1
100
AcDbText
 10
1785.0
 20
-1336.5
 30
0.0
 40
10.0
  1
5-9
 72
1
 11
1785.0
 21
-1336.5
 31
0.0
100
AcDbText
  0
LINE
  5
1E6
330
17
100
AcDbEntity
  8
0
 62
9
100
AcDbLine
 10
1890.0
 20
-1188.0
 30
0.0
 11
2100.0
 21
-1188.0
 31
0.0
  0
LINE
  5
1E7
330
17
100
AcDbEntity
  8
0
 62
9
100
AcDbLine
 10
1890.0
 20
-1485.0
 30
0.0
 11
2100.0
 21
-1485.0
 31
0.0
  0
LINE
  5
1E8
330
17
100
AcDbEntity
  8
0
 62
9
100
AcDbLine
 10
1890.0
 20
-1188.0
 30
0.0
 11
1890.0
 21
-1485.0
 31
0.0
  0
LINE
  5
1E9
330
17
100
AcDbEntity
  8
0
 62
9
100
AcDbLine
 10
2100.0
 20
-1188.0
 30
0.0
 11
2100.0
 21
-1485.0
 31
0.0
  0
LINE
  5
1EA
330
17
100
AcDbEntity
  8
0
 62
9
100
AcDbLine
 10
1970.0
 20
-1311.5
 30
0.0
 11
2020.0
 21
-1311.5
 31
0.0
  0
LINE
  5
1EB
330
17
100
AcDbEntity
  8
0
 62
9
100
AcDbLine
 10
2020.0
 20
-1361.5
 30
0.0
 11
2020.0
 21
-1311.5
 31
0.0
  0
LINE
  5
1EC
330
17
100
AcDbEntity
  8
0
 62
9
100
AcDbLine
 10
1970.0
 20
-1311.5
 30
0.0
 11
1970.0
 21
-1361.5
 31
0.0
  0
LINE
  5
1ED
330
17
100
AcDbEntity
  8
0
 62
9
100
AcDbLine
 10
1970.0
 20
-1361.5
 30
0.0
 11
2020.0
 21
-1361.5
 31
0.0
  0
TEXT
  5
1EE
330
17
100
AcDbEntity
  8
TEXTLAYER
 62
1
100
AcDbText
 10
1995.0
 20
-1336.5
 30
0.0
 40
10.0
  1
5-10
 72
1
 11
1995.0
 21
-1336.5
 31
0.0
100
AcDbText
  0
LINE
  5
1EF
330
17
100
AcDbEntity
  8
0
 62
9
100
AcDbLine
 10
0.0
 20
-1485.0
 30
0.0
 11
210.0
 21
-1485.0
 31
0.0
  0
LINE
  5
1F0
330
17
100
AcDbEntity
  8
0
 62
9
100
AcDbLine
 10
0.0
 20
-1782.0
 30
0.0
 11
210.0
 21
-1782.0
 31
0.0
  0
LINE
  5
1F1
330
17
100
AcDbEntity
  8
0
 62
9
100
AcDbLine
 10
0.0
 20
-1485.0
 30
0.0
 11
0.0
 21
-1782.0
 31
0.0
  0
LINE
  5
1F2
330
17
100
AcDbEntity
  8
0
 62
9
100
AcDbLine
 10
210.0
 20
-1485.0
 30
0.0
 11
210.0
 21
-1782.0
 31
0.0
  0
LINE
  5
1F3
330
17
100
AcDbEntity
  8
0
 62
9
100
AcDbLine
 10
80.0
 20
-1608.5
 30
0.0
 11
130.0
 21
-1608.5
 31
0.0
  0
LINE
  5
1F4
330
17
100
AcDbEntity
  8
0
 62
9
100
AcDbLine
 10
130.0
 20
-1658.5
 30
0.0
 11
130.0
 21
-1608.5
 31
0.0
  0
LINE
  5
1F5
330
17
100
AcDbEntity
  8
0
 62
9
100
AcDbLine
 10
80.0
 20
-1608.5
 30
0.0
 11
80.0
 21
-1658.5
 31
0.0
  0
LINE
  5
1F6
330
17
100
AcDbEntity
  8
0
 62
9
100
AcDbLine
 10
80.0
 20
-1658.5
 30
0.0
 11
130.0
 21
-1658.5
 31
0.0
  0
TEXT
  5
1F7
330
17
100
AcDbEntity
  8
TEXTLAYER
 62
1
100
AcDbText
 10
105.0
 20
-1633.5
 30
0.0
 40
10.0
  1
6-1
 72
1
 11
105.0
 21
-1633.5
 31
0.0
100
AcDbText
  0
LINE
  5
1F8
330
17
100
AcDbEntity
  8
0
 62
9
100
AcDbLine
 10
210.0
 20
-1485.0
 30
0.0
 11
420.0
 21
-1485.0
 31
0.0
  0
LINE
  5
1F9
330
17
100
AcDbEntity
  8
0
 62
9
100
AcDbLine
 10
210.0
 20
-1782.0
 30
0.0
 11
420.0
 21
-1782.0
 31
0.0
  0
LINE
  5
1FA
330
17
100
AcDbEntity
  8
0
 62
9
100
AcDbLine
 10
210.0
 20
-1485.0
 30
0.0
 11
210.0
 21
-1782.0
 31
0.0
  0
LINE
  5
1FB
330
17
100
AcDbEntity
  8
0
 62
9
100
AcDbLine
 10
420.0
 20
-1485.0
 30
0.0
 11
420.0
 21
-1782.0
 31
0.0
  0
LINE
  5
1FC
330
17
100
AcDbEntity
  8
0
 62
9
100
AcDbLine
 10
290.0
 20
-1608.5
 30
0.0
 11
340.0
 21
-1608.5
 31
0.0
  0
LINE
  5
1FD
330
17
100
AcDbEntity
  8
0
 62
9
100
AcDbLine
 10
340.0
 20
-1658.5
 30
0.0
 11
340.0
 21
-1608.5
 31
0.0
  0
LINE
  5
1FE
330
17
100
AcDbEntity
  8
0
 62
9
100
AcDbLine
 10
290.0
 20
-1608.5
 30
0.0
 11
290.0
 21
-1658.5
 31
0.0
  0
LINE
  5
1FF
330
17
100
AcDbEntity
  8
0
 62
9
100
AcDbLine
 10
290.0
 20
-1658.5
 30
0.0
 11
340.0
 21
-1658.5
 31
0.0
  0
TEXT
  5
200
330
17
100
AcDbEntity
  8
TEXTLAYER
 62
1
100
AcDbText
 10
315.0
 20
-1633.5
 30
0.0
 40
10.0
  1
6-2
 72
1
 11
315.0
 21
-1633.5
 31
0.0
100
AcDbText
  0
LINE
  5
201
330
17
100
AcDbEntity
  8
0
 62
9
100
AcDbLine
 10
420.0
 20
-1485.0
 30
0.0
 11
630.0
 21
-1485.0
 31
0.0
  0
LINE
  5
202
330
17
100
AcDbEntity
  8
0
 62
9
100
AcDbLine
 10
420.0
 20
-1782.0
 30
0.0
 11
630.0
 21
-1782.0
 31
0.0
  0
LINE
  5
203
330
17
100
AcDbEntity
  8
0
 62
9
100
AcDbLine
 10
420.0
 20
-1485.0
 30
0.0
 11
420.0
 21
-1782.0
 31
0.0
  0
LINE
  5
204
330
17
100
AcDbEntity
  8
0
 62
9
100
AcDbLine
 10
630.0
 20
-1485.0
 30
0.0
 11
630.0
 21
-1782.0
 31
0.0
  0
LINE
  5
205
330
17
100
AcDbEntity
  8
0
 62
9
100
AcDbLine
 10
500.0
 20
-1608.5
 30
0.0
 11
550.0
 21
-1608.5
 31
0.0
  0
LINE
  5
206
330
17
100
AcDbEntity
  8
0
 62
9
100
AcDbLine
 10
550.0
 20
-1658.5
 30
0.0
 11
550.0
 21
-1608.5
 31
0.0
  0
LINE
  5
207
330
17
100
AcDbEntity
  8
0
 62
9
100
AcDbLine
 10
500.0
 20
-1608.5
 30
0.0
 11
500.0
 21
-1658.5
 31
0.0
  0
LINE
  5
208
330
17
100
AcDbEntity
  8
0
 62
9
100
AcDbLine
 10
500.0
 20
-1658.5
 30
0.0
 11
550.0
 21
-1658.5
 31
0.0
  0
TEXT
  5
209
330
17
100
AcDbEntity
  8
TEXTLAYER
 62
1
100
AcDbText
 10
525.0
 20
-1633.5
 30
0.0
 40
10.0
  1
6-3
 72
1
 11
525.0
 21
-1633.5
 31
0.0
100
AcDbText
  0
LINE
  5
20A
330
17
100
AcDbEntity
  8
0
 62
9
100
AcDbLine
 10
630.0
 20
-1485.0
 30
0.0
 11
840.0
 21
-1485.0
 31
0.0
  0
LINE
  5
20B
330
17
100
AcDbEntity
  8
0
 62
9
100
AcDbLine
 10
630.0
 20
-1782.0
 30
0.0
 11
840.0
 21
-1782.0
 31
0.0
  0
LINE
  5
20C
330
17
100
AcDbEntity
  8
0
 62
9
100
AcDbLine
 10
630.0
 20
-1485.0
 30
0.0
 11
630.0
 21
-1782.0
 31
0.0
  0
LINE
  5
20D
330
17
100
AcDbEntity
  8
0
 62
9
100
AcDbLine
 10
840.0
 20
-1485.0
 30
0.0
 11
840.0
 21
-1782.0
 31
0.0
  0
LINE
  5
20E
330
17
100
AcDbEntity
  8
0
 62
9
100
AcDbLine
 10
710.0
 20
-1608.5
 30
0.0
 11
760.0
 21
-1608.5
 31
0.0
  0
LINE
  5
20F
330
17
100
AcDbEntity
  8
0
 62
9
100
AcDbLine
 10
760.0
 20
-1658.5
 30
0.0
 11
760.0
 21
-1608.5
 31
0.0
  0
LINE
  5
210
330
17
100
AcDbEntity
  8
0
 62
9
100
AcDbLine
 10
710.0
 20
-1608.5
 30
0.0
 11
710.0
 21
-1658.5
 31
0.0
  0
LINE
  5
211
330
17
100
AcDbEntity
  8
0
 62
9
100
AcDbLine
 10
710.0
 20
-1658.5
 30
0.0
 11
760.0
 21
-1658.5
 31
0.0
  0
TEXT
  5
212
330
17
100
AcDbEntity
  8
TEXTLAYER
 62
1
100
AcDbText
 10
735.0
 20
-1633.5
 30
0.0
 40
10.0
  1
6-4
 72
1
 11
735.0
 21
-1633.5
 31
0.0
100
AcDbText
  0
LINE
  5
213
330
17
100
AcDbEntity
  8
0
 62
9
100
AcDbLine
 10
840.0
 20
-1485.0
 30
0.0
 11
1050.0
 21
-1485.0
 31
0.0
  0
LINE
  5
214
330
17
100
AcDbEntity
  8
0
 62
9
100
AcDbLine
 10
840.0
 20
-1782.0
 30
0.0
 11
1050.0
 21
-1782.0
 31
0.0
  0
LINE
  5
215
330
17
100
AcDbEntity
  8
0
 62
9
100
AcDbLine
 10
840.0
 20
-1485.0
 30
0.0
 11
840.0
 21
-1782.0
 31
0.0
  0
LINE
  5
216
330
17
100
AcDbEntity
  8
0
 62
9
100
AcDbLine
 10
1050.0
 20
-1485.0
 30
0.0
 11
1050.0
 21
-1782.0
 31
0.0
  0
LINE
  5
217
330
17
100
AcDbEntity
  8
0
 62
9
100
AcDbLine
 10
920.0
 20
-1608.5
 30
0.0
 11
970.0
 21
-1608.5
 31
0.0
  0
LINE
  5
218
330
17
100
AcDbEntity
  8
0
 62
9
100
AcDbLine
 10
970.0
 20
-1658.5
 30
0.0
 11
970.0
 21
-1608.5
 31
0.0
  0
LINE
  5
219
330
17
100
AcDbEntity
  8
0
 62
9
100
AcDbLine
 10
920.0
 20
-1608.5
 30
0.0
 11
920.0
 21
-1658.5
 31
0.0
  0
LINE
  5
21A
330
17
100
AcDbEntity
  8
0
 62
9
100
AcDbLine
 10
920.0
 20
-1658.5
 30
0.0
 11
970.0
 21
-1658.5
 31
0.0
  0
TEXT
  5
21B
330
17
100
AcDbEntity
  8
TEXTLAYER
 62
1
100
AcDbText
 10
945.0
 20
-1633.5
 30
0.0
 40
10.0
  1
6-5
 72
1
 11
945.0
 21
-1633.5
 31
0.0
100
AcDbText
  0
LINE
  5
21C
330
17
100
AcDbEntity
  8
0
 62
9
100
AcDbLine
 10
1050.0
 20
-1485.0
 30
0.0
 11
1260.0
 21
-1485.0
 31
0.0
  0
LINE
  5
21D
330
17
100
AcDbEntity
  8
0
 62
9
100
AcDbLine
 10
1050.0
 20
-1782.0
 30
0.0
 11
1260.0
 21
-1782.0
 31
0.0
  0
LINE
  5
21E
330
17
100
AcDbEntity
  8
0
 62
9
100
AcDbLine
 10
1050.0
 20
-1485.0
 30
0.0
 11
1050.0
 21
-1782.0
 31
0.0
  0
LINE
  5
21F
330
17
100
AcDbEntity
  8
0
 62
9
100
AcDbLine
 10
1260.0
 20
-1485.0
 30
0.0
 11
1260.0
 21
-1782.0
 31
0.0
  0
LINE
  5
220
330
17
100
AcDbEntity
  8
0
 62
9
100
AcDbLine
 10
1130.0
 20
-1608.5
 30
0.0
 11
1180.0
 21
-1608.5
 31
0.0
  0
LINE
  5
221
330
17
100
AcDbEntity
  8
0
 62
9
100
AcDbLine
 10
1180.0
 20
-1658.5
 30
0.0
 11
1180.0
 21
-1608.5
 31
0.0
  0
LINE
  5
222
330
17
100
AcDbEntity
  8
0
 62
9
100
AcDbLine
 10
1130.0
 20
-1608.5
 30
0.0
 11
1130.0
 21
-1658.5
 31
0.0
  0
LINE
  5
223
330
17
100
AcDbEntity
  8
0
 62
9
100
AcDbLine
 10
1130.0
 20
-1658.5
 30
0.0
 11
1180.0
 21
-1658.5
 31
0.0
  0
TEXT
  5
224
330
17
100
AcDbEntity
  8
TEXTLAYER
 62
1
100
AcDbText
 10
1155.0
 20
-1633.5
 30
0.0
 40
10.0
  1
6-6
 72
1
 11
1155.0
 21
-1633.5
 31
0.0
100
AcDbText
  0
LINE
  5
225
330
17
100
AcDbEntity
  8
0
 62
9
100
AcDbLine
 10
1260.0
 20
-1485.0
 30
0.0
 11
1470.0
 21
-1485.0
 31
0.0
  0
LINE
  5
226
330
17
100
AcDbEntity
  8
0
 62
9
100
AcDbLine
 10
1260.0
 20
-1782.0
 30
0.0
 11
1470.0
 21
-1782.0
 31
0.0
  0
LINE
  5
227
330
17
100
AcDbEntity
  8
0
 62
9
100
AcDbLine
 10
1260.0
 20
-1485.0
 30
0.0
 11
1260.0
 21
-1782.0
 31
0.0
  0
LINE
  5
228
330
17
100
AcDbEntity
  8
0
 62
9
100
AcDbLine
 10
1470.0
 20
-1485.0
 30
0.0
 11
1470.0
 21
-1782.0
 31
0.0
  0
LINE
  5
229
330
17
100
AcDbEntity
  8
0
 62
9
100
AcDbLine
 10
1340.0
 20
-1608.5
 30
0.0
 11
1390.0
 21
-1608.5
 31
0.0
  0
LINE
  5
22A
330
17
100
AcDbEntity
  8
0
 62
9
100
AcDbLine
 10
1390.0
 20
-1658.5
 30
0.0
 11
1390.0
 21
-1608.5
 31
0.0
  0
LINE
  5
22B
330
17
100
AcDbEntity
  8
0
 62
9
100
AcDbLine
 10
1340.0
 20
-1608.5
 30
0.0
 11
1340.0
 21
-1658.5
 31
0.0
  0
LINE
  5
22C
330
17
100
AcDbEntity
  8
0
 62
9
100
AcDbLine
 10
1340.0
 20
-1658.5
 30
0.0
 11
1390.0
 21
-1658.5
 31
0.0
  0
TEXT
  5
22D
330
17
100
AcDbEntity
  8
TEXTLAYER
 62
1
100
AcDbText
 10
1365.0
 20
-1633.5
 30
0.0
 40
10.0
  1
6-7
 72
1
 11
1365.0
 21
-1633.5
 31
0.0
100
AcDbText
  0
LINE
  5
22E
330
17
100
AcDbEntity
  8
0
 62
9
100
AcDbLine
 10
1470.0
 20
-1485.0
 30
0.0
 11
1680.0
 21
-1485.0
 31
0.0
  0
LINE
  5
22F
330
17
100
AcDbEntity
  8
0
 62
9
100
AcDbLine
 10
1470.0
 20
-1782.0
 30
0.0
 11
1680.0
 21
-1782.0
 31
0.0
  0
LINE
  5
230
330
17
100
AcDbEntity
  8
0
 62
9
100
AcDbLine
 10
1470.0
 20
-1485.0
 30
0.0
 11
1470.0
 21
-1782.0
 31
0.0
  0
LINE
  5
231
330
17
100
AcDbEntity
  8
0
 62
9
100
AcDbLine
 10
1680.0
 20
-1485.0
 30
0.0
 11
1680.0
 21
-1782.0
 31
0.0
  0
LINE
  5
232
330
17
100
AcDbEntity
  8
0
 62
9
100
AcDbLine
 10
1550.0
 20
-1608.5
 30
0.0
 11
1600.0
 21
-1608.5
 31
0.0
  0
LINE
  5
233
330
17
100
AcDbEntity
  8
0
 62
9
100
AcDbLine
 10
1600.0
 20
-1658.5
 30
0.0
 11
1600.0
 21
-1608.5
 31
0.0
  0
LINE
  5
234
330
17
100
AcDbEntity
  8
0
 62
9
100
AcDbLine
 10
1550.0
 20
-1608.5
 30
0.0
 11
1550.0
 21
-1658.5
 31
0.0
  0
LINE
  5
235
330
17
100
AcDbEntity
  8
0
 62
9
100
AcDbLine
 10
1550.0
 20
-1658.5
 30
0.0
 11
1600.0
 21
-1658.5
 31
0.0
  0
TEXT
  5
236
330
17
100
AcDbEntity
  8
TEXTLAYER
 62
1
100
AcDbText
 10
1575.0
 20
-1633.5
 30
0.0
 40
10.0
  1
6-8
 72
1
 11
1575.0
 21
-1633.5
 31
0.0
100
AcDbText
  0
LINE
  5
237
330
17
100
AcDbEntity
  8
0
 62
9
100
AcDbLine
 10
1680.0
 20
-1485.0
 30
0.0
 11
1890.0
 21
-1485.0
 31
0.0
  0
LINE
  5
238
330
17
100
AcDbEntity
  8
0
 62
9
100
AcDbLine
 10
1680.0
 20
-1782.0
 30
0.0
 11
1890.0
 21
-1782.0
 31
0.0
  0
LINE
  5
239
330
17
100
AcDbEntity
  8
0
 62
9
100
AcDbLine
 10
1680.0
 20
-1485.0
 30
0.0
 11
1680.0
 21
-1782.0
 31
0.0
  0
LINE
  5
23A
330
17
100
AcDbEntity
  8
0
 62
9
100
AcDbLine
 10
1890.0
 20
-1485.0
 30
0.0
 11
1890.0
 21
-1782.0
 31
0.0
  0
LINE
  5
23B
330
17
100
AcDbEntity
  8
0
 62
9
100
AcDbLine
 10
1760.0
 20
-1608.5
 30
0.0
 11
1810.0
 21
-1608.5
 31
0.0
  0
LINE
  5
23C
330
17
100
AcDbEntity
  8
0
 62
9
100
AcDbLine
 10
1810.0
 20
-1658.5
 30
0.0
 11
1810.0
 21
-1608.5
 31
0.0
  0
LINE
  5
23D
330
17
100
AcDbEntity
  8
0
 62
9
100
AcDbLine
 10
1760.0
 20
-1608.5
 30
0.0
 11
1760.0
 21
-1658.5
 31
0.0
  0
LINE
  5
23E
330
17
100
AcDbEntity
  8
0
 62
9
100
AcDbLine
 10
1760.0
 20
-1658.5
 30
0.0
 11
1810.0
 21
-1658.5
 31
0.0
  0
TEXT
  5
23F
330
17
100
AcDbEntity
  8
TEXTLAYER
 62
1
100
AcDbText
 10
1785.0
 20
-1633.5
 30
0.0
 40
10.0
  1
6-9
 72
1
 11
1785.0
 21
-1633.5
 31
0.0
100
AcDbText
  0
LINE
  5
240
330
17
100
AcDbEntity
  8
0
 62
9
100
AcDbLine
 10
1890.0
 20
-1485.0
 30
0.0
 11
2100.0
 21
-1485.0
 31
0.0
  0
LINE
  5
241
330
17
100
AcDbEntity
  8
0
 62
9
100
AcDbLine
 10
1890.0
 20
-1782.0
 30
0.0
 11
2100.0
 21
-1782.0
 31
0.0
  0
LINE
  5
242
330
17
100
AcDbEntity
  8
0
 62
9
100
AcDbLine
 10
1890.0
 20
-1485.0
 30
0.0
 11
1890.0
 21
-1782.0
 31
0.0
  0
LINE
  5
243
330
17
100
AcDbEntity
  8
0
 62
9
100
AcDbLine
 10
2100.0
 20
-1485.0
 30
0.0
 11
2100.0
 21
-1782.0
 31
0.0
  0
LINE
  5
244
330
17
100
AcDbEntity
  8
0
 62
9
100
AcDbLine
 10
1970.0
 20
-1608.5
 30
0.0
 11
2020.0
 21
-1608.5
 31
0.0
  0
LINE
  5
245
330
17
100
AcDbEntity
  8
0
 62
9
100
AcDbLine
 10
2020.0
 20
-1658.5
 30
0.0
 11
2020.0
 21
-1608.5
 31
0.0
  0
LINE
  5
246
330
17
100
AcDbEntity
  8
0
 62
9
100
AcDbLine
 10
1970.0
 20
-1608.5
 30
0.0
 11
1970.0
 21
-1658.5
 31
0.0
  0
LINE
  5
247
330
17
100
AcDbEntity
  8
0
 62
9
100
AcDbLine
 10
1970.0
 20
-1658.5
 30
0.0
 11
2020.0
 21
-1658.5
 31
0.0
  0
TEXT
  5
248
330
17
100
AcDbEntity
  8
TEXTLAYER
 62
1
100
AcDbText
 10
1995.0
 20
-1633.5
 30
0.0
 40
10.0
  1
6-10
 72
1
 11
1995.0
 21
-1633.5
 31
0.0
100
AcDbText
  0
LINE
  5
249
330
17
100
AcDbEntity
  8
0
 62
9
100
AcDbLine
 10
0.0
 20
-1782.0
 30
0.0
 11
210.0
 21
-1782.0
 31
0.0
  0
LINE
  5
24A
330
17
100
AcDbEntity
  8
0
 62
9
100
AcDbLine
 10
0.0
 20
-2079.0
 30
0.0
 11
210.0
 21
-2079.0
 31
0.0
  0
LINE
  5
24B
330
17
100
AcDbEntity
  8
0
 62
9
100
AcDbLine
 10
0.0
 20
-1782.0
 30
0.0
 11
0.0
 21
-2079.0
 31
0.0
  0
LINE
  5
24C
330
17
100
AcDbEntity
  8
0
 62
9
100
AcDbLine
 10
210.0
 20
-1782.0
 30
0.0
 11
210.0
 21
-2079.0
 31
0.0
  0
LINE
  5
24D
330
17
100
AcDbEntity
  8
0
 62
9
100
AcDbLine
 10
80.0
 20
-1905.5
 30
0.0
 11
130.0
 21
-1905.5
 31
0.0
  0
LINE
  5
24E
330
17
100
AcDbEntity
  8
0
 62
9
100
AcDbLine
 10
130.0
 20
-1955.5
 30
0.0
 11
130.0
 21
-1905.5
 31
0.0
  0
LINE
  5
24F
330
17
100
AcDbEntity
  8
0
 62
9
100
AcDbLine
 10
80.0
 20
-1905.5
 30
0.0
 11
80.0
 21
-1955.5
 31
0.0
  0
LINE
  5
250
330
17
100
AcDbEntity
  8
0
 62
9
100
AcDbLine
 10
80.0
 20
-1955.5
 30
0.0
 11
130.0
 21
-1955.5
 31
0.0
  0
TEXT
  5
251
330
17
100
AcDbEntity
  8
TEXTLAYER
 62
1
100
AcDbText
 10
105.0
 20
-1930.5
 30
0.0
 40
10.0
  1
7-1
 72
1
 11
105.0
 21
-1930.5
 31
0.0
100
AcDbText
  0
LINE
  5
252
330
17
100
AcDbEntity
  8
0
 62
9
100
AcDbLine
 10
210.0
 20
-1782.0
 30
0.0
 11
420.0
 21
-1782.0
 31
0.0
  0
LINE
  5
253
330
17
100
AcDbEntity
  8
0
 62
9
100
AcDbLine
 10
210.0
 20
-2079.0
 30
0.0
 11
420.0
 21
-2079.0
 31
0.0
  0
LINE
  5
254
330
17
100
AcDbEntity
  8
0
 62
9
100
AcDbLine
 10
210.0
 20
-1782.0
 30
0.0
 11
210.0
 21
-2079.0
 31
0.0
  0
LINE
  5
255
330
17
100
AcDbEntity
  8
0
 62
9
100
AcDbLine
 10
420.0
 20
-1782.0
 30
0.0
 11
420.0
 21
-2079.0
 31
0.0
  0
LINE
  5
256
330
17
100
AcDbEntity
  8
0
 62
9
100
AcDbLine
 10
290.0
 20
-1905.5
 30
0.0
 11
340.0
 21
-1905.5
 31
0.0
  0
LINE
  5
257
330
17
100
AcDbEntity
  8
0
 62
9
100
AcDbLine
 10
340.0
 20
-1955.5
 30
0.0
 11
340.0
 21
-1905.5
 31
0.0
  0
LINE
  5
258
330
17
100
AcDbEntity
  8
0
 62
9
100
AcDbLine
 10
290.0
 20
-1905.5
 30
0.0
 11
290.0
 21
-1955.5
 31
0.0
  0
LINE
  5
259
330
17
100
AcDbEntity
  8
0
 62
9
100
AcDbLine
 10
290.0
 20
-1955.5
 30
0.0
 11
340.0
 21
-1955.5
 31
0.0
  0
TEXT
  5
25A
330
17
100
AcDbEntity
  8
TEXTLAYER
 62
1
100
AcDbText
 10
315.0
 20
-1930.5
 30
0.0
 40
10.0
  1
7-2
 72
1
 11
315.0
 21
-1930.5
 31
0.0
100
AcDbText
  0
LINE
  5
25B
330
17
100
AcDbEntity
  8
0
 62
9
100
AcDbLine
 10
420.0
 20
-1782.0
 30
0.0
 11
630.0
 21
-1782.0
 31
0.0
  0
LINE
  5
25C
330
17
100
AcDbEntity
  8
0
 62
9
100
AcDbLine
 10
420.0
 20
-2079.0
 30
0.0
 11
630.0
 21
-2079.0
 31
0.0
  0
LINE
  5
25D
330
17
100
AcDbEntity
  8
0
 62
9
100
AcDbLine
 10
420.0
 20
-1782.0
 30
0.0
 11
420.0
 21
-2079.0
 31
0.0
  0
LINE
  5
25E
330
17
100
AcDbEntity
  8
0
 62
9
100
AcDbLine
 10
630.0
 20
-1782.0
 30
0.0
 11
630.0
 21
-2079.0
 31
0.0
  0
LINE
  5
25F
330
17
100
AcDbEntity
  8
0
 62
9
100
AcDbLine
 10
500.0
 20
-1905.5
 30
0.0
 11
550.0
 21
-1905.5
 31
0.0
  0
LINE
  5
260
330
17
100
AcDbEntity
  8
0
 62
9
100
AcDbLine
 10
550.0
 20
-1955.5
 30
0.0
 11
550.0
 21
-1905.5
 31
0.0
  0
LINE
  5
261
330
17
100
AcDbEntity
  8
0
 62
9
100
AcDbLine
 10
500.0
 20
-1905.5
 30
0.0
 11
500.0
 21
-1955.5
 31
0.0
  0
LINE
  5
262
330
17
100
AcDbEntity
  8
0
 62
9
100
AcDbLine
 10
500.0
 20
-1955.5
 30
0.0
 11
550.0
 21
-1955.5
 31
0.0
  0
TEXT
  5
263
330
17
100
AcDbEntity
  8
TEXTLAYER
 62
1
100
AcDbText
 10
525.0
 20
-1930.5
 30
0.0
 40
10.0
  1
7-3
 72
1
 11
525.0
 21
-1930.5
 31
0.0
100
AcDbText
  0
LINE
  5
264
330
17
100
AcDbEntity
  8
0
 62
9
100
AcDbLine
 10
630.0
 20
-1782.0
 30
0.0
 11
840.0
 21
-1782.0
 31
0.0
  0
LINE
  5
265
330
17
100
AcDbEntity
  8
0
 62
9
100
AcDbLine
 10
630.0
 20
-2079.0
 30
0.0
 11
840.0
 21
-2079.0
 31
0.0
  0
LINE
  5
266
330
17
100
AcDbEntity
  8
0
 62
9
100
AcDbLine
 10
630.0
 20
-1782.0
 30
0.0
 11
630.0
 21
-2079.0
 31
0.0
  0
LINE
  5
267
330
17
100
AcDbEntity
  8
0
 62
9
100
AcDbLine
 10
840.0
 20
-1782.0
 30
0.0
 11
840.0
 21
-2079.0
 31
0.0
  0
LINE
  5
268
330
17
100
AcDbEntity
  8
0
 62
9
100
AcDbLine
 10
710.0
 20
-1905.5
 30
0.0
 11
760.0
 21
-1905.5
 31
0.0
  0
LINE
  5
269
330
17
100
AcDbEntity
  8
0
 62
9
100
AcDbLine
 10
760.0
 20
-1955.5
 30
0.0
 11
760.0
 21
-1905.5
 31
0.0
  0
LINE
  5
26A
330
17
100
AcDbEntity
  8
0
 62
9
100
AcDbLine
 10
710.0
 20
-1905.5
 30
0.0
 11
710.0
 21
-1955.5
 31
0.0
  0
LINE
  5
26B
330
17
100
AcDbEntity
  8
0
 62
9
100
AcDbLine
 10
710.0
 20
-1955.5
 30
0.0
 11
760.0
 21
-1955.5
 31
0.0
  0
TEXT
  5
26C
330
17
100
AcDbEntity
  8
TEXTLAYER
 62
1
100
AcDbText
 10
735.0
 20
-1930.5
 30
0.0
 40
10.0
  1
7-4
 72
1
 11
735.0
 21
-1930.5
 31
0.0
100
AcDbText
  0
LINE
  5
26D
330
17
100
AcDbEntity
  8
0
 62
9
100
AcDbLine
 10
840.0
 20
-1782.0
 30
0.0
 11
1050.0
 21
-1782.0
 31
0.0
  0
LINE
  5
26E
330
17
100
AcDbEntity
  8
0
 62
9
100
AcDbLine
 10
840.0
 20
-2079.0
 30
0.0
 11
1050.0
 21
-2079.0
 31
0.0
  0
LINE
  5
26F
330
17
100
AcDbEntity
  8
0
 62
9
100
AcDbLine
 10
840.0
 20
-1782.0
 30
0.0
 11
840.0
 21
-2079.0
 31
0.0
  0
LINE
  5
270
330
17
100
AcDbEntity
  8
0
 62
9
100
AcDbLine
 10
1050.0
 20
-1782.0
 30
0.0
 11
1050.0
 21
-2079.0
 31
0.0
  0
LINE
  5
271
330
17
100
AcDbEntity
  8
0
 62
9
100
AcDbLine
 10
920.0
 20
-1905.5
 30
0.0
 11
970.0
 21
-1905.5
 31
0.0
  0
LINE
  5
272
330
17
100
AcDbEntity
  8
0
 62
9
100
AcDbLine
 10
970.0
 20
-1955.5
 30
0.0
 11
970.0
 21
-1905.5
 31
0.0
  0
LINE
  5
273
330
17
100
AcDbEntity
  8
0
 62
9
100
AcDbLine
 10
920.0
 20
-1905.5
 30
0.0
 11
920.0
 21
-1955.5
 31
0.0
  0
LINE
  5
274
330
17
100
AcDbEntity
  8
0
 62
9
100
AcDbLine
 10
920.0
 20
-1955.5
 30
0.0
 11
970.0
 21
-1955.5
 31
0.0
  0
TEXT
  5
275
330
17
100
AcDbEntity
  8
TEXTLAYER
 62
1
100
AcDbText
 10
945.0
 20
-1930.5
 30
0.0
 40
10.0
  1
7-5
 72
1
 11
945.0
 21
-1930.5
 31
0.0
100
AcDbText
  0
LINE
  5
276
330
17
100
AcDbEntity
  8
0
 62
9
100
AcDbLine
 10
1050.0
 20
-1782.0
 30
0.0
 11
1260.0
 21
-1782.0
 31
0.0
  0
LINE
  5
277
330
17
100
AcDbEntity
  8
0
 62
9
100
AcDbLine
 10
1050.0
 20
-2079.0
 30
0.0
 11
1260.0
 21
-2079.0
 31
0.0
  0
LINE
  5
278
330
17
100
AcDbEntity
  8
0
 62
9
100
AcDbLine
 10
1050.0
 20
-1782.0
 30
0.0
 11
1050.0
 21
-2079.0
 31
0.0
  0
LINE
  5
279
330
17
100
AcDbEntity
  8
0
 62
9
100
AcDbLine
 10
1260.0
 20
-1782.0
 30
0.0
 11
1260.0
 21
-2079.0
 31
0.0
  0
LINE
  5
27A
330
17
100
AcDbEntity
  8
0
 62
9
100
AcDbLine
 10
1130.0
 20
-1905.5
 30
0.0
 11
1180.0
 21
-1905.5
 31
0.0
  0
LINE
  5
27B
330
17
100
AcDbEntity
  8
0
 62
9
100
AcDbLine
 10
1180.0
 20
-1955.5
 30
0.0
 11
1180.0
 21
-1905.5
 31
0.0
  0
LINE
  5
27C
330
17
100
AcDbEntity
  8
0
 62
9
100
AcDbLine
 10
1130.0
 20
-1905.5
 30
0.0
 11
1130.0
 21
-1955.5
 31
0.0
  0
LINE
  5
27D
330
17
100
AcDbEntity
  8
0
 62
9
100
AcDbLine
 10
1130.0
 20
-1955.5
 30
0.0
 11
1180.0
 21
-1955.5
 31
0.0
  0
TEXT
  5
27E
330
17
100
AcDbEntity
  8
TEXTLAYER
 62
1
100
AcDbText
 10
1155.0
 20
-1930.5
 30
0.0
 40
10.0
  1
7-6
 72
1
 11
1155.0
 21
-1930.5
 31
0.0
100
AcDbText
  0
LINE
  5
27F
330
17
100
AcDbEntity
  8
0
 62
9
100
AcDbLine
 10
1260.0
 20
-1782.0
 30
0.0
 11
1470.0
 21
-1782.0
 31
0.0
  0
LINE
  5
280
330
17
100
AcDbEntity
  8
0
 62
9
100
AcDbLine
 10
1260.0
 20
-2079.0
 30
0.0
 11
1470.0
 21
-2079.0
 31
0.0
  0
LINE
  5
281
330
17
100
AcDbEntity
  8
0
 62
9
100
AcDbLine
 10
1260.0
 20
-1782.0
 30
0.0
 11
1260.0
 21
-2079.0
 31
0.0
  0
LINE
  5
282
330
17
100
AcDbEntity
  8
0
 62
9
100
AcDbLine
 10
1470.0
 20
-1782.0
 30
0.0
 11
1470.0
 21
-2079.0
 31
0.0
  0
LINE
  5
283
330
17
100
AcDbEntity
  8
0
 62
9
100
AcDbLine
 10
1340.0
 20
-1905.5
 30
0.0
 11
1390.0
 21
-1905.5
 31
0.0
  0
LINE
  5
284
330
17
100
AcDbEntity
  8
0
 62
9
100
AcDbLine
 10
1390.0
 20
-1955.5
 30
0.0
 11
1390.0
 21
-1905.5
 31
0.0
  0
LINE
  5
285
330
17
100
AcDbEntity
  8
0
 62
9
100
AcDbLine
 10
1340.0
 20
-1905.5
 30
0.0
 11
1340.0
 21
-1955.5
 31
0.0
  0
LINE
  5
286
330
17
100
AcDbEntity
  8
0
 62
9
100
AcDbLine
 10
1340.0
 20
-1955.5
 30
0.0
 11
1390.0
 21
-1955.5
 31
0.0
  0
TEXT
  5
287
330
17
100
AcDbEntity
  8
TEXTLAYER
 62
1
100
AcDbText
 10
1365.0
 20
-1930.5
 30
0.0
 40
10.0
  1
7-7
 72
1
 11
1365.0
 21
-1930.5
 31
0.0
100
AcDbText
  0
LINE
  5
288
330
17
100
AcDbEntity
  8
0
 62
9
100
AcDbLine
 10
1470.0
 20
-1782.0
 30
0.0
 11
1680.0
 21
-1782.0
 31
0.0
  0
LINE
  5
289
330
17
100
AcDbEntity
  8
0
 62
9
100
AcDbLine
 10
1470.0
 20
-2079.0
 30
0.0
 11
1680.0
 21
-2079.0
 31
0.0
  0
LINE
  5
28A
330
17
100
AcDbEntity
  8
0
 62
9
100
AcDbLine
 10
1470.0
 20
-1782.0
 30
0.0
 11
1470.0
 21
-2079.0
 31
0.0
  0
LINE
  5
28B
330
17
100
AcDbEntity
  8
0
 62
9
100
AcDbLine
 10
1680.0
 20
-1782.0
 30
0.0
 11
1680.0
 21
-2079.0
 31
0.0
  0
LINE
  5
28C
330
17
100
AcDbEntity
  8
0
 62
9
100
AcDbLine
 10
1550.0
 20
-1905.5
 30
0.0
 11
1600.0
 21
-1905.5
 31
0.0
  0
LINE
  5
28D
330
17
100
AcDbEntity
  8
0
 62
9
100
AcDbLine
 10
1600.0
 20
-1955.5
 30
0.0
 11
1600.0
 21
-1905.5
 31
0.0
  0
LINE
  5
28E
330
17
100
AcDbEntity
  8
0
 62
9
100
AcDbLine
 10
1550.0
 20
-1905.5
 30
0.0
 11
1550.0
 21
-1955.5
 31
0.0
  0
LINE
  5
28F
330
17
100
AcDbEntity
  8
0
 62
9
100
AcDbLine
 10
1550.0
 20
-1955.5
 30
0.0
 11
1600.0
 21
-1955.5
 31
0.0
  0
TEXT
  5
290
330
17
100
AcDbEntity
  8
TEXTLAYER
 62
1
100
AcDbText
 10
1575.0
 20
-1930.5
 30
0.0
 40
10.0
  1
7-8
 72
1
 11
1575.0
 21
-1930.5
 31
0.0
100
AcDbText
  0
LINE
  5
291
330
17
100
AcDbEntity
  8
0
 62
9
100
AcDbLine
 10
1680.0
 20
-1782.0
 30
0.0
 11
1890.0
 21
-1782.0
 31
0.0
  0
LINE
  5
292
330
17
100
AcDbEntity
  8
0
 62
9
100
AcDbLine
 10
1680.0
 20
-2079.0
 30
0.0
 11
1890.0
 21
-2079.0
 31
0.0
  0
LINE
  5
293
330
17
100
AcDbEntity
  8
0
 62
9
100
AcDbLine
 10
1680.0
 20
-1782.0
 30
0.0
 11
1680.0
 21
-2079.0
 31
0.0
  0
LINE
  5
294
330
17
100
AcDbEntity
  8
0
 62
9
100
AcDbLine
 10
1890.0
 20
-1782.0
 30
0.0
 11
1890.0
 21
-2079.0
 31
0.0
  0
LINE
  5
295
330
17
100
AcDbEntity
  8
0
 62
9
100
AcDbLine
 10
1760.0
 20
-1905.5
 30
0.0
 11
1810.0
 21
-1905.5
 31
0.0
  0
LINE
  5
296
330
17
100
AcDbEntity
  8
0
 62
9
100
AcDbLine
 10
1810.0
 20
-1955.5
 30
0.0
 11
1810.0
 21
-1905.5
 31
0.0
  0
LINE
  5
297
330
17
100
AcDbEntity
  8
0
 62
9
100
AcDbLine
 10
1760.0
 20
-1905.5
 30
0.0
 11
1760.0
 21
-1955.5
 31
0.0
  0
LINE
  5
298
330
17
100
AcDbEntity
  8
0
 62
9
100
AcDbLine
 10
1760.0
 20
-1955.5
 30
0.0
 11
1810.0
 21
-1955.5
 31
0.0
  0
TEXT
  5
299
330
17
100
AcDbEntity
  8
TEXTLAYER
 62
1
100
AcDbText
 10
1785.0
 20
-1930.5
 30
0.0
 40
10.0
  1
7-9
 72
1
 11
1785.0
 21
-1930.5
 31
0.0
100
AcDbText
  0
LINE
  5
29A
330
17
100
AcDbEntity
  8
0
 62
9
100
AcDbLine
 10
1890.0
 20
-1782.0
 30
0.0
 11
2100.0
 21
-1782.0
 31
0.0
  0
LINE
  5
29B
330
17
100
AcDbEntity
  8
0
 62
9
100
AcDbLine
 10
1890.0
 20
-2079.0
 30
0.0
 11
2100.0
 21
-2079.0
 31
0.0
  0
LINE
  5
29C
330
17
100
AcDbEntity
  8
0
 62
9
100
AcDbLine
 10
1890.0
 20
-1782.0
 30
0.0
 11
1890.0
 21
-2079.0
 31
0.0
  0
LINE
  5
29D
330
17
100
AcDbEntity
  8
0
 62
9
100
AcDbLine
 10
2100.0
 20
-1782.0
 30
0.0
 11
2100.0
 21
-2079.0
 31
0.0
  0
LINE
  5
29E
330
17
100
AcDbEntity
  8
0
 62
9
100
AcDbLine
 10
1970.0
 20
-1905.5
 30
0.0
 11
2020.0
 21
-1905.5
 31
0.0
  0
LINE
  5
29F
330
17
100
AcDbEntity
  8
0
 62
9
100
AcDbLine
 10
2020.0
 20
-1955.5
 30
0.0
 11
2020.0
 21
-1905.5
 31
0.0
  0
LINE
  5
2A0
330
17
100
AcDbEntity
  8
0
 62
9
100
AcDbLine
 10
1970.0
 20
-1905.5
 30
0.0
 11
1970.0
 21
-1955.5
 31
0.0
  0
LINE
  5
2A1
330
17
100
AcDbEntity
  8
0
 62
9
100
AcDbLine
 10
1970.0
 20
-1955.5
 30
0.0
 11
2020.0
 21
-1955.5
 31
0.0
  0
TEXT
  5
2A2
330
17
100
AcDbEntity
  8
TEXTLAYER
 62
1
100
AcDbText
 10
1995.0
 20
-1930.5
 30
0.0
 40
10.0
  1
7-10
 72
1
 11
1995.0
 21
-1930.5
 31
0.0
100
AcDbText
  0
LINE
  5
2A3
330
17
100
AcDbEntity
  8
0
 62
9
100
AcDbLine
 10
0.0
 20
-2079.0
 30
0.0
 11
210.0
 21
-2079.0
 31
0.0
  0
LINE
  5
2A4
330
17
100
AcDbEntity
  8
0
 62
9
100
AcDbLine
 10
0.0
 20
-2376.0
 30
0.0
 11
210.0
 21
-2376.0
 31
0.0
  0
LINE
  5
2A5
330
17
100
AcDbEntity
  8
0
 62
9
100
AcDbLine
 10
0.0
 20
-2079.0
 30
0.0
 11
0.0
 21
-2376.0
 31
0.0
  0
LINE
  5
2A6
330
17
100
AcDbEntity
  8
0
 62
9
100
AcDbLine
 10
210.0
 20
-2079.0
 30
0.0
 11
210.0
 21
-2376.0
 31
0.0
  0
LINE
  5
2A7
330
17
100
AcDbEntity
  8
0
 62
9
100
AcDbLine
 10
80.0
 20
-2202.5
 30
0.0
 11
130.0
 21
-2202.5
 31
0.0
  0
LINE
  5
2A8
330
17
100
AcDbEntity
  8
0
 62
9
100
AcDbLine
 10
130.0
 20
-2252.5
 30
0.0
 11
130.0
 21
-2202.5
 31
0.0
  0
LINE
  5
2A9
330
17
100
AcDbEntity
  8
0
 62
9
100
AcDbLine
 10
80.0
 20
-2202.5
 30
0.0
 11
80.0
 21
-2252.5
 31
0.0
  0
LINE
  5
2AA
330
17
100
AcDbEntity
  8
0
 62
9
100
AcDbLine
 10
80.0
 20
-2252.5
 30
0.0
 11
130.0
 21
-2252.5
 31
0.0
  0
TEXT
  5
2AB
330
17
100
AcDbEntity
  8
TEXTLAYER
 62
1
100
AcDbText
 10
105.0
 20
-2227.5
 30
0.0
 40
10.0
  1
8-1
 72
1
 11
105.0
 21
-2227.5
 31
0.0
100
AcDbText
  0
LINE
  5
2AC
330
17
100
AcDbEntity
  8
0
 62
9
100
AcDbLine
 10
210.0
 20
-2079.0
 30
0.0
 11
420.0
 21
-2079.0
 31
0.0
  0
LINE
  5
2AD
330
17
100
AcDbEntity
  8
0
 62
9
100
AcDbLine
 10
210.0
 20
-2376.0
 30
0.0
 11
420.0
 21
-2376.0
 31
0.0
  0
LINE
  5
2AE
330
17
100
AcDbEntity
  8
0
 62
9
100
AcDbLine
 10
210.0
 20
-2079.0
 30
0.0
 11
210.0
 21
-2376.0
 31
0.0
  0
LINE
  5
2AF
330
17
100
AcDbEntity
  8
0
 62
9
100
AcDbLine
 10
420.0
 20
-2079.0
 30
0.0
 11
420.0
 21
-2376.0
 31
0.0
  0
LINE
  5
2B0
330
17
100
AcDbEntity
  8
0
 62
9
100
AcDbLine
 10
290.0
 20
-2202.5
 30
0.0
 11
340.0
 21
-2202.5
 31
0.0
  0
LINE
  5
2B1
330
17
100
AcDbEntity
  8
0
 62
9
100
AcDbLine
 10
340.0
 20
-2252.5
 30
0.0
 11
340.0
 21
-2202.5
 31
0.0
  0
LINE
  5
2B2
330
17
100
AcDbEntity
  8
0
 62
9
100
AcDbLine
 10
290.0
 20
-2202.5
 30
0.0
 11
290.0
 21
-2252.5
 31
0.0
  0
LINE
  5
2B3
330
17
100
AcDbEntity
  8
0
 62
9
100
AcDbLine
 10
290.0
 20
-2252.5
 30
0.0
 11
340.0
 21
-2252.5
 31
0.0
  0
TEXT
  5
2B4
330
17
100
AcDbEntity
  8
TEXTLAYER
 62
1
100
AcDbText
 10
315.0
 20
-2227.5
 30
0.0
 40
10.0
  1
8-2
 72
1
 11
315.0
 21
-2227.5
 31
0.0
100
AcDbText
  0
LINE
  5
2B5
330
17
100
AcDbEntity
  8
0
 62
9
100
AcDbLine
 10
420.0
 20
-2079.0
 30
0.0
 11
630.0
 21
-2079.0
 31
0.0
  0
LINE
  5
2B6
330
17
100
AcDbEntity
  8
0
 62
9
100
AcDbLine
 10
420.0
 20
-2376.0
 30
0.0
 11
630.0
 21
-2376.0
 31
0.0
  0
LINE
  5
2B7
330
17
100
AcDbEntity
  8
0
 62
9
100
AcDbLine
 10
420.0
 20
-2079.0
 30
0.0
 11
420.0
 21
-2376.0
 31
0.0
  0
LINE
  5
2B8
330
17
100
AcDbEntity
  8
0
 62
9
100
AcDbLine
 10
630.0
 20
-2079.0
 30
0.0
 11
630.0
 21
-2376.0
 31
0.0
  0
LINE
  5
2B9
330
17
100
AcDbEntity
  8
0
 62
9
100
AcDbLine
 10
500.0
 20
-2202.5
 30
0.0
 11
550.0
 21
-2202.5
 31
0.0
  0
LINE
  5
2BA
330
17
100
AcDbEntity
  8
0
 62
9
100
AcDbLine
 10
550.0
 20
-2252.5
 30
0.0
 11
550.0
 21
-2202.5
 31
0.0
  0
LINE
  5
2BB
330
17
100
AcDbEntity
  8
0
 62
9
100
AcDbLine
 10
500.0
 20
-2202.5
 30
0.0
 11
500.0
 21
-2252.5
 31
0.0
  0
LINE
  5
2BC
330
17
100
AcDbEntity
  8
0
 62
9
100
AcDbLine
 10
500.0
 20
-2252.5
 30
0.0
 11
550.0
 21
-2252.5
 31
0.0
  0
TEXT
  5
2BD
330
17
100
AcDbEntity
  8
TEXTLAYER
 62
1
100
AcDbText
 10
525.0
 20
-2227.5
 30
0.0
 40
10.0
  1
8-3
 72
1
 11
525.0
 21
-2227.5
 31
0.0
100
AcDbText
  0
LINE
  5
2BE
330
17
100
AcDbEntity
  8
0
 62
9
100
AcDbLine
 10
630.0
 20
-2079.0
 30
0.0
 11
840.0
 21
-2079.0
 31
0.0
  0
LINE
  5
2BF
330
17
100
AcDbEntity
  8
0
 62
9
100
AcDbLine
 10
630.0
 20
-2376.0
 30
0.0
 11
840.0
 21
-2376.0
 31
0.0
  0
LINE
  5
2C0
330
17
100
AcDbEntity
  8
0
 62
9
100
AcDbLine
 10
630.0
 20
-2079.0
 30
0.0
 11
630.0
 21
-2376.0
 31
0.0
  0
LINE
  5
2C1
330
17
100
AcDbEntity
  8
0
 62
9
100
AcDbLine
 10
840.0
 20
-2079.0
 30
0.0
 11
840.0
 21
-2376.0
 31
0.0
  0
LINE
  5
2C2
330
17
100
AcDbEntity
  8
0
 62
9
100
AcDbLine
 10
710.0
 20
-2202.5
 30
0.0
 11
760.0
 21
-2202.5
 31
0.0
  0
LINE
  5
2C3
330
17
100
AcDbEntity
  8
0
 62
9
100
AcDbLine
 10
760.0
 20
-2252.5
 30
0.0
 11
760.0
 21
-2202.5
 31
0.0
  0
LINE
  5
2C4
330
17
100
AcDbEntity
  8
0
 62
9
100
AcDbLine
 10
710.0
 20
-2202.5
 30
0.0
 11
710.0
 21
-2252.5
 31
0.0
  0
LINE
  5
2C5
330
17
100
AcDbEntity
  8
0
 62
9
100
AcDbLine
 10
710.0
 20
-2252.5
 30
0.0
 11
760.0
 21
-2252.5
 31
0.0
  0
TEXT
  5
2C6
330
17
100
AcDbEntity
  8
TEXTLAYER
 62
1
100
AcDbText
 10
735.0
 20
-2227.5
 30
0.0
 40
10.0
  1
8-4
 72
1
 11
735.0
 21
-2227.5
 31
0.0
100
AcDbText
  0
LINE
  5
2C7
330
17
100
AcDbEntity
  8
0
 62
9
100
AcDbLine
 10
840.0
 20
-2079.0
 30
0.0
 11
1050.0
 21
-2079.0
 31
0.0
  0
LINE
  5
2C8
330
17
100
AcDbEntity
  8
0
 62
9
100
AcDbLine
 10
840.0
 20
-2376.0
 30
0.0
 11
1050.0
 21
-2376.0
 31
0.0
  0
LINE
  5
2C9
330
17
100
AcDbEntity
  8
0
 62
9
100
AcDbLine
 10
840.0
 20
-2079.0
 30
0.0
 11
840.0
 21
-2376.0
 31
0.0
  0
LINE
  5
2CA
330
17
100
AcDbEntity
  8
0
 62
9
100
AcDbLine
 10
1050.0
 20
-2079.0
 30
0.0
 11
1050.0
 21
-2376.0
 31
0.0
  0
LINE
  5
2CB
330
17
100
AcDbEntity
  8
0
 62
9
100
AcDbLine
 10
920.0
 20
-2202.5
 30
0.0
 11
970.0
 21
-2202.5
 31
0.0
  0
LINE
  5
2CC
330
17
100
AcDbEntity
  8
0
 62
9
100
AcDbLine
 10
970.0
 20
-2252.5
 30
0.0
 11
970.0
 21
-2202.5
 31
0.0
  0
LINE
  5
2CD
330
17
100
AcDbEntity
  8
0
 62
9
100
AcDbLine
 10
920.0
 20
-2202.5
 30
0.0
 11
920.0
 21
-2252.5
 31
0.0
  0
LINE
  5
2CE
330
17
100
AcDbEntity
  8
0
 62
9
100
AcDbLine
 10
920.0
 20
-2252.5
 30
0.0
 11
970.0
 21
-2252.5
 31
0.0
  0
TEXT
  5
2CF
330
17
100
AcDbEntity
  8
TEXTLAYER
 62
1
100
AcDbText
 10
945.0
 20
-2227.5
 30
0.0
 40
10.0
  1
8-5
 72
1
 11
945.0
 21
-2227.5
 31
0.0
100
AcDbText
  0
LINE
  5
2D0
330
17
100
AcDbEntity
  8
0
 62
9
100
AcDbLine
 10
1050.0
 20
-2079.0
 30
0.0
 11
1260.0
 21
-2079.0
 31
0.0
  0
LINE
  5
2D1
330
17
100
AcDbEntity
  8
0
 62
9
100
AcDbLine
 10
1050.0
 20
-2376.0
 30
0.0
 11
1260.0
 21
-2376.0
 31
0.0
  0
LINE
  5
2D2
330
17
100
AcDbEntity
  8
0
 62
9
100
AcDbLine
 10
1050.0
 20
-2079.0
 30
0.0
 11
1050.0
 21
-2376.0
 31
0.0
  0
LINE
  5
2D3
330
17
100
AcDbEntity
  8
0
 62
9
100
AcDbLine
 10
1260.0
 20
-2079.0
 30
0.0
 11
1260.0
 21
-2376.0
 31
0.0
  0
LINE
  5
2D4
330
17
100
AcDbEntity
  8
0
 62
9
100
AcDbLine
 10
1130.0
 20
-2202.5
 30
0.0
 11
1180.0
 21
-2202.5
 31
0.0
  0
LINE
  5
2D5
330
17
100
AcDbEntity
  8
0
 62
9
100
AcDbLine
 10
1180.0
 20
-2252.5
 30
0.0
 11
1180.0
 21
-2202.5
 31
0.0
  0
LINE
  5
2D6
330
17
100
AcDbEntity
  8
0
 62
9
100
AcDbLine
 10
1130.0
 20
-2202.5
 30
0.0
 11
1130.0
 21
-2252.5
 31
0.0
  0
LINE
  5
2D7
330
17
100
AcDbEntity
  8
0
 62
9
100
AcDbLine
 10
1130.0
 20
-2252.5
 30
0.0
 11
1180.0
 21
-2252.5
 31
0.0
  0
TEXT
  5
2D8
330
17
100
AcDbEntity
  8
TEXTLAYER
 62
1
100
AcDbText
 10
1155.0
 20
-2227.5
 30
0.0
 40
10.0
  1
8-6
 72
1
 11
1155.0
 21
-2227.5
 31
0.0
100
AcDbText
  0
LINE
  5
2D9
330
17
100
AcDbEntity
  8
0
 62
9
100
AcDbLine
 10
1260.0
 20
-2079.0
 30
0.0
 11
1470.0
 21
-2079.0
 31
0.0
  0
LINE
  5
2DA
330
17
100
AcDbEntity
  8
0
 62
9
100
AcDbLine
 10
1260.0
 20
-2376.0
 30
0.0
 11
1470.0
 21
-2376.0
 31
0.0
  0
LINE
  5
2DB
330
17
100
AcDbEntity
  8
0
 62
9
100
AcDbLine
 10
1260.0
 20
-2079.0
 30
0.0
 11
1260.0
 21
-2376.0
 31
0.0
  0
LINE
  5
2DC
330
17
100
AcDbEntity
  8
0
 62
9
100
AcDbLine
 10
1470.0
 20
-2079.0
 30
0.0
 11
1470.0
 21
-2376.0
 31
0.0
  0
LINE
  5
2DD
330
17
100
AcDbEntity
  8
0
 62
9
100
AcDbLine
 10
1340.0
 20
-2202.5
 30
0.0
 11
1390.0
 21
-2202.5
 31
0.0
  0
LINE
  5
2DE
330
17
100
AcDbEntity
  8
0
 62
9
100
AcDbLine
 10
1390.0
 20
-2252.5
 30
0.0
 11
1390.0
 21
-2202.5
 31
0.0
  0
LINE
  5
2DF
330
17
100
AcDbEntity
  8
0
 62
9
100
AcDbLine
 10
1340.0
 20
-2202.5
 30
0.0
 11
1340.0
 21
-2252.5
 31
0.0
  0
LINE
  5
2E0
330
17
100
AcDbEntity
  8
0
 62
9
100
AcDbLine
 10
1340.0
 20
-2252.5
 30
0.0
 11
1390.0
 21
-2252.5
 31
0.0
  0
TEXT
  5
2E1
330
17
100
AcDbEntity
  8
TEXTLAYER
 62
1
100
AcDbText
 10
1365.0
 20
-2227.5
 30
0.0
 40
10.0
  1
8-7
 72
1
 11
1365.0
 21
-2227.5
 31
0.0
100
AcDbText
  0
LINE
  5
2E2
330
17
100
AcDbEntity
  8
0
 62
9
100
AcDbLine
 10
1470.0
 20
-2079.0
 30
0.0
 11
1680.0
 21
-2079.0
 31
0.0
  0
LINE
  5
2E3
330
17
100
AcDbEntity
  8
0
 62
9
100
AcDbLine
 10
1470.0
 20
-2376.0
 30
0.0
 11
1680.0
 21
-2376.0
 31
0.0
  0
LINE
  5
2E4
330
17
100
AcDbEntity
  8
0
 62
9
100
AcDbLine
 10
1470.0
 20
-2079.0
 30
0.0
 11
1470.0
 21
-2376.0
 31
0.0
  0
LINE
  5
2E5
330
17
100
AcDbEntity
  8
0
 62
9
100
AcDbLine
 10
1680.0
 20
-2079.0
 30
0.0
 11
1680.0
 21
-2376.0
 31
0.0
  0
LINE
  5
2E6
330
17
100
AcDbEntity
  8
0
 62
9
100
AcDbLine
 10
1550.0
 20
-2202.5
 30
0.0
 11
1600.0
 21
-2202.5
 31
0.0
  0
LINE
  5
2E7
330
17
100
AcDbEntity
  8
0
 62
9
100
AcDbLine
 10
1600.0
 20
-2252.5
 30
0.0
 11
1600.0
 21
-2202.5
 31
0.0
  0
LINE
  5
2E8
330
17
100
AcDbEntity
  8
0
 62
9
100
AcDbLine
 10
1550.0
 20
-2202.5
 30
0.0
 11
1550.0
 21
-2252.5
 31
0.0
  0
LINE
  5
2E9
330
17
100
AcDbEntity
  8
0
 62
9
100
AcDbLine
 10
1550.0
 20
-2252.5
 30
0.0
 11
1600.0
 21
-2252.5
 31
0.0
  0
TEXT
  5
2EA
330
17
100
AcDbEntity
  8
TEXTLAYER
 62
1
100
AcDbText
 10
1575.0
 20
-2227.5
 30
0.0
 40
10.0
  1
8-8
 72
1
 11
1575.0
 21
-2227.5
 31
0.0
100
AcDbText
  0
LINE
  5
2EB
330
17
100
AcDbEntity
  8
0
 62
9
100
AcDbLine
 10
1680.0
 20
-2079.0
 30
0.0
 11
1890.0
 21
-2079.0
 31
0.0
  0
LINE
  5
2EC
330
17
100
AcDbEntity
  8
0
 62
9
100
AcDbLine
 10
1680.0
 20
-2376.0
 30
0.0
 11
1890.0
 21
-2376.0
 31
0.0
  0
LINE
  5
2ED
330
17
100
AcDbEntity
  8
0
 62
9
100
AcDbLine
 10
1680.0
 20
-2079.0
 30
0.0
 11
1680.0
 21
-2376.0
 31
0.0
  0
LINE
  5
2EE
330
17
100
AcDbEntity
  8
0
 62
9
100
AcDbLine
 10
1890.0
 20
-2079.0
 30
0.0
 11
1890.0
 21
-2376.0
 31
0.0
  0
LINE
  5
2EF
330
17
100
AcDbEntity
  8
0
 62
9
100
AcDbLine
 10
1760.0
 20
-2202.5
 30
0.0
 11
1810.0
 21
-2202.5
 31
0.0
  0
LINE
  5
2F0
330
17
100
AcDbEntity
  8
0
 62
9
100
AcDbLine
 10
1810.0
 20
-2252.5
 30
0.0
 11
1810.0
 21
-2202.5
 31
0.0
  0
LINE
  5
2F1
330
17
100
AcDbEntity
  8
0
 62
9
100
AcDbLine
 10
1760.0
 20
-2202.5
 30
0.0
 11
1760.0
 21
-2252.5
 31
0.0
  0
LINE
  5
2F2
330
17
100
AcDbEntity
  8
0
 62
9
100
AcDbLine
 10
1760.0
 20
-2252.5
 30
0.0
 11
1810.0
 21
-2252.5
 31
0.0
  0
TEXT
  5
2F3
330
17
100
AcDbEntity
  8
TEXTLAYER
 62
1
100
AcDbText
 10
1785.0
 20
-2227.5
 30
0.0
 40
10.0
  1
8-9
 72
1
 11
1785.0
 21
-2227.5
 31
0.0
100
AcDbText
  0
LINE
  5
2F4
330
17
100
AcDbEntity
  8
0
 62
9
100
AcDbLine
 10
1890.0
 20
-2079.0
 30
0.0
 11
2100.0
 21
-2079.0
 31
0.0
  0
LINE
  5
2F5
330
17
100
AcDbEntity
  8
0
 62
9
100
AcDbLine
 10
1890.0
 20
-2376.0
 30
0.0
 11
2100.0
 21
-2376.0
 31
0.0
  0
LINE
  5
2F6
330
17
100
AcDbEntity
  8
0
 62
9
100
AcDbLine
 10
1890.0
 20
-2079.0
 30
0.0
 11
1890.0
 21
-2376.0
 31
0.0
  0
LINE
  5
2F7
330
17
100
AcDbEntity
  8
0
 62
9
100
AcDbLine
 10
2100.0
 20
-2079.0
 30
0.0
 11
2100.0
 21
-2376.0
 31
0.0
  0
LINE
  5
2F8
330
17
100
AcDbEntity
  8
0
 62
9
100
AcDbLine
 10
1970.0
 20
-2202.5
 30
0.0
 11
2020.0
 21
-2202.5
 31
0.0
  0
LINE
  5
2F9
330
17
100
AcDbEntity
  8
0
 62
9
100
AcDbLine
 10
2020.0
 20
-2252.5
 30
0.0
 11
2020.0
 21
-2202.5
 31
0.0
  0
LINE
  5
2FA
330
17
100
AcDbEntity
  8
0
 62
9
100
AcDbLine
 10
1970.0
 20
-2202.5
 30
0.0
 11
1970.0
 21
-2252.5
 31
0.0
  0
LINE
  5
2FB
330
17
100
AcDbEntity
  8
0
 62
9
100
AcDbLine
 10
1970.0
 20
-2252.5
 30
0.0
 11
2020.0
 21
-2252.5
 31
0.0
  0
TEXT
  5
2FC
330
17
100
AcDbEntity
  8
TEXTLAYER
 62
1
100
AcDbText
 10
1995.0
 20
-2227.5
 30
0.0
 40
10.0
  1
8-10
 72
1
 11
1995.0
 21
-2227.5
 31
0.0
100
AcDbText
  0
LINE
  5
2FD
330
17
100
AcDbEntity
  8
0
 62
9
100
AcDbLine
 10
0.0
 20
-2376.0
 30
0.0
 11
210.0
 21
-2376.0
 31
0.0
  0
LINE
  5
2FE
330
17
100
AcDbEntity
  8
0
 62
9
100
AcDbLine
 10
0.0
 20
-2673.0
 30
0.0
 11
210.0
 21
-2673.0
 31
0.0
  0
LINE
  5
2FF
330
17
100
AcDbEntity
  8
0
 62
9
100
AcDbLine
 10
0.0
 20
-2376.0
 30
0.0
 11
0.0
 21
-2673.0
 31
0.0
  0
LINE
  5
300
330
17
100
AcDbEntity
  8
0
 62
9
100
AcDbLine
 10
210.0
 20
-2376.0
 30
0.0
 11
210.0
 21
-2673.0
 31
0.0
  0
LINE
  5
301
330
17
100
AcDbEntity
  8
0
 62
9
100
AcDbLine
 10
80.0
 20
-2499.5
 30
0.0
 11
130.0
 21
-2499.5
 31
0.0
  0
LINE
  5
302
330
17
100
AcDbEntity
  8
0
 62
9
100
AcDbLine
 10
130.0
 20
-2549.5
 30
0.0
 11
130.0
 21
-2499.5
 31
0.0
  0
LINE
  5
303
330
17
100
AcDbEntity
  8
0
 62
9
100
AcDbLine
 10
80.0
 20
-2499.5
 30
0.0
 11
80.0
 21
-2549.5
 31
0.0
  0
LINE
  5
304
330
17
100
AcDbEntity
  8
0
 62
9
100
AcDbLine
 10
80.0
 20
-2549.5
 30
0.0
 11
130.0
 21
-2549.5
 31
0.0
  0
TEXT
  5
305
330
17
100
AcDbEntity
  8
TEXTLAYER
 62
1
100
AcDbText
 10
105.0
 20
-2524.5
 30
0.0
 40
10.0
  1
9-1
 72
1
 11
105.0
 21
-2524.5
 31
0.0
100
AcDbText
  0
LINE
  5
306
330
17
100
AcDbEntity
  8
0
 62
9
100
AcDbLine
 10
210.0
 20
-2376.0
 30
0.0
 11
420.0
 21
-2376.0
 31
0.0
  0
LINE
  5
307
330
17
100
AcDbEntity
  8
0
 62
9
100
AcDbLine
 10
210.0
 20
-2673.0
 30
0.0
 11
420.0
 21
-2673.0
 31
0.0
  0
LINE
  5
308
330
17
100
AcDbEntity
  8
0
 62
9
100
AcDbLine
 10
210.0
 20
-2376.0
 30
0.0
 11
210.0
 21
-2673.0
 31
0.0
  0
LINE
  5
309
330
17
100
AcDbEntity
  8
0
 62
9
100
AcDbLine
 10
420.0
 20
-2376.0
 30
0.0
 11
420.0
 21
-2673.0
 31
0.0
  0
LINE
  5
30A
330
17
100
AcDbEntity
  8
0
 62
9
100
AcDbLine
 10
290.0
 20
-2499.5
 30
0.0
 11
340.0
 21
-2499.5
 31
0.0
  0
LINE
  5
30B
330
17
100
AcDbEntity
  8
0
 62
9
100
AcDbLine
 10
340.0
 20
-2549.5
 30
0.0
 11
340.0
 21
-2499.5
 31
0.0
  0
LINE
  5
30C
330
17
100
AcDbEntity
  8
0
 62
9
100
AcDbLine
 10
290.0
 20
-2499.5
 30
0.0
 11
290.0
 21
-2549.5
 31
0.0
  0
LINE
  5
30D
330
17
100
AcDbEntity
  8
0
 62
9
100
AcDbLine
 10
290.0
 20
-2549.5
 30
0.0
 11
340.0
 21
-2549.5
 31
0.0
  0
TEXT
  5
30E
330
17
100
AcDbEntity
  8
TEXTLAYER
 62
1
100
AcDbText
 10
315.0
 20
-2524.5
 30
0.0
 40
10.0
  1
9-2
 72
1
 11
315.0
 21
-2524.5
 31
0.0
100
AcDbText
  0
LINE
  5
30F
330
17
100
AcDbEntity
  8
0
 62
9
100
AcDbLine
 10
420.0
 20
-2376.0
 30
0.0
 11
630.0
 21
-2376.0
 31
0.0
  0
LINE
  5
310
330
17
100
AcDbEntity
  8
0
 62
9
100
AcDbLine
 10
420.0
 20
-2673.0
 30
0.0
 11
630.0
 21
-2673.0
 31
0.0
  0
LINE
  5
311
330
17
100
AcDbEntity
  8
0
 62
9
100
AcDbLine
 10
420.0
 20
-2376.0
 30
0.0
 11
420.0
 21
-2673.0
 31
0.0
  0
LINE
  5
312
330
17
100
AcDbEntity
  8
0
 62
9
100
AcDbLine
 10
630.0
 20
-2376.0
 30
0.0
 11
630.0
 21
-2673.0
 31
0.0
  0
LINE
  5
313
330
17
100
AcDbEntity
  8
0
 62
9
100
AcDbLine
 10
500.0
 20
-2499.5
 30
0.0
 11
550.0
 21
-2499.5
 31
0.0
  0
LINE
  5
314
330
17
100
AcDbEntity
  8
0
 62
9
100
AcDbLine
 10
550.0
 20
-2549.5
 30
0.0
 11
550.0
 21
-2499.5
 31
0.0
  0
LINE
  5
315
330
17
100
AcDbEntity
  8
0
 62
9
100
AcDbLine
 10
500.0
 20
-2499.5
 30
0.0
 11
500.0
 21
-2549.5
 31
0.0
  0
LINE
  5
316
330
17
100
AcDbEntity
  8
0
 62
9
100
AcDbLine
 10
500.0
 20
-2549.5
 30
0.0
 11
550.0
 21
-2549.5
 31
0.0
  0
TEXT
  5
317
330
17
100
AcDbEntity
  8
TEXTLAYER
 62
1
100
AcDbText
 10
525.0
 20
-2524.5
 30
0.0
 40
10.0
  1
9-3
 72
1
 11
525.0
 21
-2524.5
 31
0.0
100
AcDbText
  0
LINE
  5
318
330
17
100
AcDbEntity
  8
0
 62
9
100
AcDbLine
 10
630.0
 20
-2376.0
 30
0.0
 11
840.0
 21
-2376.0
 31
0.0
  0
LINE
  5
319
330
17
100
AcDbEntity
  8
0
 62
9
100
AcDbLine
 10
630.0
 20
-2673.0
 30
0.0
 11
840.0
 21
-2673.0
 31
0.0
  0
LINE
  5
31A
330
17
100
AcDbEntity
  8
0
 62
9
100
AcDbLine
 10
630.0
 20
-2376.0
 30
0.0
 11
630.0
 21
-2673.0
 31
0.0
  0
LINE
  5
31B
330
17
100
AcDbEntity
  8
0
 62
9
100
AcDbLine
 10
840.0
 20
-2376.0
 30
0.0
 11
840.0
 21
-2673.0
 31
0.0
  0
LINE
  5
31C
330
17
100
AcDbEntity
  8
0
 62
9
100
AcDbLine
 10
710.0
 20
-2499.5
 30
0.0
 11
760.0
 21
-2499.5
 31
0.0
  0
LINE
  5
31D
330
17
100
AcDbEntity
  8
0
 62
9
100
AcDbLine
 10
760.0
 20
-2549.5
 30
0.0
 11
760.0
 21
-2499.5
 31
0.0
  0
LINE
  5
31E
330
17
100
AcDbEntity
  8
0
 62
9
100
AcDbLine
 10
710.0
 20
-2499.5
 30
0.0
 11
710.0
 21
-2549.5
 31
0.0
  0
LINE
  5
31F
330
17
100
AcDbEntity
  8
0
 62
9
100
AcDbLine
 10
710.0
 20
-2549.5
 30
0.0
 11
760.0
 21
-2549.5
 31
0.0
  0
TEXT
  5
320
330
17
100
AcDbEntity
  8
TEXTLAYER
 62
1
100
AcDbText
 10
735.0
 20
-2524.5
 30
0.0
 40
10.0
  1
9-4
 72
1
 11
735.0
 21
-2524.5
 31
0.0
100
AcDbText
  0
LINE
  5
321
330
17
100
AcDbEntity
  8
0
 62
9
100
AcDbLine
 10
840.0
 20
-2376.0
 30
0.0
 11
1050.0
 21
-2376.0
 31
0.0
  0
LINE
  5
322
330
17
100
AcDbEntity
  8
0
 62
9
100
AcDbLine
 10
840.0
 20
-2673.0
 30
0.0
 11
1050.0
 21
-2673.0
 31
0.0
  0
LINE
  5
323
330
17
100
AcDbEntity
  8
0
 62
9
100
AcDbLine
 10
840.0
 20
-2376.0
 30
0.0
 11
840.0
 21
-2673.0
 31
0.0
  0
LINE
  5
324
330
17
100
AcDbEntity
  8
0
 62
9
100
AcDbLine
 10
1050.0
 20
-2376.0
 30
0.0
 11
1050.0
 21
-2673.0
 31
0.0
  0
LINE
  5
325
330
17
100
AcDbEntity
  8
0
 62
9
100
AcDbLine
 10
920.0
 20
-2499.5
 30
0.0
 11
970.0
 21
-2499.5
 31
0.0
  0
LINE
  5
326
330
17
100
AcDbEntity
  8
0
 62
9
100
AcDbLine
 10
970.0
 20
-2549.5
 30
0.0
 11
970.0
 21
-2499.5
 31
0.0
  0
LINE
  5
327
330
17
100
AcDbEntity
  8
0
 62
9
100
AcDbLine
 10
920.0
 20
-2499.5
 30
0.0
 11
920.0
 21
-2549.5
 31
0.0
  0
LINE
  5
328
330
17
100
AcDbEntity
  8
0
 62
9
100
AcDbLine
 10
920.0
 20
-2549.5
 30
0.0
 11
970.0
 21
-2549.5
 31
0.0
  0
TEXT
  5
329
330
17
100
AcDbEntity
  8
TEXTLAYER
 62
1
100
AcDbText
 10
945.0
 20
-2524.5
 30
0.0
 40
10.0
  1
9-5
 72
1
 11
945.0
 21
-2524.5
 31
0.0
100
AcDbText
  0
LINE
  5
32A
330
17
100
AcDbEntity
  8
0
 62
9
100
AcDbLine
 10
1050.0
 20
-2376.0
 30
0.0
 11
1260.0
 21
-2376.0
 31
0.0
  0
LINE
  5
32B
330
17
100
AcDbEntity
  8
0
 62
9
100
AcDbLine
 10
1050.0
 20
-2673.0
 30
0.0
 11
1260.0
 21
-2673.0
 31
0.0
  0
LINE
  5
32C
330
17
100
AcDbEntity
  8
0
 62
9
100
AcDbLine
 10
1050.0
 20
-2376.0
 30
0.0
 11
1050.0
 21
-2673.0
 31
0.0
  0
LINE
  5
32D
330
17
100
AcDbEntity
  8
0
 62
9
100
AcDbLine
 10
1260.0
 20
-2376.0
 30
0.0
 11
1260.0
 21
-2673.0
 31
0.0
  0
LINE
  5
32E
330
17
100
AcDbEntity
  8
0
 62
9
100
AcDbLine
 10
1130.0
 20
-2499.5
 30
0.0
 11
1180.0
 21
-2499.5
 31
0.0
  0
LINE
  5
32F
330
17
100
AcDbEntity
  8
0
 62
9
100
AcDbLine
 10
1180.0
 20
-2549.5
 30
0.0
 11
1180.0
 21
-2499.5
 31
0.0
  0
LINE
  5
330
330
17
100
AcDbEntity
  8
0
 62
9
100
AcDbLine
 10
1130.0
 20
-2499.5
 30
0.0
 11
1130.0
 21
-2549.5
 31
0.0
  0
LINE
  5
331
330
17
100
AcDbEntity
  8
0
 62
9
100
AcDbLine
 10
1130.0
 20
-2549.5
 30
0.0
 11
1180.0
 21
-2549.5
 31
0.0
  0
TEXT
  5
332
330
17
100
AcDbEntity
  8
TEXTLAYER
 62
1
100
AcDbText
 10
1155.0
 20
-2524.5
 30
0.0
 40
10.0
  1
9-6
 72
1
 11
1155.0
 21
-2524.5
 31
0.0
100
AcDbText
  0
LINE
  5
333
330
17
100
AcDbEntity
  8
0
 62
9
100
AcDbLine
 10
1260.0
 20
-2376.0
 30
0.0
 11
1470.0
 21
-2376.0
 31
0.0
  0
LINE
  5
334
330
17
100
AcDbEntity
  8
0
 62
9
100
AcDbLine
 10
1260.0
 20
-2673.0
 30
0.0
 11
1470.0
 21
-2673.0
 31
0.0
  0
LINE
  5
335
330
17
100
AcDbEntity
  8
0
 62
9
100
AcDbLine
 10
1260.0
 20
-2376.0
 30
0.0
 11
1260.0
 21
-2673.0
 31
0.0
  0
LINE
  5
336
330
17
100
AcDbEntity
  8
0
 62
9
100
AcDbLine
 10
1470.0
 20
-2376.0
 30
0.0
 11
1470.0
 21
-2673.0
 31
0.0
  0
LINE
  5
337
330
17
100
AcDbEntity
  8
0
 62
9
100
AcDbLine
 10
1340.0
 20
-2499.5
 30
0.0
 11
1390.0
 21
-2499.5
 31
0.0
  0
LINE
  5
338
330
17
100
AcDbEntity
  8
0
 62
9
100
AcDbLine
 10
1390.0
 20
-2549.5
 30
0.0
 11
1390.0
 21
-2499.5
 31
0.0
  0
LINE
  5
339
330
17
100
AcDbEntity
  8
0
 62
9
100
AcDbLine
 10
1340.0
 20
-2499.5
 30
0.0
 11
1340.0
 21
-2549.5
 31
0.0
  0
LINE
  5
33A
330
17
100
AcDbEntity
  8
0
 62
9
100
AcDbLine
 10
1340.0
 20
-2549.5
 30
0.0
 11
1390.0
 21
-2549.5
 31
0.0
  0
TEXT
  5
33B
330
17
100
AcDbEntity
  8
TEXTLAYER
 62
1
100
AcDbText
 10
1365.0
 20
-2524.5
 30
0.0
 40
10.0
  1
9-7
 72
1
 11
1365.0
 21
-2524.5
 31
0.0
100
AcDbText
  0
LINE
  5
33C
330
17
100
AcDbEntity
  8
0
 62
9
100
AcDbLine
 10
1470.0
 20
-2376.0
 30
0.0
 11
1680.0
 21
-2376.0
 31
0.0
  0
LINE
  5
33D
330
17
100
AcDbEntity
  8
0
 62
9
100
AcDbLine
 10
1470.0
 20
-2673.0
 30
0.0
 11
1680.0
 21
-2673.0
 31
0.0
  0
LINE
  5
33E
330
17
100
AcDbEntity
  8
0
 62
9
100
AcDbLine
 10
1470.0
 20
-2376.0
 30
0.0
 11
1470.0
 21
-2673.0
 31
0.0
  0
LINE
  5
33F
330
17
100
AcDbEntity
  8
0
 62
9
100
AcDbLine
 10
1680.0
 20
-2376.0
 30
0.0
 11
1680.0
 21
-2673.0
 31
0.0
  0
LINE
  5
340
330
17
100
AcDbEntity
  8
0
 62
9
100
AcDbLine
 10
1550.0
 20
-2499.5
 30
0.0
 11
1600.0
 21
-2499.5
 31
0.0
  0
LINE
  5
341
330
17
100
AcDbEntity
  8
0
 62
9
100
AcDbLine
 10
1600.0
 20
-2549.5
 30
0.0
 11
1600.0
 21
-2499.5
 31
0.0
  0
LINE
  5
342
330
17
100
AcDbEntity
  8
0
 62
9
100
AcDbLine
 10
1550.0
 20
-2499.5
 30
0.0
 11
1550.0
 21
-2549.5
 31
0.0
  0
LINE
  5
343
330
17
100
AcDbEntity
  8
0
 62
9
100
AcDbLine
 10
1550.0
 20
-2549.5
 30
0.0
 11
1600.0
 21
-2549.5
 31
0.0
  0
TEXT
  5
344
330
17
100
AcDbEntity
  8
TEXTLAYER
 62
1
100
AcDbText
 10
1575.0
 20
-2524.5
 30
0.0
 40
10.0
  1
9-8
 72
1
 11
1575.0
 21
-2524.5
 31
0.0
100
AcDbText
  0
LINE
  5
345
330
17
100
AcDbEntity
  8
0
 62
9
100
AcDbLine
 10
1680.0
 20
-2376.0
 30
0.0
 11
1890.0
 21
-2376.0
 31
0.0
  0
LINE
  5
346
330
17
100
AcDbEntity
  8
0
 62
9
100
AcDbLine
 10
1680.0
 20
-2673.0
 30
0.0
 11
1890.0
 21
-2673.0
 31
0.0
  0
LINE
  5
347
330
17
100
AcDbEntity
  8
0
 62
9
100
AcDbLine
 10
1680.0
 20
-2376.0
 30
0.0
 11
1680.0
 21
-2673.0
 31
0.0
  0
LINE
  5
348
330
17
100
AcDbEntity
  8
0
 62
9
100
AcDbLine
 10
1890.0
 20
-2376.0
 30
0.0
 11
1890.0
 21
-2673.0
 31
0.0
  0
LINE
  5
349
330
17
100
AcDbEntity
  8
0
 62
9
100
AcDbLine
 10
1760.0
 20
-2499.5
 30
0.0
 11
1810.0
 21
-2499.5
 31
0.0
  0
LINE
  5
34A
330
17
100
AcDbEntity
  8
0
 62
9
100
AcDbLine
 10
1810.0
 20
-2549.5
 30
0.0
 11
1810.0
 21
-2499.5
 31
0.0
  0
LINE
  5
34B
330
17
100
AcDbEntity
  8
0
 62
9
100
AcDbLine
 10
1760.0
 20
-2499.5
 30
0.0
 11
1760.0
 21
-2549.5
 31
0.0
  0
LINE
  5
34C
330
17
100
AcDbEntity
  8
0
 62
9
100
AcDbLine
 10
1760.0
 20
-2549.5
 30
0.0
 11
1810.0
 21
-2549.5
 31
0.0
  0
TEXT
  5
34D
330
17
100
AcDbEntity
  8
TEXTLAYER
 62
1
100
AcDbText
 10
1785.0
 20
-2524.5
 30
0.0
 40
10.0
  1
9-9
 72
1
 11
1785.0
 21
-2524.5
 31
0.0
100
AcDbText
  0
LINE
  5
34E
330
17
100
AcDbEntity
  8
0
 62
9
100
AcDbLine
 10
1890.0
 20
-2376.0
 30
0.0
 11
2100.0
 21
-2376.0
 31
0.0
  0
LINE
  5
34F
330
17
100
AcDbEntity
  8
0
 62
9
100
AcDbLine
 10
1890.0
 20
-2673.0
 30
0.0
 11
2100.0
 21
-2673.0
 31
0.0
  0
LINE
  5
350
330
17
100
AcDbEntity
  8
0
 62
9
100
AcDbLine
 10
1890.0
 20
-2376.0
 30
0.0
 11
1890.0
 21
-2673.0
 31
0.0
  0
LINE
  5
351
330
17
100
AcDbEntity
  8
0
 62
9
100
AcDbLine
 10
2100.0
 20
-2376.0
 30
0.0
 11
2100.0
 21
-2673.0
 31
0.0
  0
LINE
  5
352
330
17
100
AcDbEntity
  8
0
 62
9
100
AcDbLine
 10
1970.0
 20
-2499.5
 30
0.0
 11
2020.0
 21
-2499.5
 31
0.0
  0
LINE
  5
353
330
17
100
AcDbEntity
  8
0
 62
9
100
AcDbLine
 10
2020.0
 20
-2549.5
 30
0.0
 11
2020.0
 21
-2499.5
 31
0.0
  0
LINE
  5
354
330
17
100
AcDbEntity
  8
0
 62
9
100
AcDbLine
 10
1970.0
 20
-2499.5
 30
0.0
 11
1970.0
 21
-2549.5
 31
0.0
  0
LINE
  5
355
330
17
100
AcDbEntity
  8
0
 62
9
100
AcDbLine
 10
1970.0
 20
-2549.5
 30
0.0
 11
2020.0
 21
-2549.5
 31
0.0
  0
TEXT
  5
356
330
17
100
AcDbEntity
  8
TEXTLAYER
 62
1
100
AcDbText
 10
1995.0
 20
-2524.5
 30
0.0
 40
10.0
  1
9-10
 72
1
 11
1995.0
 21
-2524.5
 31
0.0
100
AcDbText
  0
LINE
  5
357
330
17
100
AcDbEntity
  8
0
 62
9
100
AcDbLine
 10
0.0
 20
-2673.0
 30
0.0
 11
210.0
 21
-2673.0
 31
0.0
  0
LINE
  5
358
330
17
100
AcDbEntity
  8
0
 62
9
100
AcDbLine
 10
0.0
 20
-2970.0
 30
0.0
 11
210.0
 21
-2970.0
 31
0.0
  0
LINE
  5
359
330
17
100
AcDbEntity
  8
0
 62
9
100
AcDbLine
 10
0.0
 20
-2673.0
 30
0.0
 11
0.0
 21
-2970.0
 31
0.0
  0
LINE
  5
35A
330
17
100
AcDbEntity
  8
0
 62
9
100
AcDbLine
 10
210.0
 20
-2673.0
 30
0.0
 11
210.0
 21
-2970.0
 31
0.0
  0
LINE
  5
35B
330
17
100
AcDbEntity
  8
0
 62
9
100
AcDbLine
 10
80.0
 20
-2796.5
 30
0.0
 11
130.0
 21
-2796.5
 31
0.0
  0
LINE
  5
35C
330
17
100
AcDbEntity
  8
0
 62
9
100
AcDbLine
 10
130.0
 20
-2846.5
 30
0.0
 11
130.0
 21
-2796.5
 31
0.0
  0
LINE
  5
35D
330
17
100
AcDbEntity
  8
0
 62
9
100
AcDbLine
 10
80.0
 20
-2796.5
 30
0.0
 11
80.0
 21
-2846.5
 31
0.0
  0
LINE
  5
35E
330
17
100
AcDbEntity
  8
0
 62
9
100
AcDbLine
 10
80.0
 20
-2846.5
 30
0.0
 11
130.0
 21
-2846.5
 31
0.0
  0
TEXT
  5
35F
330
17
100
AcDbEntity
  8
TEXTLAYER
 62
1
100
AcDbText
 10
105.0
 20
-2821.5
 30
0.0
 40
10.0
  1
10-1
 72
1
 11
105.0
 21
-2821.5
 31
0.0
100
AcDbText
  0
LINE
  5
360
330
17
100
AcDbEntity
  8
0
 62
9
100
AcDbLine
 10
210.0
 20
-2673.0
 30
0.0
 11
420.0
 21
-2673.0
 31
0.0
  0
LINE
  5
361
330
17
100
AcDbEntity
  8
0
 62
9
100
AcDbLine
 10
210.0
 20
-2970.0
 30
0.0
 11
420.0
 21
-2970.0
 31
0.0
  0
LINE
  5
362
330
17
100
AcDbEntity
  8
0
 62
9
100
AcDbLine
 10
210.0
 20
-2673.0
 30
0.0
 11
210.0
 21
-2970.0
 31
0.0
  0
LINE
  5
363
330
17
100
AcDbEntity
  8
0
 62
9
100
AcDbLine
 10
420.0
 20
-2673.0
 30
0.0
 11
420.0
 21
-2970.0
 31
0.0
  0
LINE
  5
364
330
17
100
AcDbEntity
  8
0
 62
9
100
AcDbLine
 10
290.0
 20
-2796.5
 30
0.0
 11
340.0
 21
-2796.5
 31
0.0
  0
LINE
  5
365
330
17
100
AcDbEntity
  8
0
 62
9
100
AcDbLine
 10
340.0
 20
-2846.5
 30
0.0
 11
340.0
 21
-2796.5
 31
0.0
  0
LINE
  5
366
330
17
100
AcDbEntity
  8
0
 62
9
100
AcDbLine
 10
290.0
 20
-2796.5
 30
0.0
 11
290.0
 21
-2846.5
 31
0.0
  0
LINE
  5
367
330
17
100
AcDbEntity
  8
0
 62
9
100
AcDbLine
 10
290.0
 20
-2846.5
 30
0.0
 11
340.0
 21
-2846.5
 31
0.0
  0
TEXT
  5
368
330
17
100
AcDbEntity
  8
TEXTLAYER
 62
1
100
AcDbText
 10
315.0
 20
-2821.5
 30
0.0
 40
10.0
  1
10-2
 72
1
 11
315.0
 21
-2821.5
 31
0.0
100
AcDbText
  0
LINE
  5
369
330
17
100
AcDbEntity
  8
0
 62
9
100
AcDbLine
 10
420.0
 20
-2673.0
 30
0.0
 11
630.0
 21
-2673.0
 31
0.0
  0
LINE
  5
36A
330
17
100
AcDbEntity
  8
0
 62
9
100
AcDbLine
 10
420.0
 20
-2970.0
 30
0.0
 11
630.0
 21
-2970.0
 31
0.0
  0
LINE
  5
36B
330
17
100
AcDbEntity
  8
0
 62
9
100
AcDbLine
 10
420.0
 20
-2673.0
 30
0.0
 11
420.0
 21
-2970.0
 31
0.0
  0
LINE
  5
36C
330
17
100
AcDbEntity
  8
0
 62
9
100
AcDbLine
 10
630.0
 20
-2673.0
 30
0.0
 11
630.0
 21
-2970.0
 31
0.0
  0
LINE
  5
36D
330
17
100
AcDbEntity
  8
0
 62
9
100
AcDbLine
 10
500.0
 20
-2796.5
 30
0.0
 11
550.0
 21
-2796.5
 31
0.0
  0
LINE
  5
36E
330
17
100
AcDbEntity
  8
0
 62
9
100
AcDbLine
 10
550.0
 20
-2846.5
 30
0.0
 11
550.0
 21
-2796.5
 31
0.0
  0
LINE
  5
36F
330
17
100
AcDbEntity
  8
0
 62
9
100
AcDbLine
 10
500.0
 20
-2796.5
 30
0.0
 11
500.0
 21
-2846.5
 31
0.0
  0
LINE
  5
370
330
17
100
AcDbEntity
  8
0
 62
9
100
AcDbLine
 10
500.0
 20
-2846.5
 30
0.0
 11
550.0
 21
-2846.5
 31
0.0
  0
TEXT
  5
371
330
17
100
AcDbEntity
  8
TEXTLAYER
 62
1
100
AcDbText
 10
525.0
 20
-2821.5
 30
0.0
 40
10.0
  1
10-3
 72
1
 11
525.0
 21
-2821.5
 31
0.0
100
AcDbText
  0
LINE
  5
372
330
17
100
AcDbEntity
  8
0
 62
9
100
AcDbLine
 10
630.0
 20
-2673.0
 30
0.0
 11
840.0
 21
-2673.0
 31
0.0
  0
LINE
  5
373
330
17
100
AcDbEntity
  8
0
 62
9
100
AcDbLine
 10
630.0
 20
-2970.0
 30
0.0
 11
840.0
 21
-2970.0
 31
0.0
  0
LINE
  5
374
330
17
100
AcDbEntity
  8
0
 62
9
100
AcDbLine
 10
630.0
 20
-2673.0
 30
0.0
 11
630.0
 21
-2970.0
 31
0.0
  0
LINE
  5
375
330
17
100
AcDbEntity
  8
0
 62
9
100
AcDbLine
 10
840.0
 20
-2673.0
 30
0.0
 11
840.0
 21
-2970.0
 31
0.0
  0
LINE
  5
376
330
17
100
AcDbEntity
  8
0
 62
9
100
AcDbLine
 10
710.0
 20
-2796.5
 30
0.0
 11
760.0
 21
-2796.5
 31
0.0
  0
LINE
  5
377
330
17
100
AcDbEntity
  8
0
 62
9
100
AcDbLine
 10
760.0
 20
-2846.5
 30
0.0
 11
760.0
 21
-2796.5
 31
0.0
  0
LINE
  5
378
330
17
100
AcDbEntity
  8
0
 62
9
100
AcDbLine
 10
710.0
 20
-2796.5
 30
0.0
 11
710.0
 21
-2846.5
 31
0.0
  0
LINE
  5
379
330
17
100
AcDbEntity
  8
0
 62
9
100
AcDbLine
 10
710.0
 20
-2846.5
 30
0.0
 11
760.0
 21
-2846.5
 31
0.0
  0
TEXT
  5
37A
330
17
100
AcDbEntity
  8
TEXTLAYER
 62
1
100
AcDbText
 10
735.0
 20
-2821.5
 30
0.0
 40
10.0
  1
10-4
 72
1
 11
735.0
 21
-2821.5
 31
0.0
100
AcDbText
  0
LINE
  5
37B
330
17
100
AcDbEntity
  8
0
 62
9
100
AcDbLine
 10
840.0
 20
-2673.0
 30
0.0
 11
1050.0
 21
-2673.0
 31
0.0
  0
LINE
  5
37C
330
17
100
AcDbEntity
  8
0
 62
9
100
AcDbLine
 10
840.0
 20
-2970.0
 30
0.0
 11
1050.0
 21
-2970.0
 31
0.0
  0
LINE
  5
37D
330
17
100
AcDbEntity
  8
0
 62
9
100
AcDbLine
 10
840.0
 20
-2673.0
 30
0.0
 11
840.0
 21
-2970.0
 31
0.0
  0
LINE
  5
37E
330
17
100
AcDbEntity
  8
0
 62
9
100
AcDbLine
 10
1050.0
 20
-2673.0
 30
0.0
 11
1050.0
 21
-2970.0
 31
0.0
  0
LINE
  5
37F
330
17
100
AcDbEntity
  8
0
 62
9
100
AcDbLine
 10
920.0
 20
-2796.5
 30
0.0
 11
970.0
 21
-2796.5
 31
0.0
  0
LINE
  5
380
330
17
100
AcDbEntity
  8
0
 62
9
100
AcDbLine
 10
970.0
 20
-2846.5
 30
0.0
 11
970.0
 21
-2796.5
 31
0.0
  0
LINE
  5
381
330
17
100
AcDbEntity
  8
0
 62
9
100
AcDbLine
 10
920.0
 20
-2796.5
 30
0.0
 11
920.0
 21
-2846.5
 31
0.0
  0
LINE
  5
382
330
17
100
AcDbEntity
  8
0
 62
9
100
AcDbLine
 10
920.0
 20
-2846.5
 30
0.0
 11
970.0
 21
-2846.5
 31
0.0
  0
TEXT
  5
383
330
17
100
AcDbEntity
  8
TEXTLAYER
 62
1
100
AcDbText
 10
945.0
 20
-2821.5
 30
0.0
 40
10.0
  1
10-5
 72
1
 11
945.0
 21
-2821.5
 31
0.0
100
AcDbText
  0
LINE
  5
384
330
17
100
AcDbEntity
  8
0
 62
9
100
AcDbLine
 10
1050.0
 20
-2673.0
 30
0.0
 11
1260.0
 21
-2673.0
 31
0.0
  0
LINE
  5
385
330
17
100
AcDbEntity
  8
0
 62
9
100
AcDbLine
 10
1050.0
 20
-2970.0
 30
0.0
 11
1260.0
 21
-2970.0
 31
0.0
  0
LINE
  5
386
330
17
100
AcDbEntity
  8
0
 62
9
100
AcDbLine
 10
1050.0
 20
-2673.0
 30
0.0
 11
1050.0
 21
-2970.0
 31
0.0
  0
LINE
  5
387
330
17
100
AcDbEntity
  8
0
 62
9
100
AcDbLine
 10
1260.0
 20
-2673.0
 30
0.0
 11
1260.0
 21
-2970.0
 31
0.0
  0
LINE
  5
388
330
17
100
AcDbEntity
  8
0
 62
9
100
AcDbLine
 10
1130.0
 20
-2796.5
 30
0.0
 11
1180.0
 21
-2796.5
 31
0.0
  0
LINE
  5
389
330
17
100
AcDbEntity
  8
0
 62
9
100
AcDbLine
 10
1180.0
 20
-2846.5
 30
0.0
 11
1180.0
 21
-2796.5
 31
0.0
  0
LINE
  5
38A
330
17
100
AcDbEntity
  8
0
 62
9
100
AcDbLine
 10
1130.0
 20
-2796.5
 30
0.0
 11
1130.0
 21
-2846.5
 31
0.0
  0
LINE
  5
38B
330
17
100
AcDbEntity
  8
0
 62
9
100
AcDbLine
 10
1130.0
 20
-2846.5
 30
0.0
 11
1180.0
 21
-2846.5
 31
0.0
  0
TEXT
  5
38C
330
17
100
AcDbEntity
  8
TEXTLAYER
 62
1
100
AcDbText
 10
1155.0
 20
-2821.5
 30
0.0
 40
10.0
  1
10-6
 72
1
 11
1155.0
 21
-2821.5
 31
0.0
100
AcDbText
  0
LINE
  5
38D
330
17
100
AcDbEntity
  8
0
 62
9
100
AcDbLine
 10
1260.0
 20
-2673.0
 30
0.0
 11
1470.0
 21
-2673.0
 31
0.0
  0
LINE
  5
38E
330
17
100
AcDbEntity
  8
0
 62
9
100
AcDbLine
 10
1260.0
 20
-2970.0
 30
0.0
 11
1470.0
 21
-2970.0
 31
0.0
  0
LINE
  5
38F
330
17
100
AcDbEntity
  8
0
 62
9
100
AcDbLine
 10
1260.0
 20
-2673.0
 30
0.0
 11
1260.0
 21
-2970.0
 31
0.0
  0
LINE
  5
390
330
17
100
AcDbEntity
  8
0
 62
9
100
AcDbLine
 10
1470.0
 20
-2673.0
 30
0.0
 11
1470.0
 21
-2970.0
 31
0.0
  0
LINE
  5
391
330
17
100
AcDbEntity
  8
0
 62
9
100
AcDbLine
 10
1340.0
 20
-2796.5
 30
0.0
 11
1390.0
 21
-2796.5
 31
0.0
  0
LINE
  5
392
330
17
100
AcDbEntity
  8
0
 62
9
100
AcDbLine
 10
1390.0
 20
-2846.5
 30
0.0
 11
1390.0
 21
-2796.5
 31
0.0
  0
LINE
  5
393
330
17
100
AcDbEntity
  8
0
 62
9
100
AcDbLine
 10
1340.0
 20
-2796.5
 30
0.0
 11
1340.0
 21
-2846.5
 31
0.0
  0
LINE
  5
394
330
17
100
AcDbEntity
  8
0
 62
9
100
AcDbLine
 10
1340.0
 20
-2846.5
 30
0.0
 11
1390.0
 21
-2846.5
 31
0.0
  0
TEXT
  5
395
330
17
100
AcDbEntity
  8
TEXTLAYER
 62
1
100
AcDbText
 10
1365.0
 20
-2821.5
 30
0.0
 40
10.0
  1
10-7
 72
1
 11
1365.0
 21
-2821.5
 31
0.0
100
AcDbText
  0
LINE
  5
396
330
17
100
AcDbEntity
  8
0
 62
9
100
AcDbLine
 10
1470.0
 20
-2673.0
 30
0.0
 11
1680.0
 21
-2673.0
 31
0.0
  0
LINE
  5
397
330
17
100
AcDbEntity
  8
0
 62
9
100
AcDbLine
 10
1470.0
 20
-2970.0
 30
0.0
 11
1680.0
 21
-2970.0
 31
0.0
  0
LINE
  5
398
330
17
100
AcDbEntity
  8
0
 62
9
100
AcDbLine
 10
1470.0
 20
-2673.0
 30
0.0
 11
1470.0
 21
-2970.0
 31
0.0
  0
LINE
  5
399
330
17
100
AcDbEntity
  8
0
 62
9
100
AcDbLine
 10
1680.0
 20
-2673.0
 30
0.0
 11
1680.0
 21
-2970.0
 31
0.0
  0
LINE
  5
39A
330
17
100
AcDbEntity
  8
0
 62
9
100
AcDbLine
 10
1550.0
 20
-2796.5
 30
0.0
 11
1600.0
 21
-2796.5
 31
0.0
  0
LINE
  5
39B
330
17
100
AcDbEntity
  8
0
 62
9
100
AcDbLine
 10
1600.0
 20
-2846.5
 30
0.0
 11
1600.0
 21
-2796.5
 31
0.0
  0
LINE
  5
39C
330
17
100
AcDbEntity
  8
0
 62
9
100
AcDbLine
 10
1550.0
 20
-2796.5
 30
0.0
 11
1550.0
 21
-2846.5
 31
0.0
  0
LINE
  5
39D
330
17
100
AcDbEntity
  8
0
 62
9
100
AcDbLine
 10
1550.0
 20
-2846.5
 30
0.0
 11
1600.0
 21
-2846.5
 31
0.0
  0
TEXT
  5
39E
330
17
100
AcDbEntity
  8
TEXTLAYER
 62
1
100
AcDbText
 10
1575.0
 20
-2821.5
 30
0.0
 40
10.0
  1
10-8
 72
1
 11
1575.0
 21
-2821.5
 31
0.0
100
AcDbText
  0
LINE
  5
39F
330
17
100
AcDbEntity
  8
0
 62
9
100
AcDbLine
 10
1680.0
 20
-2673.0
 30
0.0
 11
1890.0
 21
-2673.0
 31
0.0
  0
LINE
  5
3A0
330
17
100
AcDbEntity
  8
0
 62
9
100
AcDbLine
 10
1680.0
 20
-2970.0
 30
0.0
 11
1890.0
 21
-2970.0
 31
0.0
  0
LINE
  5
3A1
330
17
100
AcDbEntity
  8
0
 62
9
100
AcDbLine
 10
1680.0
 20
-2673.0
 30
0.0
 11
1680.0
 21
-2970.0
 31
0.0
  0
LINE
  5
3A2
330
17
100
AcDbEntity
  8
0
 62
9
100
AcDbLine
 10
1890.0
 20
-2673.0
 30
0.0
 11
1890.0
 21
-2970.0
 31
0.0
  0
LINE
  5
3A3
330
17
100
AcDbEntity
  8
0
 62
9
100
AcDbLine
 10
1760.0
 20
-2796.5
 30
0.0
 11
1810.0
 21
-2796.5
 31
0.0
  0
LINE
  5
3A4
330
17
100
AcDbEntity
  8
0
 62
9
100
AcDbLine
 10
1810.0
 20
-2846.5
 30
0.0
 11
1810.0
 21
-2796.5
 31
0.0
  0
LINE
  5
3A5
330
17
100
AcDbEntity
  8
0
 62
9
100
AcDbLine
 10
1760.0
 20
-2796.5
 30
0.0
 11
1760.0
 21
-2846.5
 31
0.0
  0
LINE
  5
3A6
330
17
100
AcDbEntity
  8
0
 62
9
100
AcDbLine
 10
1760.0
 20
-2846.5
 30
0.0
 11
1810.0
 21
-2846.5
 31
0.0
  0
TEXT
  5
3A7
330
17
100
AcDbEntity
  8
TEXTLAYER
 62
1
100
AcDbText
 10
1785.0
 20
-2821.5
 30
0.0
 40
10.0
  1
10-9
 72
1
 11
1785.0
 21
-2821.5
 31
0.0
100
AcDbText
  0
LINE
  5
3A8
330
17
100
AcDbEntity
  8
0
 62
9
100
AcDbLine
 10
1890.0
 20
-2673.0
 30
0.0
 11
2100.0
 21
-2673.0
 31
0.0
  0
LINE
  5
3A9
330
17
100
AcDbEntity
  8
0
 62
9
100
AcDbLine
 10
1890.0
 20
-2970.0
 30
0.0
 11
2100.0
 21
-2970.0
 31
0.0
  0
LINE
  5
3AA
330
17
100
AcDbEntity
  8
0
 62
9
100
AcDbLine
 10
1890.0
 20
-2673.0
 30
0.0
 11
1890.0
 21
-2970.0
 31
0.0
  0
LINE
  5
3AB
330
17
100
AcDbEntity
  8
0
 62
9
100
AcDbLine
 10
2100.0
 20
-2673.0
 30
0.0
 11
2100.0
 21
-2970.0
 31
0.0
  0
LINE
  5
3AC
330
17
100
AcDbEntity
  8
0
 62
9
100
AcDbLine
 10
1970.0
 20
-2796.5
 30
0.0
 11
2020.0
 21
-2796.5
 31
0.0
  0
LINE
  5
3AD
330
17
100
AcDbEntity
  8
0
 62
9
100
AcDbLine
 10
2020.0
 20
-2846.5
 30
0.0
 11
2020.0
 21
-2796.5
 31
0.0
  0
LINE
  5
3AE
330
17
100
AcDbEntity
  8
0
 62
9
100
AcDbLine
 10
1970.0
 20
-2796.5
 30
0.0
 11
1970.0
 21
-2846.5
 31
0.0
  0
LINE
  5
3AF
330
17
100
AcDbEntity
  8
0
 62
9
100
AcDbLine
 10
1970.0
 20
-2846.5
 30
0.0
 11
2020.0
 21
-2846.5
 31
0.0
  0
TEXT
  5
3B0
330
17
100
AcDbEntity
  8
TEXTLAYER
 62
1
100
AcDbText
 10
1995.0
 20
-2821.5
 30
0.0
 40
10.0
  1
10-10
 72
1
 11
1995.0
 21
-2821.5
 31
0.0
100
AcDbText
  0
VIEWPORT
  5
3B2
330
1B
100
AcDbEntity
 67
1
  8
VIEWPORTS
100
AcDbViewport
 10
105.0
 20
148.5
 30
0.0
 40
231.00000000000003
 41
326.70000000000005
 68
1
 69
1
 12
105.0
 22
148.5
 13
0.0
 23
0.0
 14
10.0
 24
10.0
 15
10.0
 25
10.0
 16
0.0
 26
0.0
 36
0.0
 17
0.0
 27
0.0
 37
0.0
 42
50.0
 43
0.0
 44
0.0
 45
326.70000000000005
 50
0.0
 51
0.0
 72
100
 90
557088
  1

281
0
 71
0
 74
0
110
0.0
120
0.0
130
0.0
111
1.0
121
0.0
131
0.0
112
0.0
122
1.0
132
0.0
 79
0
146
0.0
  0
VIEWPORT
  5
3B3
330
1B
100
AcDbEntity
 67
1
  8
VIEWPORTS
100
AcDbViewport
 10
105.0
 20
148.5
 30
0.0
 40
210.0
 41
297.0
 68
1
 69
3
 12
1050.0
 22
-1485.0
 13
0.0
 23
0.0
 14
10.0
 24
10.0
 15
10.0
 25
10.0
 16
0.0
 26
0.0
 36
0.0
 17
0.0
 27
0.0
 37
0.0
 42
50.0
 43
0.0
 44
0.0
 45
2970.0
 50
0.0
 51
0.0
 72
100
 90
0
  1

281
0
 71
0
 74
0
110
0.0
120
0.0
130
0.0
111
1.0
121
0.0
131
0.0
112
0.0
122
1.0
132
0.0
 79
0
146
0.0
  0
ENDSEC
  0
SECTION
  2
OBJECTS
  0
DICTIONARY
  5
A
330
0
100
AcDbDictionary
281
1
  3
ACAD_COLOR
350
B
  3
ACAD_GROUP
350
C
  3
ACAD_LAYOUT
350
D
  3
ACAD_MATERIAL
350
E
  3
ACAD_MLEADERSTYLE
350
F
  3
ACAD_MLINESTYLE
350
10
  3
ACAD_PLOTSETTINGS
350
11
  3
ACAD_PLOTSTYLENAME
350
12
  3
ACAD_SCALELIST
350
14
  3
ACAD_TABLESTYLE
350
15
  3
ACAD_VISUALSTYLE
350
16
  0
DICTIONARY
  5
B
330
A
100
AcDbDictionary
281
1
  0
DICTIONARY
  5
C
330
A
100
AcDbDictionary
281
1
  0
DICTIONARY
  5
D
330
A
100
AcDbDictionary
281
1
  3
Model
350
1A
  3
Layout1
350
1E
  3
Plan 1-1
350
3B7
  3
Plan 1-2
350
3BD
  3
Plan 1-3
350
3C3
  3
Plan 1-4
350
3C9
  3
Plan 1-5
350
3CF
  3
Plan 1-6
350
3D5
  3
Plan 1-7
350
3DB
  3
Plan 1-8
350
3E1
  3
Plan 1-9
350
3E7
  3
Plan 1-10
350
3ED
  3
Plan 2-1
350
3F3
  3
Plan 2-2
350
3F9
  3
Plan 2-3
350
3FF
  3
Plan 2-4
350
405
  3
Plan 2-5
350
40B
  3
Plan 2-6
350
411
  3
Plan 2-7
350
417
  3
Plan 2-8
350
41D
  3
Plan 2-9
350
423
  3
Plan 2-10
350
429
  3
Plan 3-1
350
42F
  3
Plan 3-2
350
435
  3
Plan 3-3
350
43B
  3
Plan 3-4
350
441
  3
Plan 3-5
350
447
  3
Plan 3-6
350
44D
  3
Plan 3-7
350
453
  3
Plan 3-8
350
459
  3
Plan 3-9
350
45F
  3
Plan 3-10
350
465
  3
Plan 4-1
350
46B
  3
Plan 4-2
350
471
  3
Plan 4-3
350
477
  3
Plan 4-4
350
47D
  3
Plan 4-5
350
483
  3
Plan 4-6
350
489
  3
Plan 4-7
350
48F
  3
Plan 4-8
350
495
  3
Plan 4-9
350
49B
  3
Plan 4-10
350
4A1
  3
Plan 5-1
350
4A7
  3
Plan 5-2
350
4AD
  3
Plan 5-3
350
4B3
  3
Plan 5-4
350
4B9
  3
Plan 5-5
350
4BF
  3
Plan 5-6
350
4C5
  3
Plan 5-7
350
4CB
  3
Plan 5-8
350
4D1
  3
Plan 5-9
350
4D7
  3
Plan 5-10
350
4DD
  3
Plan 6-1
350
4E3
  3
Plan 6-2
350
4E9
  3
Plan 6-3
350
4EF
  3
Plan 6-4
350
4F5
  3
Plan 6-5
350
4FB
  3
Plan 6-6
350
501
  3
Plan 6-7
350
507
  3
Plan 6-8
350
50D
  3
Plan 6-9
350
513
  3
Plan 6-10
350
519
  3
Plan 7-1
350
51F
  3
Plan 7-2
350
525
  3
Plan 7-3
350
52B
  3
Plan 7-4
350
531
  3
Plan 7-5
350
537
  3
Plan 7-6
350
53D
  3
Plan 7-7
350
543
  3
Plan 7-8
350
549
  3
Plan 7-9
350
54F
  3
Plan 7-10
350
555
  3
Plan 8-1
350
55B
  3
Plan 8-2
350
561
  3
Plan 8-3
350
567
  3
Plan 8-4
350
56D
  3
Plan 8-5
350
573
  3
Plan 8-6
350
579
  3
Plan 8-7
350
57F
  3
Plan 8-8
350
585
  3
Plan 8-9
350
58B
  3
Plan 8-10
350
591
  3
Plan 9-1
350
597
  3
Plan 9-2
350
59D
  3
Plan 9-3
350
5A3
  3
Plan 9-4
350
5A9
  3
Plan 9-5
350
5AF
  3
Plan 9-6
350
5B5
  3
Plan 9-7
350
5BB
  3
Plan 9-8
350
5C1
  3
Plan 9-9
350
5C7
  3
Plan 9-10
350
5CD
  3
Plan 10-1
350
5D3
  3
Plan 10-2
350
5D9
  3
Plan 10-3
350
5DF
  3
Plan 10-4
350
5E5
  3
Plan 10-5
350
5EB
  3
Plan 10-6
350
5F1
  3
Plan 10-7
350
5F7
  3
Plan 10-8
350
5FD
  3
Plan 10-9
350
603
  3
Plan 10-10
350
609
  0
DICTIONARY
  5
E
330
A
100
AcDbDictionary
281
1
  3
ByBlock
350
1F
  3
ByLayer
350
20
  3
Global
350
21
  0
DICTIONARY
  5
F
330
A
100
AcDbDictionary
281
1
  3
Standard
350
2C
  0
DICTIONARY
  5
10
330
A
100
AcDbDictionary
281
1
  3
Standard
350
22
  0
DICTIONARY
  5
11
330
A
100
AcDbDictionary
281
1
  0
ACDBDICTIONARYWDFLT
  5
12
330
A
100
AcDbDictionary
281
1
  3
Normal
350
13
100
AcDbDictionaryWithDefault
340
13
  0
ACDBPLACEHOLDER
  5
13
330
12
  0
DICTIONARY
  5
14
330
A
100
AcDbDictionary
281
1
  0
DICTIONARY
  5
15
330
A
100
AcDbDictionary
281
1
  0
DICTIONARY
  5
16
330
A
100
AcDbDictionary
281
1
  0
LAYOUT
  5
1A
330
D
100
AcDbPlotSettings
  1

  2
Adobe PDF
  4
A4
  6

 40
3.175
 41
3.175
 42
3.175
 43
3.175
 44
209.91
 45
297.03
 46
0.0
 47
0.0
 48
0.0
 49
0.0
140
0.0
141
0.0
142
1.0
143
1.0
 70
1024
 72
0
 73
1
 74
5
  7

 75
16
 76
0
 77
2
 78
300
147
1.0
148
0.0
149
0.0
100
AcDbLayout
  1
Model
 70
1
 71
0
 10
-3.175
 20
-3.175
 11
293.857
 21
206.735
 12
0.0
 22
0.0
 32
0.0
 14
29.068
 24
20.356
 34
0.0
 15
261.614
 25
183.204
 35
0.0
146
0.0
 13
0.0
 23
0.0
 33
0.0
 16
1.0
 26
0.0
 36
0.0
 17
0.0
 27
1.0
 37
0.0
 76
1
330
17
  0
LAYOUT
  5
1E
330
D
100
AcDbPlotSettings
  1

  2
DWG to PDF.pc3
  4
ezdxf_(210.00_x_297.00_MM)
  6

 40
0.0
 41
0.0
 42
0.0
 43
0.0
 44
210.0
 45
297.0
 46
0.0
 47
0.0
 48
0.0
 49
0.0
140
0.0
141
0.0
142
1.0
143
1.0
 70
0
 72
1
 73
0
 74
5
  7

 75
16
 76
0
 77
2
 78
300
147
1.0
148
0.0
149
0.0
100
AcDbLayout
  1
Layout1
 70
1
 71
1
 10
-0.0
 20
-0.0
 11
210.0
 21
297.0
 12
0.0
 22
0.0
 32
0.0
 14
1e+20
 24
1e+20
 34
1e+20
 15
-1e+20
 25
-1e+20
 35
-1e+20
146
0.0
 13
0.0
 23
0.0
 33
0.0
 16
1.0
 26
0.0
 36
0.0
 17
0.0
 27
1.0
 37
0.0
 76
1
330
1B
331
3B2
  0
MATERIAL
  5
1F
102
{ACAD_REACTORS
330
E
102
}
330
E
100
AcDbMaterial
  1
ByBlock
  2

 70
0
 40
1.0
 71
1
 41
1.0
 91
-1023410177
 42
1.0
 72
1
  3

 73
1
 74
1
 75
1
 44
0.5
 73
0
 45
1.0
 46
1.0
 77
1
  4

 78
1
 79
1
170
1
 48
1.0
171
1
  6

172
1
173
1
174
1
140
1.0
141
1.0
175
1
  7

176
1
177
1
178
1
143
1.0
179
1
  8

270
1
271
1
272
1
145
1.0
146
1.0
273
1
  9

274
1
275
1
276
1
 42
1.0
 72
1
  3

 73
1
 74
1
 75
1
 94
63
  0
MATERIAL
  5
20
102
{ACAD_REACTORS
330
E
102
}
330
E
100
AcDbMaterial
  1
ByLayer
  2

 70
0
 40
1.0
 71
1
 41
1.0
 91
-1023410177
 42
1.0
 72
1
  3

 73
1
 74
1
 75
1
 44
0.5
 73
0
 45
1.0
 46
1.0
 77
1
  4

 78
1
 79
1
170
1
 48
1.0
171
1
  6

172
1
173
1
174
1
140
1.0
141
1.0
175
1
  7

176
1
177
1
178
1
143
1.0
179
1
  8

270
1
271
1
272
1
145
1.0
146
1.0
273
1
  9

274
1
275
1
276
1
 42
1.0
 72
1
  3

 73
1
 74
1
 75
1
 94
63
  0
MATERIAL
  5
21
102
{ACAD_REACTORS
330
E
102
}
330
E
100
AcDbMaterial
  1
Global
  2

 70
0
 40
1.0
 71
1
 41
1.0
 91
-1023410177
 42
1.0
 72
1
  3

 73
1
 74
1
 75
1
 44
0.5
 73
0
 45
1.0
 46
1.0
 77
1
  4

 78
1
 79
1
170
1
 48
1.0
171
1
  6

172
1
173
1
174
1
140
1.0
141
1.0
175
1
  7

176
1
177
1
178
1
143
1.0
179
1
  8

270
1
271
1
272
1
145
1.0
146
1.0
273
1
  9

274
1
275
1
276
1
 42
1.0
 72
1
  3

 73
1
 74
1
 75
1
 94
63
  0
MLINESTYLE
  5
22
102
{ACAD_REACTORS
330
10
102
}
330
10
100
AcDbMlineStyle
  2
Standard
 70
0
  3

 62
256
 51
90.0
 52
90.0
 71
2
 49
0.5
 62
256
  6
BYLAYER
 49
-0.5
 62
256
  6
BYLAYER
  0
MLEADERSTYLE
  5
2C
102
{ACAD_REACTORS
330
F
102
}
330
F
100
AcDbMLeaderStyle
179
2
170
2
171
1
172
0
 90
2
 40
0.0
 41
0.0
173
1
 91
-1056964608
 92
-2
290
1
 42
2.0
291
1
 43
8.0
  3
Standard
 44
4.0
300

342
29
174
1
175
1
176
0
178
1
 93
-1056964608
 45
4.0
292
0
297
0
 46
4.0
 94
-1056964608
 47
1.0
 49
0.0
140
1.0
294
1
141
0.0
177
0
142
1.0
295
0
296
0
143
3.75
271
0
272
9
272
9
  0
LAYOUT
  5
3B7
330
D
100
AcDbPlotSettings
  1

  2
DWG to PDF.pc3
  4
ezdxf_(210.00_x_297.00_MM)
  6

 40
0.0
 41
0.0
 42
0.0
 43
0.0
 44
210.0
 45
297.0
 46
0.0
 47
0.0
 48
0.0
 49
0.0
140
0.0
141
0.0
142
1.0
143
1.0
 70
0
 72
1
 73
0
 74
5
  7

 75
16
 76
0
 77
2
 78
300
147
1.0
148
0.0
149
0.0
100
AcDbLayout
  1
Plan 1-1
 70
1
 71
3
 10
-0.0
 20
-0.0
 11
210.0
 21
297.0
 12
0.0
 22
0.0
 32
0.0
 14
1e+20
 24
1e+20
 34
1e+20
 15
-1e+20
 25
-1e+20
 35
-1e+20
146
0.0
 13
0.0
 23
0.0
 33
0.0
 16
1.0
 26
0.0
 36
0.0
 17
0.0
 27
1.0
 37
0.0
 76
1
330
3B4
331
3B8
  0
LAYOUT
  5
3BD
330
D
100
AcDbPlotSettings
  1

  2
DWG to PDF.pc3
  4
ezdxf_(210.00_x_297.00_MM)
  6

 40
0.0
 41
0.0
 42
0.0
 43
0.0
 44
210.0
 45
297.0
 46
0.0
 47
0.0
 48
0.0
 49
0.0
140
0.0
141
0.0
142
1.0
143
1.0
 70
0
 72
1
 73
0
 74
5
  7

 75
16
 76
0
 77
2
 78
300
147
1.0
148
0.0
149
0.0
100
AcDbLayout
  1
Plan 1-2
 70
1
 71
4
 10
-0.0
 20
-0.0
 11
210.0
 21
297.0
 12
0.0
 22
0.0
 32
0.0
 14
1e+20
 24
1e+20
 34
1e+20
 15
-1e+20
 25
-1e+20
 35
-1e+20
146
0.0
 13
0.0
 23
0.0
 33
0.0
 16
1.0
 26
0.0
 36
0.0
 17
0.0
 27
1.0
 37
0.0
 76
1
330
3BA
331
3BE
  0
LAYOUT
  5
3C3
330
D
100
AcDbPlotSettings
  1

  2
DWG to PDF.pc3
  4
ezdxf_(210.00_x_297.00_MM)
  6

 40
0.0
 41
0.0
 42
0.0
 43
0.0
 44
210.0
 45
297.0
 46
0.0
 47
0.0
 48
0.0
 49
0.0
140
0.0
141
0.0
142
1.0
143
1.0
 70
0
 72
1
 73
0
 74
5
  7

 75
16
 76
0
 77
2
 78
300
147
1.0
148
0.0
149
0.0
100
AcDbLayout
  1
Plan 1-3
 70
1
 71
5
 10
-0.0
 20
-0.0
 11
210.0
 21
297.0
 12
0.0
 22
0.0
 32
0.0
 14
1e+20
 24
1e+20
 34
1e+20
 15
-1e+20
 25
-1e+20
 35
-1e+20
146
0.0
 13
0.0
 23
0.0
 33
0.0
 16
1.0
 26
0.0
 36
0.0
 17
0.0
 27
1.0
 37
0.0
 76
1
330
3C0
331
3C4
  0
LAYOUT
  5
3C9
330
D
100
AcDbPlotSettings
  1

  2
DWG to PDF.pc3
  4
ezdxf_(210.00_x_297.00_MM)
  6

 40
0.0
 41
0.0
 42
0.0
 43
0.0
 44
210.0
 45
297.0
 46
0.0
 47
0.0
 48
0.0
 49
0.0
140
0.0
141
0.0
142
1.0
143
1.0
 70
0
 72
1
 73
0
 74
5
  7

 75
16
 76
0
 77
2
 78
300
147
1.0
148
0.0
149
0.0
100
AcDbLayout
  1
Plan 1-4
 70
1
 71
6
 10
-0.0
 20
-0.0
 11
210.0
 21
297.0
 12
0.0
 22
0.0
 32
0.0
 14
1e+20
 24
1e+20
 34
1e+20
 15
-1e+20
 25
-1e+20
 35
-1e+20
146
0.0
 13
0.0
 23
0.0
 33
0.0
 16
1.0
 26
0.0
 36
0.0
 17
0.0
 27
1.0
 37
0.0
 76
1
330
3C6
331
3CA
  0
LAYOUT
  5
3CF
330
D
100
AcDbPlotSettings
  1

  2
DWG to PDF.pc3
  4
ezdxf_(210.00_x_297.00_MM)
  6

 40
0.0
 41
0.0
 42
0.0
 43
0.0
 44
210.0
 45
297.0
 46
0.0
 47
0.0
 48
0.0
 49
0.0
140
0.0
141
0.0
142
1.0
143
1.0
 70
0
 72
1
 73
0
 74
5
  7

 75
16
 76
0
 77
2
 78
300
147
1.0
148
0.0
149
0.0
100
AcDbLayout
  1
Plan 1-5
 70
1
 71
7
 10
-0.0
 20
-0.0
 11
210.0
 21
297.0
 12
0.0
 22
0.0
 32
0.0
 14
1e+20
 24
1e+20
 34
1e+20
 15
-1e+20
 25
-1e+20
 35
-1e+20
146
0.0
 13
0.0
 23
0.0
 33
0.0
 16
1.0
 26
0.0
 36
0.0
 17
0.0
 27
1.0
 37
0.0
 76
1
330
3CC
331
3D0
  0
LAYOUT
  5
3D5
330
D
100
AcDbPlotSettings
  1

  2
DWG to PDF.pc3
  4
ezdxf_(210.00_x_297.00_MM)
  6

 40
0.0
 41
0.0
 42
0.0
 43
0.0
 44
210.0
 45
297.0
 46
0.0
 47
0.0
 48
0.0
 49
0.0
140
0.0
141
0.0
142
1.0
143
1.0
 70
0
 72
1
 73
0
 74
5
  7

 75
16
 76
0
 77
2
 78
300
147
1.0
148
0.0
149
0.0
100
AcDbLayout
  1
Plan 1-6
 70
1
 71
8
 10
-0.0
 20
-0.0
 11
210.0
 21
297.0
 12
0.0
 22
0.0
 32
0.0
 14
1e+20
 24
1e+20
 34
1e+20
 15
-1e+20
 25
-1e+20
 35
-1e+20
146
0.0
 13
0.0
 23
0.0
 33
0.0
 16
1.0
 26
0.0
 36
0.0
 17
0.0
 27
1.0
 37
0.0
 76
1
330
3D2
331
3D6
  0
LAYOUT
  5
3DB
330
D
100
AcDbPlotSettings
  1

  2
DWG to PDF.pc3
  4
ezdxf_(210.00_x_297.00_MM)
  6

 40
0.0
 41
0.0
 42
0.0
 43
0.0
 44
210.0
 45
297.0
 46
0.0
 47
0.0
 48
0.0
 49
0.0
140
0.0
141
0.0
142
1.0
143
1.0
 70
0
 72
1
 73
0
 74
5
  7

 75
16
 76
0
 77
2
 78
300
147
1.0
148
0.0
149
0.0
100
AcDbLayout
  1
Plan 1-7
 70
1
 71
9
 10
-0.0
 20
-0.0
 11
210.0
 21
297.0
 12
0.0
 22
0.0
 32
0.0
 14
1e+20
 24
1e+20
 34
1e+20
 15
-1e+20
 25
-1e+20
 35
-1e+20
146
0.0
 13
0.0
 23
0.0
 33
0.0
 16
1.0
 26
0.0
 36
0.0
 17
0.0
 27
1.0
 37
0.0
 76
1
330
3D8
331
3DC
  0
LAYOUT
  5
3E1
330
D
100
AcDbPlotSettings
  1

  2
DWG to PDF.pc3
  4
ezdxf_(210.00_x_297.00_MM)
  6

 40
0.0
 41
0.0
 42
0.0
 43
0.0
 44
210.0
 45
297.0
 46
0.0
 47
0.0
 48
0.0
 49
0.0
140
0.0
141
0.0
142
1.0
143
1.0
 70
0
 72
1
 73
0
 74
5
  7

 75
16
 76
0
 77
2
 78
300
147
1.0
148
0.0
149
0.0
100
AcDbLayout
  1
Plan 1-8
 70
1
 71
10
 10
-0.0
 20
-0.0
 11
210.0
 21
297.0
 12
0.0
 22
0.0
 32
0.0
 14
1e+20
 24
1e+20
 34
1e+20
 15
-1e+20
 25
-1e+20
 35
-1e+20
146
0.0
 13
0.0
 23
0.0
 33
0.0
 16
1.0
 26
0.0
 36
0.0
 17
0.0
 27
1.0
 37
0.0
 76
1
330
3DE
331
3E2
  0
LAYOUT
  5
3E7
330
D
100
AcDbPlotSettings
  1

  2
DWG to PDF.pc3
  4
ezdxf_(210.00_x_297.00_MM)
  6

 40
0.0
 41
0.0
 42
0.0
 43
0.0
 44
210.0
 45
297.0
 46
0.0
 47
0.0
 48
0.0
 49
0.0
140
0.0
141
0.0
142
1.0
143
1.0
 70
0
 72
1
 73
0
 74
5
  7

 75
16
 76
0
 77
2
 78
300
147
1.0
148
0.0
149
0.0
100
AcDbLayout
  1
Plan 1-9
 70
1
 71
11
 10
-0.0
 20
-0.0
 11
210.0
 21
297.0
 12
0.0
 22
0.0
 32
0.0
 14
1e+20
 24
1e+20
 34
1e+20
 15
-1e+20
 25
-1e+20
 35
-1e+20
146
0.0
 13
0.0
 23
0.0
 33
0.0
 16
1.0
 26
0.0
 36
0.0
 17
0.0
 27
1.0
 37
0.0
 76
1
330
3E4
331
3E8
  0
LAYOUT
  5
3ED
330
D
100
AcDbPlotSettings
  1

  2
DWG to PDF.pc3
  4
ezdxf_(210.00_x_297.00_MM)
  6

 40
0.0
 41
0.0
 42
0.0
 43
0.0
 44
210.0
 45
297.0
 46
0.0
 47
0.0
 48
0.0
 49
0.0
140
0.0
141
0.0
142
1.0
143
1.0
 70
0
 72
1
 73
0
 74
5
  7

 75
16
 76
0
 77
2
 78
300
147
1.0
148
0.0
149
0.0
100
AcDbLayout
  1
Plan 1-10
 70
1
 71
12
 10
-0.0
 20
-0.0
 11
210.0
 21
297.0
 12
0.0
 22
0.0
 32
0.0
 14
1e+20
 24
1e+20
 34
1e+20
 15
-1e+20
 25
-1e+20
 35
-1e+20
146
0.0
 13
0.0
 23
0.0
 33
0.0
 16
1.0
 26
0.0
 36
0.0
 17
0.0
 27
1.0
 37
0.0
 76
1
330
3EA
331
3EE
  0
LAYOUT
  5
3F3
330
D
100
AcDbPlotSettings
  1

  2
DWG to PDF.pc3
  4
ezdxf_(210.00_x_297.00_MM)
  6

 40
0.0
 41
0.0
 42
0.0
 43
0.0
 44
210.0
 45
297.0
 46
0.0
 47
0.0
 48
0.0
 49
0.0
140
0.0
141
0.0
142
1.0
143
1.0
 70
0
 72
1
 73
0
 74
5
  7

 75
16
 76
0
 77
2
 78
300
147
1.0
148
0.0
149
0.0
100
AcDbLayout
  1
Plan 2-1
 70
1
 71
13
 10
-0.0
 20
-0.0
 11
210.0
 21
297.0
 12
0.0
 22
0.0
 32
0.0
 14
1e+20
 24
1e+20
 34
1e+20
 15
-1e+20
 25
-1e+20
 35
-1e+20
146
0.0
 13
0.0
 23
0.0
 33
0.0
 16
1.0
 26
0.0
 36
0.0
 17
0.0
 27
1.0
 37
0.0
 76
1
330
3F0
331
3F4
  0
LAYOUT
  5
3F9
330
D
100
AcDbPlotSettings
  1

  2
DWG to PDF.pc3
  4
ezdxf_(210.00_x_297.00_MM)
  6

 40
0.0
 41
0.0
 42
0.0
 43
0.0
 44
210.0
 45
297.0
 46
0.0
 47
0.0
 48
0.0
 49
0.0
140
0.0
141
0.0
142
1.0
143
1.0
 70
0
 72
1
 73
0
 74
5
  7

 75
16
 76
0
 77
2
 78
300
147
1.0
148
0.0
149
0.0
100
AcDbLayout
  1
Plan 2-2
 70
1
 71
14
 10
-0.0
 20
-0.0
 11
210.0
 21
297.0
 12
0.0
 22
0.0
 32
0.0
 14
1e+20
 24
1e+20
 34
1e+20
 15
-1e+20
 25
-1e+20
 35
-1e+20
146
0.0
 13
0.0
 23
0.0
 33
0.0
 16
1.0
 26
0.0
 36
0.0
 17
0.0
 27
1.0
 37
0.0
 76
1
330
3F6
331
3FA
  0
LAYOUT
  5
3FF
330
D
100
AcDbPlotSettings
  1

  2
DWG to PDF.pc3
  4
ezdxf_(210.00_x_297.00_MM)
  6

 40
0.0
 41
0.0
 42
0.0
 43
0.0
 44
210.0
 45
297.0
 46
0.0
 47
0.0
 48
0.0
 49
0.0
140
0.0
141
0.0
142
1.0
143
1.0
 70
0
 72
1
 73
0
 74
5
  7

 75
16
 76
0
 77
2
 78
300
147
1.0
148
0.0
149
0.0
100
AcDbLayout
  1
Plan 2-3
 70
1
 71
15
 10
-0.0
 20
-0.0
 11
210.0
 21
297.0
 12
0.0
 22
0.0
 32
0.0
 14
1e+20
 24
1e+20
 34
1e+20
 15
-1e+20
 25
-1e+20
 35
-1e+20
146
0.0
 13
0.0
 23
0.0
 33
0.0
 16
1.0
 26
0.0
 36
0.0
 17
0.0
 27
1.0
 37
0.0
 76
1
330
3FC
331
400
  0
LAYOUT
  5
405
330
D
100
AcDbPlotSettings
  1

  2
DWG to PDF.pc3
  4
ezdxf_(210.00_x_297.00_MM)
  6

 40
0.0
 41
0.0
 42
0.0
 43
0.0
 44
210.0
 45
297.0
 46
0.0
 47
0.0
 48
0.0
 49
0.0
140
0.0
141
0.0
142
1.0
143
1.0
 70
0
 72
1
 73
0
 74
5
  7

 75
16
 76
0
 77
2
 78
300
147
1.0
148
0.0
149
0.0
100
AcDbLayout
  1
Plan 2-4
 70
1
 71
16
 10
-0.0
 20
-0.0
 11
210.0
 21
297.0
 12
0.0
 22
0.0
 32
0.0
 14
1e+20
 24
1e+20
 34
1e+20
 15
-1e+20
 25
-1e+20
 35
-1e+20
146
0.0
 13
0.0
 23
0.0
 33
0.0
 16
1.0
 26
0.0
 36
0.0
 17
0.0
 27
1.0
 37
0.0
 76
1
330
402
331
406
  0
LAYOUT
  5
40B
330
D
100
AcDbPlotSettings
  1

  2
DWG to PDF.pc3
  4
ezdxf_(210.00_x_297.00_MM)
  6

 40
0.0
 41
0.0
 42
0.0
 43
0.0
 44
210.0
 45
297.0
 46
0.0
 47
0.0
 48
0.0
 49
0.0
140
0.0
141
0.0
142
1.0
143
1.0
 70
0
 72
1
 73
0
 74
5
  7

 75
16
 76
0
 77
2
 78
300
147
1.0
148
0.0
149
0.0
100
AcDbLayout
  1
Plan 2-5
 70
1
 71
17
 10
-0.0
 20
-0.0
 11
210.0
 21
297.0
 12
0.0
 22
0.0
 32
0.0
 14
1e+20
 24
1e+20
 34
1e+20
 15
-1e+20
 25
-1e+20
 35
-1e+20
146
0.0
 13
0.0
 23
0.0
 33
0.0
 16
1.0
 26
0.0
 36
0.0
 17
0.0
 27
1.0
 37
0.0
 76
1
330
408
331
40C
  0
LAYOUT
  5
411
330
D
100
AcDbPlotSettings
  1

  2
DWG to PDF.pc3
  4
ezdxf_(210.00_x_297.00_MM)
  6

 40
0.0
 41
0.0
 42
0.0
 43
0.0
 44
210.0
 45
297.0
 46
0.0
 47
0.0
 48
0.0
 49
0.0
140
0.0
141
0.0
142
1.0
143
1.0
 70
0
 72
1
 73
0
 74
5
  7

 75
16
 76
0
 77
2
 78
300
147
1.0
148
0.0
149
0.0
100
AcDbLayout
  1
Plan 2-6
 70
1
 71
18
 10
-0.0
 20
-0.0
 11
210.0
 21
297.0
 12
0.0
 22
0.0
 32
0.0
 14
1e+20
 24
1e+20
 34
1e+20
 15
-1e+20
 25
-1e+20
 35
-1e+20
146
0.0
 13
0.0
 23
0.0
 33
0.0
 16
1.0
 26
0.0
 36
0.0
 17
0.0
 27
1.0
 37
0.0
 76
1
330
40E
331
412
  0
LAYOUT
  5
417
330
D
100
AcDbPlotSettings
  1

  2
DWG to PDF.pc3
  4
ezdxf_(210.00_x_297.00_MM)
  6

 40
0.0
 41
0.0
 42
0.0
 43
0.0
 44
210.0
 45
297.0
 46
0.0
 47
0.0
 48
0.0
 49
0.0
140
0.0
141
0.0
142
1.0
143
1.0
 70
0
 72
1
 73
0
 74
5
  7

 75
16
 76
0
 77
2
 78
300
147
1.0
148
0.0
149
0.0
100
AcDbLayout
  1
Plan 2-7
 70
1
 71
19
 10
-0.0
 20
-0.0
 11
210.0
 21
297.0
 12
0.0
 22
0.0
 32
0.0
 14
1e+20
 24
1e+20
 34
1e+20
 15
-1e+20
 25
-1e+20
 35
-1e+20
146
0.0
 13
0.0
 23
0.0
 33
0.0
 16
1.0
 26
0.0
 36
0.0
 17
0.0
 27
1.0
 37
0.0
 76
1
330
414
331
418
  0
LAYOUT
  5
41D
330
D
100
AcDbPlotSettings
  1

  2
DWG to PDF.pc3
  4
ezdxf_(210.00_x_297.00_MM)
  6

 40
0.0
 41
0.0
 42
0.0
 43
0.0
 44
210.0
 45
297.0
 46
0.0
 47
0.0
 48
0.0
 49
0.0
140
0.0
141
0.0
142
1.0
143
1.0
 70
0
 72
1
 73
0
 74
5
  7

 75
16
 76
0
 77
2
 78
300
147
1.0
148
0.0
149
0.0
100
AcDbLayout
  1
Plan 2-8
 70
1
 71
20
 10
-0.0
 20
-0.0
 11
210.0
 21
297.0
 12
0.0
 22
0.0
 32
0.0
 14
1e+20
 24
1e+20
 34
1e+20
 15
-1e+20
 25
-1e+20
 35
-1e+20
146
0.0
 13
0.0
 23
0.0
 33
0.0
 16
1.0
 26
0.0
 36
0.0
 17
0.0
 27
1.0
 37
0.0
 76
1
330
41A
331
41E
  0
LAYOUT
  5
423
330
D
100
AcDbPlotSettings
  1

  2
DWG to PDF.pc3
  4
ezdxf_(210.00_x_297.00_MM)
  6

 40
0.0
 41
0.0
 42
0.0
 43
0.0
 44
210.0
 45
297.0
 46
0.0
 47
0.0
 48
0.0
 49
0.0
140
0.0
141
0.0
142
1.0
143
1.0
 70
0
 72
1
 73
0
 74
5
  7

 75
16
 76
0
 77
2
 78
300
147
1.0
148
0.0
149
0.0
100
AcDbLayout
  1
Plan 2-9
 70
1
 71
21
 10
-0.0
 20
-0.0
 11
210.0
 21
297.0
 12
0.0
 22
0.0
 32
0.0
 14
1e+20
 24
1e+20
 34
1e+20
 15
-1e+20
 25
-1e+20
 35
-1e+20
146
0.0
 13
0.0
 23
0.0
 33
0.0
 16
1.0
 26
0.0
 36
0.0
 17
0.0
 27
1.0
 37
0.0
 76
1
330
420
331
424
  0
LAYOUT
  5
429
330
D
100
AcDbPlotSettings
  1

  2
DWG to PDF.pc3
  4
ezdxf_(210.00_x_297.00_MM)
  6

 40
0.0
 41
0.0
 42
0.0
 43
0.0
 44
210.0
 45
297.0
 46
0.0
 47
0.0
 48
0.0
 49
0.0
140
0.0
141
0.0
142
1.0
143
1.0
 70
0
 72
1
 73
0
 74
5
  7

 75
16
 76
0
 77
2
 78
300
147
1.0
148
0.0
149
0.0
100
AcDbLayout
  1
Plan 2-10
 70
1
 71
22
 10
-0.0
 20
-0.0
 11
210.0
 21
297.0
 12
0.0
 22
0.0
 32
0.0
 14
1e+20
 24
1e+20
 34
1e+20
 15
-1e+20
 25
-1e+20
 35
-1e+20
146
0.0
 13
0.0
 23
0.0
 33
0.0
 16
1.0
 26
0.0
 36
0.0
 17
0.0
 27
1.0
 37
0.0
 76
1
330
426
331
42A
  0
LAYOUT
  5
42F
330
D
100
AcDbPlotSettings
  1

  2
DWG to PDF.pc3
  4
ezdxf_(210.00_x_297.00_MM)
  6

 40
0.0
 41
0.0
 42
0.0
 43
0.0
 44
210.0
 45
297.0
 46
0.0
 47
0.0
 48
0.0
 49
0.0
140
0.0
141
0.0
142
1.0
143
1.0
 70
0
 72
1
 73
0
 74
5
  7

 75
16
 76
0
 77
2
 78
300
147
1.0
148
0.0
149
0.0
100
AcDbLayout
  1
Plan 3-1
 70
1
 71
23
 10
-0.0
 20
-0.0
 11
210.0
 21
297.0
 12
0.0
 22
0.0
 32
0.0
 14
1e+20
 24
1e+20
 34
1e+20
 15
-1e+20
 25
-1e+20
 35
-1e+20
146
0.0
 13
0.0
 23
0.0
 33
0.0
 16
1.0
 26
0.0
 36
0.0
 17
0.0
 27
1.0
 37
0.0
 76
1
330
42C
331
430
  0
LAYOUT
  5
435
330
D
100
AcDbPlotSettings
  1

  2
DWG to PDF.pc3
  4
ezdxf_(210.00_x_297.00_MM)
  6

 40
0.0
 41
0.0
 42
0.0
 43
0.0
 44
210.0
 45
297.0
 46
0.0
 47
0.0
 48
0.0
 49
0.0
140
0.0
141
0.0
142
1.0
143
1.0
 70
0
 72
1
 73
0
 74
5
  7

 75
16
 76
0
 77
2
 78
300
147
1.0
148
0.0
149
0.0
100
AcDbLayout
  1
Plan 3-2
 70
1
 71
24
 10
-0.0
 20
-0.0
 11
210.0
 21
297.0
 12
0.0
 22
0.0
 32
0.0
 14
1e+20
 24
1e+20
 34
1e+20
 15
-1e+20
 25
-1e+20
 35
-1e+20
146
0.0
 13
0.0
 23
0.0
 33
0.0
 16
1.0
 26
0.0
 36
0.0
 17
0.0
 27
1.0
 37
0.0
 76
1
330
432
331
436
  0
LAYOUT
  5
43B
330
D
100
AcDbPlotSettings
  1

  2
DWG to PDF.pc3
  4
ezdxf_(210.00_x_297.00_MM)
  6

 40
0.0
 41
0.0
 42
0.0
 43
0.0
 44
210.0
 45
297.0
 46
0.0
 47
0.0
 48
0.0
 49
0.0
140
0.0
141
0.0
142
1.0
143
1.0
 70
0
 72
1
 73
0
 74
5
  7

 75
16
 76
0
 77
2
 78
300
147
1.0
148
0.0
149
0.0
100
AcDbLayout
  1
Plan 3-3
 70
1
 71
25
 10
-0.0
 20
-0.0
 11
210.0
 21
297.0
 12
0.0
 22
0.0
 32
0.0
 14
1e+20
 24
1e+20
 34
1e+20
 15
-1e+20
 25
-1e+20
 35
-1e+20
146
0.0
 13
0.0
 23
0.0
 33
0.0
 16
1.0
 26
0.0
 36
0.0
 17
0.0
 27
1.0
 37
0.0
 76
1
330
438
331
43C
  0
LAYOUT
  5
441
330
D
100
AcDbPlotSettings
  1

  2
DWG to PDF.pc3
  4
ezdxf_(210.00_x_297.00_MM)
  6

 40
0.0
 41
0.0
 42
0.0
 43
0.0
 44
210.0
 45
297.0
 46
0.0
 47
0.0
 48
0.0
 49
0.0
140
0.0
141
0.0
142
1.0
143
1.0
 70
0
 72
1
 73
0
 74
5
  7

 75
16
 76
0
 77
2
 78
300
147
1.0
148
0.0
149
0.0
100
AcDbLayout
  1
Plan 3-4
 70
1
 71
26
 10
-0.0
 20
-0.0
 11
210.0
 21
297.0
 12
0.0
 22
0.0
 32
0.0
 14
1e+20
 24
1e+20
 34
1e+20
 15
-1e+20
 25
-1e+20
 35
-1e+20
146
0.0
 13
0.0
 23
0.0
 33
0.0
 16
1.0
 26
0.0
 36
0.0
 17
0.0
 27
1.0
 37
0.0
 76
1
330
43E
331
442
  0
LAYOUT
  5
447
330
D
100
AcDbPlotSettings
  1

  2
DWG to PDF.pc3
  4
ezdxf_(210.00_x_297.00_MM)
  6

 40
0.0
 41
0.0
 42
0.0
 43
0.0
 44
210.0
 45
297.0
 46
0.0
 47
0.0
 48
0.0
 49
0.0
140
0.0
141
0.0
142
1.0
143
1.0
 70
0
 72
1
 73
0
 74
5
  7

 75
16
 76
0
 77
2
 78
300
147
1.0
148
0.0
149
0.0
100
AcDbLayout
  1
Plan 3-5
 70
1
 71
27
 10
-0.0
 20
-0.0
 11
210.0
 21
297.0
 12
0.0
 22
0.0
 32
0.0
 14
1e+20
 24
1e+20
 34
1e+20
 15
-1e+20
 25
-1e+20
 35
-1e+20
146
0.0
 13
0.0
 23
0.0
 33
0.0
 16
1.0
 26
0.0
 36
0.0
 17
0.0
 27
1.0
 37
0.0
 76
1
330
444
331
448
  0
LAYOUT
  5
44D
330
D
100
AcDbPlotSettings
  1

  2
DWG to PDF.pc3
  4
ezdxf_(210.00_x_297.00_MM)
  6

 40
0.0
 41
0.0
 42
0.0
 43
0.0
 44
210.0
 45
297.0
 46
0.0
 47
0.0
 48
0.0
 49
0.0
140
0.0
141
0.0
142
1.0
143
1.0
 70
0
 72
1
 73
0
 74
5
  7

 75
16
 76
0
 77
2
 78
300
147
1.0
148
0.0
149
0.0
100
AcDbLayout
  1
Plan 3-6
 70
1
 71
28
 10
-0.0
 20
-0.0
 11
210.0
 21
297.0
 12
0.0
 22
0.0
 32
0.0
 14
1e+20
 24
1e+20
 34
1e+20
 15
-1e+20
 25
-1e+20
 35
-1e+20
146
0.0
 13
0.0
 23
0.0
 33
0.0
 16
1.0
 26
0.0
 36
0.0
 17
0.0
 27
1.0
 37
0.0
 76
1
330
44A
331
44E
  0
LAYOUT
  5
453
330
D
100
AcDbPlotSettings
  1

  2
DWG to PDF.pc3
  4
ezdxf_(210.00_x_297.00_MM)
  6

 40
0.0
 41
0.0
 42
0.0
 43
0.0
 44
210.0
 45
297.0
 46
0.0
 47
0.0
 48
0.0
 49
0.0
140
0.0
141
0.0
142
1.0
143
1.0
 70
0
 72
1
 73
0
 74
5
  7

 75
16
 76
0
 77
2
 78
300
147
1.0
148
0.0
149
0.0
100
AcDbLayout
  1
Plan 3-7
 70
1
 71
29
 10
-0.0
 20
-0.0
 11
210.0
 21
297.0
 12
0.0
 22
0.0
 32
0.0
 14
1e+20
 24
1e+20
 34
1e+20
 15
-1e+20
 25
-1e+20
 35
-1e+20
146
0.0
 13
0.0
 23
0.0
 33
0.0
 16
1.0
 26
0.0
 36
0.0
 17
0.0
 27
1.0
 37
0.0
 76
1
330
450
331
454
  0
LAYOUT
  5
459
330
D
100
AcDbPlotSettings
  1

  2
DWG to PDF.pc3
  4
ezdxf_(210.00_x_297.00_MM)
  6

 40
0.0
 41
0.0
 42
0.0
 43
0.0
 44
210.0
 45
297.0
 46
0.0
 47
0.0
 48
0.0
 49
0.0
140
0.0
141
0.0
142
1.0
143
1.0
 70
0
 72
1
 73
0
 74
5
  7

 75
16
 76
0
 77
2
 78
300
147
1.0
148
0.0
149
0.0
100
AcDbLayout
  1
Plan 3-8
 70
1
 71
30
 10
-0.0
 20
-0.0
 11
210.0
 21
297.0
 12
0.0
 22
0.0
 32
0.0
 14
1e+20
 24
1e+20
 34
1e+20
 15
-1e+20
 25
-1e+20
 35
-1e+20
146
0.0
 13
0.0
 23
0.0
 33
0.0
 16
1.0
 26
0.0
 36
0.0
 17
0.0
 27
1.0
 37
0.0
 76
1
330
456
331
45A
  0
LAYOUT
  5
45F
330
D
100
AcDbPlotSettings
  1

  2
DWG to PDF.pc3
  4
ezdxf_(210.00_x_297.00_MM)
  6

 40
0.0
 41
0.0
 42
0.0
 43
0.0
 44
210.0
 45
297.0
 46
0.0
 47
0.0
 48
0.0
 49
0.0
140
0.0
141
0.0
142
1.0
143
1.0
 70
0
 72
1
 73
0
 74
5
  7

 75
16
 76
0
 77
2
 78
300
147
1.0
148
0.0
149
0.0
100
AcDbLayout
  1
Plan 3-9
 70
1
 71
31
 10
-0.0
 20
-0.0
 11
210.0
 21
297.0
 12
0.0
 22
0.0
 32
0.0
 14
1e+20
 24
1e+20
 34
1e+20
 15
-1e+20
 25
-1e+20
 35
-1e+20
146
0.0
 13
0.0
 23
0.0
 33
0.0
 16
1.0
 26
0.0
 36
0.0
 17
0.0
 27
1.0
 37
0.0
 76
1
330
45C
331
460
  0
LAYOUT
  5
465
330
D
100
AcDbPlotSettings
  1

  2
DWG to PDF.pc3
  4
ezdxf_(210.00_x_297.00_MM)
  6

 40
0.0
 41
0.0
 42
0.0
 43
0.0
 44
210.0
 45
297.0
 46
0.0
 47
0.0
 48
0.0
 49
0.0
140
0.0
141
0.0
142
1.0
143
1.0
 70
0
 72
1
 73
0
 74
5
  7

 75
16
 76
0
 77
2
 78
300
147
1.0
148
0.0
149
0.0
100
AcDbLayout
  1
Plan 3-10
 70
1
 71
32
 10
-0.0
 20
-0.0
 11
210.0
 21
297.0
 12
0.0
 22
0.0
 32
0.0
 14
1e+20
 24
1e+20
 34
1e+20
 15
-1e+20
 25
-1e+20
 35
-1e+20
146
0.0
 13
0.0
 23
0.0
 33
0.0
 16
1.0
 26
0.0
 36
0.0
 17
0.0
 27
1.0
 37
0.0
 76
1
330
462
331
466
  0
LAYOUT
  5
46B
330
D
100
AcDbPlotSettings
  1

  2
DWG to PDF.pc3
  4
ezdxf_(210.00_x_297.00_MM)
  6

 40
0.0
 41
0.0
 42
0.0
 43
0.0
 44
210.0
 45
297.0
 46
0.0
 47
0.0
 48
0.0
 49
0.0
140
0.0
141
0.0
142
1.0
143
1.0
 70
0
 72
1
 73
0
 74
5
  7

 75
16
 76
0
 77
2
 78
300
147
1.0
148
0.0
149
0.0
100
AcDbLayout
  1
Plan 4-1
 70
1
 71
33
 10
-0.0
 20
-0.0
 11
210.0
 21
297.0
 12
0.0
 22
0.0
 32
0.0
 14
1e+20
 24
1e+20
 34
1e+20
 15
-1e+20
 25
-1e+20
 35
-1e+20
146
0.0
 13
0.0
 23
0.0
 33
0.0
 16
1.0
 26
0.0
 36
0.0
 17
0.0
 27
1.0
 37
0.0
 76
1
330
468
331
46C
  0
LAYOUT
  5
471
330
D
100
AcDbPlotSettings
  1

  2
DWG to PDF.pc3
  4
ezdxf_(210.00_x_297.00_MM)
  6

 40
0.0
 41
0.0
 42
0.0
 43
0.0
 44
210.0
 45
297.0
 46
0.0
 47
0.0
 48
0.0
 49
0.0
140
0.0
141
0.0
142
1.0
143
1.0
 70
0
 72
1
 73
0
 74
5
  7

 75
16
 76
0
 77
2
 78
300
147
1.0
148
0.0
149
0.0
100
AcDbLayout
  1
Plan 4-2
 70
1
 71
34
 10
-0.0
 20
-0.0
 11
210.0
 21
297.0
 12
0.0
 22
0.0
 32
0.0
 14
1e+20
 24
1e+20
 34
1e+20
 15
-1e+20
 25
-1e+20
 35
-1e+20
146
0.0
 13
0.0
 23
0.0
 33
0.0
 16
1.0
 26
0.0
 36
0.0
 17
0.0
 27
1.0
 37
0.0
 76
1
330
46E
331
472
  0
LAYOUT
  5
477
330
D
100
AcDbPlotSettings
  1

  2
DWG to PDF.pc3
  4
ezdxf_(210.00_x_297.00_MM)
  6

 40
0.0
 41
0.0
 42
0.0
 43
0.0
 44
210.0
 45
297.0
 46
0.0
 47
0.0
 48
0.0
 49
0.0
140
0.0
141
0.0
142
1.0
143
1.0
 70
0
 72
1
 73
0
 74
5
  7

 75
16
 76
0
 77
2
 78
300
147
1.0
148
0.0
149
0.0
100
AcDbLayout
  1
Plan 4-3
 70
1
 71
35
 10
-0.0
 20
-0.0
 11
210.0
 21
297.0
 12
0.0
 22
0.0
 32
0.0
 14
1e+20
 24
1e+20
 34
1e+20
 15
-1e+20
 25
-1e+20
 35
-1e+20
146
0.0
 13
0.0
 23
0.0
 33
0.0
 16
1.0
 26
0.0
 36
0.0
 17
0.0
 27
1.0
 37
0.0
 76
1
330
474
331
478
  0
LAYOUT
  5
47D
330
D
100
AcDbPlotSettings
  1

  2
DWG to PDF.pc3
  4
ezdxf_(210.00_x_297.00_MM)
  6

 40
0.0
 41
0.0
 42
0.0
 43
0.0
 44
210.0
 45
297.0
 46
0.0
 47
0.0
 48
0.0
 49
0.0
140
0.0
141
0.0
142
1.0
143
1.0
 70
0
 72
1
 73
0
 74
5
  7

 75
16
 76
0
 77
2
 78
300
147
1.0
148
0.0
149
0.0
100
AcDbLayout
  1
Plan 4-4
 70
1
 71
36
 10
-0.0
 20
-0.0
 11
210.0
 21
297.0
 12
0.0
 22
0.0
 32
0.0
 14
1e+20
 24
1e+20
 34
1e+20
 15
-1e+20
 25
-1e+20
 35
-1e+20
146
0.0
 13
0.0
 23
0.0
 33
0.0
 16
1.0
 26
0.0
 36
0.0
 17
0.0
 27
1.0
 37
0.0
 76
1
330
47A
331
47E
  0
LAYOUT
  5
483
330
D
100
AcDbPlotSettings
  1

  2
DWG to PDF.pc3
  4
ezdxf_(210.00_x_297.00_MM)
  6

 40
0.0
 41
0.0
 42
0.0
 43
0.0
 44
210.0
 45
297.0
 46
0.0
 47
0.0
 48
0.0
 49
0.0
140
0.0
141
0.0
142
1.0
143
1.0
 70
0
 72
1
 73
0
 74
5
  7

 75
16
 76
0
 77
2
 78
300
147
1.0
148
0.0
149
0.0
100
AcDbLayout
  1
Plan 4-5
 70
1
 71
37
 10
-0.0
 20
-0.0
 11
210.0
 21
297.0
 12
0.0
 22
0.0
 32
0.0
 14
1e+20
 24
1e+20
 34
1e+20
 15
-1e+20
 25
-1e+20
 35
-1e+20
146
0.0
 13
0.0
 23
0.0
 33
0.0
 16
1.0
 26
0.0
 36
0.0
 17
0.0
 27
1.0
 37
0.0
 76
1
330
480
331
484
  0
LAYOUT
  5
489
330
D
100
AcDbPlotSettings
  1

  2
DWG to PDF.pc3
  4
ezdxf_(210.00_x_297.00_MM)
  6

 40
0.0
 41
0.0
 42
0.0
 43
0.0
 44
210.0
 45
297.0
 46
0.0
 47
0.0
 48
0.0
 49
0.0
140
0.0
141
0.0
142
1.0
143
1.0
 70
0
 72
1
 73
0
 74
5
  7

 75
16
 76
0
 77
2
 78
300
147
1.0
148
0.0
149
0.0
100
AcDbLayout
  1
Plan 4-6
 70
1
 71
38
 10
-0.0
 20
-0.0
 11
210.0
 21
297.0
 12
0.0
 22
0.0
 32
0.0
 14
1e+20
 24
1e+20
 34
1e+20
 15
-1e+20
 25
-1e+20
 35
-1e+20
146
0.0
 13
0.0
 23
0.0
 33
0.0
 16
1.0
 26
0.0
 36
0.0
 17
0.0
 27
1.0
 37
0.0
 76
1
330
486
331
48A
  0
LAYOUT
  5
48F
330
D
100
AcDbPlotSettings
  1

  2
DWG to PDF.pc3
  4
ezdxf_(210.00_x_297.00_MM)
  6

 40
0.0
 41
0.0
 42
0.0
 43
0.0
 44
210.0
 45
297.0
 46
0.0
 47
0.0
 48
0.0
 49
0.0
140
0.0
141
0.0
142
1.0
143
1.0
 70
0
 72
1
 73
0
 74
5
  7

 75
16
 76
0
 77
2
 78
300
147
1.0
148
0.0
149
0.0
100
AcDbLayout
  1
Plan 4-7
 70
1
 71
39
 10
-0.0
 20
-0.0
 11
210.0
 21
297.0
 12
0.0
 22
0.0
 32
0.0
 14
1e+20
 24
1e+20
 34
1e+20
 15
-1e+20
 25
-1e+20
 35
-1e+20
146
0.0
 13
0.0
 23
0.0
 33
0.0
 16
1.0
 26
0.0
 36
0.0
 17
0.0
 27
1.0
 37
0.0
 76
1
330
48C
331
490
  0
LAYOUT
  5
495
330
D
100
AcDbPlotSettings
  1

  2
DWG to PDF.pc3
  4
ezdxf_(210.00_x_297.00_MM)
  6

 40
0.0
 41
0.0
 42
0.0
 43
0.0
 44
210.0
 45
297.0
 46
0.0
 47
0.0
 48
0.0
 49
0.0
140
0.0
141
0.0
142
1.0
143
1.0
 70
0
 72
1
 73
0
 74
5
  7

 75
16
 76
0
 77
2
 78
300
147
1.0
148
0.0
149
0.0
100
AcDbLayout
  1
Plan 4-8
 70
1
 71
40
 10
-0.0
 20
-0.0
 11
210.0
 21
297.0
 12
0.0
 22
0.0
 32
0.0
 14
1e+20
 24
1e+20
 34
1e+20
 15
-1e+20
 25
-1e+20
 35
-1e+20
146
0.0
 13
0.0
 23
0.0
 33
0.0
 16
1.0
 26
0.0
 36
0.0
 17
0.0
 27
1.0
 37
0.0
 76
1
330
492
331
496
  0
LAYOUT
  5
49B
330
D
100
AcDbPlotSettings
  1

  2
DWG to PDF.pc3
  4
ezdxf_(210.00_x_297.00_MM)
  6

 40
0.0
 41
0.0
 42
0.0
 43
0.0
 44
210.0
 45
297.0
 46
0.0
 47
0.0
 48
0.0
 49
0.0
140
0.0
141
0.0
142
1.0
143
1.0
 70
0
 72
1
 73
0
 74
5
  7

 75
16
 76
0
 77
2
 78
300
147
1.0
148
0.0
149
0.0
100
AcDbLayout
  1
Plan 4-9
 70
1
 71
41
 10
-0.0
 20
-0.0
 11
210.0
 21
297.0
 12
0.0
 22
0.0
 32
0.0
 14
1e+20
 24
1e+20
 34
1e+20
 15
-1e+20
 25
-1e+20
 35
-1e+20
146
0.0
 13
0.0
 23
0.0
 33
0.0
 16
1.0
 26
0.0
 36
0.0
 17
0.0
 27
1.0
 37
0.0
 76
1
330
498
331
49C
  0
LAYOUT
  5
4A1
330
D
100
AcDbPlotSettings
  1

  2
DWG to PDF.pc3
  4
ezdxf_(210.00_x_297.00_MM)
  6

 40
0.0
 41
0.0
 42
0.0
 43
0.0
 44
210.0
 45
297.0
 46
0.0
 47
0.0
 48
0.0
 49
0.0
140
0.0
141
0.0
142
1.0
143
1.0
 70
0
 72
1
 73
0
 74
5
  7

 75
16
 76
0
 77
2
 78
300
147
1.0
148
0.0
149
0.0
100
AcDbLayout
  1
Plan 4-10
 70
1
 71
42
 10
-0.0
 20
-0.0
 11
210.0
 21
297.0
 12
0.0
 22
0.0
 32
0.0
 14
1e+20
 24
1e+20
 34
1e+20
 15
-1e+20
 25
-1e+20
 35
-1e+20
146
0.0
 13
0.0
 23
0.0
 33
0.0
 16
1.0
 26
0.0
 36
0.0
 17
0.0
 27
1.0
 37
0.0
 76
1
330
49E
331
4A2
  0
LAYOUT
  5
4A7
330
D
100
AcDbPlotSettings
  1

  2
DWG to PDF.pc3
  4
ezdxf_(210.00_x_297.00_MM)
  6

 40
0.0
 41
0.0
 42
0.0
 43
0.0
 44
210.0
 45
297.0
 46
0.0
 47
0.0
 48
0.0
 49
0.0
140
0.0
141
0.0
142
1.0
143
1.0
 70
0
 72
1
 73
0
 74
5
  7

 75
16
 76
0
 77
2
 78
300
147
1.0
148
0.0
149
0.0
100
AcDbLayout
  1
Plan 5-1
 70
1
 71
43
 10
-0.0
 20
-0.0
 11
210.0
 21
297.0
 12
0.0
 22
0.0
 32
0.0
 14
1e+20
 24
1e+20
 34
1e+20
 15
-1e+20
 25
-1e+20
 35
-1e+20
146
0.0
 13
0.0
 23
0.0
 33
0.0
 16
1.0
 26
0.0
 36
0.0
 17
0.0
 27
1.0
 37
0.0
 76
1
330
4A4
331
4A8
  0
LAYOUT
  5
4AD
330
D
100
AcDbPlotSettings
  1

  2
DWG to PDF.pc3
  4
ezdxf_(210.00_x_297.00_MM)
  6

 40
0.0
 41
0.0
 42
0.0
 43
0.0
 44
210.0
 45
297.0
 46
0.0
 47
0.0
 48
0.0
 49
0.0
140
0.0
141
0.0
142
1.0
143
1.0
 70
0
 72
1
 73
0
 74
5
  7

 75
16
 76
0
 77
2
 78
300
147
1.0
148
0.0
149
0.0
100
AcDbLayout
  1
Plan 5-2
 70
1
 71
44
 10
-0.0
 20
-0.0
 11
210.0
 21
297.0
 12
0.0
 22
0.0
 32
0.0
 14
1e+20
 24
1e+20
 34
1e+20
 15
-1e+20
 25
-1e+20
 35
-1e+20
146
0.0
 13
0.0
 23
0.0
 33
0.0
 16
1.0
 26
0.0
 36
0.0
 17
0.0
 27
1.0
 37
0.0
 76
1
330
4AA
331
4AE
  0
LAYOUT
  5
4B3
330
D
100
AcDbPlotSettings
  1

  2
DWG to PDF.pc3
  4
ezdxf_(210.00_x_297.00_MM)
  6

 40
0.0
 41
0.0
 42
0.0
 43
0.0
 44
210.0
 45
297.0
 46
0.0
 47
0.0
 48
0.0
 49
0.0
140
0.0
141
0.0
142
1.0
143
1.0
 70
0
 72
1
 73
0
 74
5
  7

 75
16
 76
0
 77
2
 78
300
147
1.0
148
0.0
149
0.0
100
AcDbLayout
  1
Plan 5-3
 70
1
 71
45
 10
-0.0
 20
-0.0
 11
210.0
 21
297.0
 12
0.0
 22
0.0
 32
0.0
 14
1e+20
 24
1e+20
 34
1e+20
 15
-1e+20
 25
-1e+20
 35
-1e+20
146
0.0
 13
0.0
 23
0.0
 33
0.0
 16
1.0
 26
0.0
 36
0.0
 17
0.0
 27
1.0
 37
0.0
 76
1
330
4B0
331
4B4
  0
LAYOUT
  5
4B9
330
D
100
AcDbPlotSettings
  1

  2
DWG to PDF.pc3
  4
ezdxf_(210.00_x_297.00_MM)
  6

 40
0.0
 41
0.0
 42
0.0
 43
0.0
 44
210.0
 45
297.0
 46
0.0
 47
0.0
 48
0.0
 49
0.0
140
0.0
141
0.0
142
1.0
143
1.0
 70
0
 72
1
 73
0
 74
5
  7

 75
16
 76
0
 77
2
 78
300
147
1.0
148
0.0
149
0.0
100
AcDbLayout
  1
Plan 5-4
 70
1
 71
46
 10
-0.0
 20
-0.0
 11
210.0
 21
297.0
 12
0.0
 22
0.0
 32
0.0
 14
1e+20
 24
1e+20
 34
1e+20
 15
-1e+20
 25
-1e+20
 35
-1e+20
146
0.0
 13
0.0
 23
0.0
 33
0.0
 16
1.0
 26
0.0
 36
0.0
 17
0.0
 27
1.0
 37
0.0
 76
1
330
4B6
331
4BA
  0
LAYOUT
  5
4BF
330
D
100
AcDbPlotSettings
  1

  2
DWG to PDF.pc3
  4
ezdxf_(210.00_x_297.00_MM)
  6

 40
0.0
 41
0.0
 42
0.0
 43
0.0
 44
210.0
 45
297.0
 46
0.0
 47
0.0
 48
0.0
 49
0.0
140
0.0
141
0.0
142
1.0
143
1.0
 70
0
 72
1
 73
0
 74
5
  7

 75
16
 76
0
 77
2
 78
300
147
1.0
148
0.0
149
0.0
100
AcDbLayout
  1
Plan 5-5
 70
1
 71
47
 10
-0.0
 20
-0.0
 11
210.0
 21
297.0
 12
0.0
 22
0.0
 32
0.0
 14
1e+20
 24
1e+20
 34
1e+20
 15
-1e+20
 25
-1e+20
 35
-1e+20
146
0.0
 13
0.0
 23
0.0
 33
0.0
 16
1.0
 26
0.0
 36
0.0
 17
0.0
 27
1.0
 37
0.0
 76
1
330
4BC
331
4C0
  0
LAYOUT
  5
4C5
330
D
100
AcDbPlotSettings
  1

  2
DWG to PDF.pc3
  4
ezdxf_(210.00_x_297.00_MM)
  6

 40
0.0
 41
0.0
 42
0.0
 43
0.0
 44
210.0
 45
297.0
 46
0.0
 47
0.0
 48
0.0
 49
0.0
140
0.0
141
0.0
142
1.0
143
1.0
 70
0
 72
1
 73
0
 74
5
  7

 75
16
 76
0
 77
2
 78
300
147
1.0
148
0.0
149
0.0
100
AcDbLayout
  1
Plan 5-6
 70
1
 71
48
 10
-0.0
 20
-0.0
 11
210.0
 21
297.0
 12
0.0
 22
0.0
 32
0.0
 14
1e+20
 24
1e+20
 34
1e+20
 15
-1e+20
 25
-1e+20
 35
-1e+20
146
0.0
 13
0.0
 23
0.0
 33
0.0
 16
1.0
 26
0.0
 36
0.0
 17
0.0
 27
1.0
 37
0.0
 76
1
330
4C2
331
4C6
  0
LAYOUT
  5
4CB
330
D
100
AcDbPlotSettings
  1

  2
DWG to PDF.pc3
  4
ezdxf_(210.00_x_297.00_MM)
  6

 40
0.0
 41
0.0
 42
0.0
 43
0.0
 44
210.0
 45
297.0
 46
0.0
 47
0.0
 48
0.0
 49
0.0
140
0.0
141
0.0
142
1.0
143
1.0
 70
0
 72
1
 73
0
 74
5
  7

 75
16
 76
0
 77
2
 78
300
147
1.0
148
0.0
149
0.0
100
AcDbLayout
  1
Plan 5-7
 70
1
 71
49
 10
-0.0
 20
-0.0
 11
210.0
 21
297.0
 12
0.0
 22
0.0
 32
0.0
 14
1e+20
 24
1e+20
 34
1e+20
 15
-1e+20
 25
-1e+20
 35
-1e+20
146
0.0
 13
0.0
 23
0.0
 33
0.0
 16
1.0
 26
0.0
 36
0.0
 17
0.0
 27
1.0
 37
0.0
 76
1
330
4C8
331
4CC
  0
LAYOUT
  5
4D1
330
D
100
AcDbPlotSettings
  1

  2
DWG to PDF.pc3
  4
ezdxf_(210.00_x_297.00_MM)
  6

 40
0.0
 41
0.0
 42
0.0
 43
0.0
 44
210.0
 45
297.0
 46
0.0
 47
0.0
 48
0.0
 49
0.0
140
0.0
141
0.0
142
1.0
143
1.0
 70
0
 72
1
 73
0
 74
5
  7

 75
16
 76
0
 77
2
 78
300
147
1.0
148
0.0
149
0.0
100
AcDbLayout
  1
Plan 5-8
 70
1
 71
50
 10
-0.0
 20
-0.0
 11
210.0
 21
297.0
 12
0.0
 22
0.0
 32
0.0
 14
1e+20
 24
1e+20
 34
1e+20
 15
-1e+20
 25
-1e+20
 35
-1e+20
146
0.0
 13
0.0
 23
0.0
 33
0.0
 16
1.0
 26
0.0
 36
0.0
 17
0.0
 27
1.0
 37
0.0
 76
1
330
4CE
331
4D2
  0
LAYOUT
  5
4D7
330
D
100
AcDbPlotSettings
  1

  2
DWG to PDF.pc3
  4
ezdxf_(210.00_x_297.00_MM)
  6

 40
0.0
 41
0.0
 42
0.0
 43
0.0
 44
210.0
 45
297.0
 46
0.0
 47
0.0
 48
0.0
 49
0.0
140
0.0
141
0.0
142
1.0
143
1.0
 70
0
 72
1
 73
0
 74
5
  7

 75
16
 76
0
 77
2
 78
300
147
1.0
148
0.0
149
0.0
100
AcDbLayout
  1
Plan 5-9
 70
1
 71
51
 10
-0.0
 20
-0.0
 11
210.0
 21
297.0
 12
0.0
 22
0.0
 32
0.0
 14
1e+20
 24
1e+20
 34
1e+20
 15
-1e+20
 25
-1e+20
 35
-1e+20
146
0.0
 13
0.0
 23
0.0
 33
0.0
 16
1.0
 26
0.0
 36
0.0
 17
0.0
 27
1.0
 37
0.0
 76
1
330
4D4
331
4D8
  0
LAYOUT
  5
4DD
330
D
100
AcDbPlotSettings
  1

  2
DWG to PDF.pc3
  4
ezdxf_(210.00_x_297.00_MM)
  6

 40
0.0
 41
0.0
 42
0.0
 43
0.0
 44
210.0
 45
297.0
 46
0.0
 47
0.0
 48
0.0
 49
0.0
140
0.0
141
0.0
142
1.0
143
1.0
 70
0
 72
1
 73
0
 74
5
  7

 75
16
 76
0
 77
2
 78
300
147
1.0
148
0.0
149
0.0
100
AcDbLayout
  1
Plan 5-10
 70
1
 71
52
 10
-0.0
 20
-0.0
 11
210.0
 21
297.0
 12
0.0
 22
0.0
 32
0.0
 14
1e+20
 24
1e+20
 34
1e+20
 15
-1e+20
 25
-1e+20
 35
-1e+20
146
0.0
 13
0.0
 23
0.0
 33
0.0
 16
1.0
 26
0.0
 36
0.0
 17
0.0
 27
1.0
 37
0.0
 76
1
330
4DA
331
4DE
  0
LAYOUT
  5
4E3
330
D
100
AcDbPlotSettings
  1

  2
DWG to PDF.pc3
  4
ezdxf_(210.00_x_297.00_MM)
  6

 40
0.0
 41
0.0
 42
0.0
 43
0.0
 44
210.0
 45
297.0
 46
0.0
 47
0.0
 48
0.0
 49
0.0
140
0.0
141
0.0
142
1.0
143
1.0
 70
0
 72
1
 73
0
 74
5
  7

 75
16
 76
0
 77
2
 78
300
147
1.0
148
0.0
149
0.0
100
AcDbLayout
  1
Plan 6-1
 70
1
 71
53
 10
-0.0
 20
-0.0
 11
210.0
 21
297.0
 12
0.0
 22
0.0
 32
0.0
 14
1e+20
 24
1e+20
 34
1e+20
 15
-1e+20
 25
-1e+20
 35
-1e+20
146
0.0
 13
0.0
 23
0.0
 33
0.0
 16
1.0
 26
0.0
 36
0.0
 17
0.0
 27
1.0
 37
0.0
 76
1
330
4E0
331
4E4
  0
LAYOUT
  5
4E9
330
D
100
AcDbPlotSettings
  1

  2
DWG to PDF.pc3
  4
ezdxf_(210.00_x_297.00_MM)
  6

 40
0.0
 41
0.0
 42
0.0
 43
0.0
 44
210.0
 45
297.0
 46
0.0
 47
0.0
 48
0.0
 49
0.0
140
0.0
141
0.0
142
1.0
143
1.0
 70
0
 72
1
 73
0
 74
5
  7

 75
16
 76
0
 77
2
 78
300
147
1.0
148
0.0
149
0.0
100
AcDbLayout
  1
Plan 6-2
 70
1
 71
54
 10
-0.0
 20
-0.0
 11
210.0
 21
297.0
 12
0.0
 22
0.0
 32
0.0
 14
1e+20
 24
1e+20
 34
1e+20
 15
-1e+20
 25
-1e+20
 35
-1e+20
146
0.0
 13
0.0
 23
0.0
 33
0.0
 16
1.0
 26
0.0
 36
0.0
 17
0.0
 27
1.0
 37
0.0
 76
1
330
4E6
331
4EA
  0
LAYOUT
  5
4EF
330
D
100
AcDbPlotSettings
  1

  2
DWG to PDF.pc3
  4
ezdxf_(210.00_x_297.00_MM)
  6

 40
0.0
 41
0.0
 42
0.0
 43
0.0
 44
210.0
 45
297.0
 46
0.0
 47
0.0
 48
0.0
 49
0.0
140
0.0
141
0.0
142
1.0
143
1.0
 70
0
 72
1
 73
0
 74
5
  7

 75
16
 76
0
 77
2
 78
300
147
1.0
148
0.0
149
0.0
100
AcDbLayout
  1
Plan 6-3
 70
1
 71
55
 10
-0.0
 20
-0.0
 11
210.0
 21
297.0
 12
0.0
 22
0.0
 32
0.0
 14
1e+20
 24
1e+20
 34
1e+20
 15
-1e+20
 25
-1e+20
 35
-1e+20
146
0.0
 13
0.0
 23
0.0
 33
0.0
 16
1.0
 26
0.0
 36
0.0
 17
0.0
 27
1.0
 37
0.0
 76
1
330
4EC
331
4F0
  0
LAYOUT
  5
4F5
330
D
100
AcDbPlotSettings
  1

  2
DWG to PDF.pc3
  4
ezdxf_(210.00_x_297.00_MM)
  6

 40
0.0
 41
0.0
 42
0.0
 43
0.0
 44
210.0
 45
297.0
 46
0.0
 47
0.0
 48
0.0
 49
0.0
140
0.0
141
0.0
142
1.0
143
1.0
 70
0
 72
1
 73
0
 74
5
  7

 75
16
 76
0
 77
2
 78
300
147
1.0
148
0.0
149
0.0
100
AcDbLayout
  1
Plan 6-4
 70
1
 71
56
 10
-0.0
 20
-0.0
 11
210.0
 21
297.0
 12
0.0
 22
0.0
 32
0.0
 14
1e+20
 24
1e+20
 34
1e+20
 15
-1e+20
 25
-1e+20
 35
-1e+20
146
0.0
 13
0.0
 23
0.0
 33
0.0
 16
1.0
 26
0.0
 36
0.0
 17
0.0
 27
1.0
 37
0.0
 76
1
330
4F2
331
4F6
  0
LAYOUT
  5
4FB
330
D
100
AcDbPlotSettings
  1

  2
DWG to PDF.pc3
  4
ezdxf_(210.00_x_297.00_MM)
  6

 40
0.0
 41
0.0
 42
0.0
 43
0.0
 44
210.0
 45
297.0
 46
0.0
 47
0.0
 48
0.0
 49
0.0
140
0.0
141
0.0
142
1.0
143
1.0
 70
0
 72
1
 73
0
 74
5
  7

 75
16
 76
0
 77
2
 78
300
147
1.0
148
0.0
149
0.0
100
AcDbLayout
  1
Plan 6-5
 70
1
 71
57
 10
-0.0
 20
-0.0
 11
210.0
 21
297.0
 12
0.0
 22
0.0
 32
0.0
 14
1e+20
 24
1e+20
 34
1e+20
 15
-1e+20
 25
-1e+20
 35
-1e+20
146
0.0
 13
0.0
 23
0.0
 33
0.0
 16
1.0
 26
0.0
 36
0.0
 17
0.0
 27
1.0
 37
0.0
 76
1
330
4F8
331
4FC
  0
LAYOUT
  5
501
330
D
100
AcDbPlotSettings
  1

  2
DWG to PDF.pc3
  4
ezdxf_(210.00_x_297.00_MM)
  6

 40
0.0
 41
0.0
 42
0.0
 43
0.0
 44
210.0
 45
297.0
 46
0.0
 47
0.0
 48
0.0
 49
0.0
140
0.0
141
0.0
142
1.0
143
1.0
 70
0
 72
1
 73
0
 74
5
  7

 75
16
 76
0
 77
2
 78
300
147
1.0
148
0.0
149
0.0
100
AcDbLayout
  1
Plan 6-6
 70
1
 71
58
 10
-0.0
 20
-0.0
 11
210.0
 21
297.0
 12
0.0
 22
0.0
 32
0.0
 14
1e+20
 24
1e+20
 34
1e+20
 15
-1e+20
 25
-1e+20
 35
-1e+20
146
0.0
 13
0.0
 23
0.0
 33
0.0
 16
1.0
 26
0.0
 36
0.0
 17
0.0
 27
1.0
 37
0.0
 76
1
330
4FE
331
502
  0
LAYOUT
  5
507
330
D
100
AcDbPlotSettings
  1

  2
DWG to PDF.pc3
  4
ezdxf_(210.00_x_297.00_MM)
  6

 40
0.0
 41
0.0
 42
0.0
 43
0.0
 44
210.0
 45
297.0
 46
0.0
 47
0.0
 48
0.0
 49
0.0
140
0.0
141
0.0
142
1.0
143
1.0
 70
0
 72
1
 73
0
 74
5
  7

 75
16
 76
0
 77
2
 78
300
147
1.0
148
0.0
149
0.0
100
AcDbLayout
  1
Plan 6-7
 70
1
 71
59
 10
-0.0
 20
-0.0
 11
210.0
 21
297.0
 12
0.0
 22
0.0
 32
0.0
 14
1e+20
 24
1e+20
 34
1e+20
 15
-1e+20
 25
-1e+20
 35
-1e+20
146
0.0
 13
0.0
 23
0.0
 33
0.0
 16
1.0
 26
0.0
 36
0.0
 17
0.0
 27
1.0
 37
0.0
 76
1
330
504
331
508
  0
LAYOUT
  5
50D
330
D
100
AcDbPlotSettings
  1

  2
DWG to PDF.pc3
  4
ezdxf_(210.00_x_297.00_MM)
  6

 40
0.0
 41
0.0
 42
0.0
 43
0.0
 44
210.0
 45
297.0
 46
0.0
 47
0.0
 48
0.0
 49
0.0
140
0.0
141
0.0
142
1.0
143
1.0
 70
0
 72
1
 73
0
 74
5
  7

 75
16
 76
0
 77
2
 78
300
147
1.0
148
0.0
149
0.0
100
AcDbLayout
  1
Plan 6-8
 70
1
 71
60
 10
-0.0
 20
-0.0
 11
210.0
 21
297.0
 12
0.0
 22
0.0
 32
0.0
 14
1e+20
 24
1e+20
 34
1e+20
 15
-1e+20
 25
-1e+20
 35
-1e+20
146
0.0
 13
0.0
 23
0.0
 33
0.0
 16
1.0
 26
0.0
 36
0.0
 17
0.0
 27
1.0
 37
0.0
 76
1
330
50A
331
50E
  0
LAYOUT
  5
513
330
D
100
AcDbPlotSettings
  1

  2
DWG to PDF.pc3
  4
ezdxf_(210.00_x_297.00_MM)
  6

 40
0.0
 41
0.0
 42
0.0
 43
0.0
 44
210.0
 45
297.0
 46
0.0
 47
0.0
 48
0.0
 49
0.0
140
0.0
141
0.0
142
1.0
143
1.0
 70
0
 72
1
 73
0
 74
5
  7

 75
16
 76
0
 77
2
 78
300
147
1.0
148
0.0
149
0.0
100
AcDbLayout
  1
Plan 6-9
 70
1
 71
61
 10
-0.0
 20
-0.0
 11
210.0
 21
297.0
 12
0.0
 22
0.0
 32
0.0
 14
1e+20
 24
1e+20
 34
1e+20
 15
-1e+20
 25
-1e+20
 35
-1e+20
146
0.0
 13
0.0
 23
0.0
 33
0.0
 16
1.0
 26
0.0
 36
0.0
 17
0.0
 27
1.0
 37
0.0
 76
1
330
510
331
514
  0
LAYOUT
  5
519
330
D
100
AcDbPlotSettings
  1

  2
DWG to PDF.pc3
  4
ezdxf_(210.00_x_297.00_MM)
  6

 40
0.0
 41
0.0
 42
0.0
 43
0.0
 44
210.0
 45
297.0
 46
0.0
 47
0.0
 48
0.0
 49
0.0
140
0.0
141
0.0
142
1.0
143
1.0
 70
0
 72
1
 73
0
 74
5
  7

 75
16
 76
0
 77
2
 78
300
147
1.0
148
0.0
149
0.0
100
AcDbLayout
  1
Plan 6-10
 70
1
 71
62
 10
-0.0
 20
-0.0
 11
210.0
 21
297.0
 12
0.0
 22
0.0
 32
0.0
 14
1e+20
 24
1e+20
 34
1e+20
 15
-1e+20
 25
-1e+20
 35
-1e+20
146
0.0
 13
0.0
 23
0.0
 33
0.0
 16
1.0
 26
0.0
 36
0.0
 17
0.0
 27
1.0
 37
0.0
 76
1
330
516
331
51A
  0
LAYOUT
  5
51F
330
D
100
AcDbPlotSettings
  1

  2
DWG to PDF.pc3
  4
ezdxf_(210.00_x_297.00_MM)
  6

 40
0.0
 41
0.0
 42
0.0
 43
0.0
 44
210.0
 45
297.0
 46
0.0
 47
0.0
 48
0.0
 49
0.0
140
0.0
141
0.0
142
1.0
143
1.0
 70
0
 72
1
 73
0
 74
5
  7

 75
16
 76
0
 77
2
 78
300
147
1.0
148
0.0
149
0.0
100
AcDbLayout
  1
Plan 7-1
 70
1
 71
63
 10
-0.0
 20
-0.0
 11
210.0
 21
297.0
 12
0.0
 22
0.0
 32
0.0
 14
1e+20
 24
1e+20
 34
1e+20
 15
-1e+20
 25
-1e+20
 35
-1e+20
146
0.0
 13
0.0
 23
0.0
 33
0.0
 16
1.0
 26
0.0
 36
0.0
 17
0.0
 27
1.0
 37
0.0
 76
1
330
51C
331
520
  0
LAYOUT
  5
525
330
D
100
AcDbPlotSettings
  1

  2
DWG to PDF.pc3
  4
ezdxf_(210.00_x_297.00_MM)
  6

 40
0.0
 41
0.0
 42
0.0
 43
0.0
 44
210.0
 45
297.0
 46
0.0
 47
0.0
 48
0.0
 49
0.0
140
0.0
141
0.0
142
1.0
143
1.0
 70
0
 72
1
 73
0
 74
5
  7

 75
16
 76
0
 77
2
 78
300
147
1.0
148
0.0
149
0.0
100
AcDbLayout
  1
Plan 7-2
 70
1
 71
64
 10
-0.0
 20
-0.0
 11
210.0
 21
297.0
 12
0.0
 22
0.0
 32
0.0
 14
1e+20
 24
1e+20
 34
1e+20
 15
-1e+20
 25
-1e+20
 35
-1e+20
146
0.0
 13
0.0
 23
0.0
 33
0.0
 16
1.0
 26
0.0
 36
0.0
 17
0.0
 27
1.0
 37
0.0
 76
1
330
522
331
526
  0
LAYOUT
  5
52B
330
D
100
AcDbPlotSettings
  1

  2
DWG to PDF.pc3
  4
ezdxf_(210.00_x_297.00_MM)
  6

 40
0.0
 41
0.0
 42
0.0
 43
0.0
 44
210.0
 45
297.0
 46
0.0
 47
0.0
 48
0.0
 49
0.0
140
0.0
141
0.0
142
1.0
143
1.0
 70
0
 72
1
 73
0
 74
5
  7

 75
16
 76
0
 77
2
 78
300
147
1.0
148
0.0
149
0.0
100
AcDbLayout
  1
Plan 7-3
 70
1
 71
65
 10
-0.0
 20
-0.0
 11
210.0
 21
297.0
 12
0.0
 22
0.0
 32
0.0
 14
1e+20
 24
1e+20
 34
1e+20
 15
-1e+20
 25
-1e+20
 35
-1e+20
146
0.0
 13
0.0
 23
0.0
 33
0.0
 16
1.0
 26
0.0
 36
0.0
 17
0.0
 27
1.0
 37
0.0
 76
1
330
528
331
52C
  0
LAYOUT
  5
531
330
D
100
AcDbPlotSettings
  1

  2
DWG to PDF.pc3
  4
ezdxf_(210.00_x_297.00_MM)
  6

 40
0.0
 41
0.0
 42
0.0
 43
0.0
 44
210.0
 45
297.0
 46
0.0
 47
0.0
 48
0.0
 49
0.0
140
0.0
141
0.0
142
1.0
143
1.0
 70
0
 72
1
 73
0
 74
5
  7

 75
16
 76
0
 77
2
 78
300
147
1.0
148
0.0
149
0.0
100
AcDbLayout
  1
Plan 7-4
 70
1
 71
66
 10
-0.0
 20
-0.0
 11
210.0
 21
297.0
 12
0.0
 22
0.0
 32
0.0
 14
1e+20
 24
1e+20
 34
1e+20
 15
-1e+20
 25
-1e+20
 35
-1e+20
146
0.0
 13
0.0
 23
0.0
 33
0.0
 16
1.0
 26
0.0
 36
0.0
 17
0.0
 27
1.0
 37
0.0
 76
1
330
52E
331
532
  0
LAYOUT
  5
537
330
D
100
AcDbPlotSettings
  1

  2
DWG to PDF.pc3
  4
ezdxf_(210.00_x_297.00_MM)
  6

 40
0.0
 41
0.0
 42
0.0
 43
0.0
 44
210.0
 45
297.0
 46
0.0
 47
0.0
 48
0.0
 49
0.0
140
0.0
141
0.0
142
1.0
143
1.0
 70
0
 72
1
 73
0
 74
5
  7

 75
16
 76
0
 77
2
 78
300
147
1.0
148
0.0
149
0.0
100
AcDbLayout
  1
Plan 7-5
 70
1
 71
67
 10
-0.0
 20
-0.0
 11
210.0
 21
297.0
 12
0.0
 22
0.0
 32
0.0
 14
1e+20
 24
1e+20
 34
1e+20
 15
-1e+20
 25
-1e+20
 35
-1e+20
146
0.0
 13
0.0
 23
0.0
 33
0.0
 16
1.0
 26
0.0
 36
0.0
 17
0.0
 27
1.0
 37
0.0
 76
1
330
534
331
538
  0
LAYOUT
  5
53D
330
D
100
AcDbPlotSettings
  1

  2
DWG to PDF.pc3
  4
ezdxf_(210.00_x_297.00_MM)
  6

 40
0.0
 41
0.0
 42
0.0
 43
0.0
 44
210.0
 45
297.0
 46
0.0
 47
0.0
 48
0.0
 49
0.0
140
0.0
141
0.0
142
1.0
143
1.0
 70
0
 72
1
 73
0
 74
5
  7

 75
16
 76
0
 77
2
 78
300
147
1.0
148
0.0
149
0.0
100
AcDbLayout
  1
Plan 7-6
 70
1
 71
68
 10
-0.0
 20
-0.0
 11
210.0
 21
297.0
 12
0.0
 22
0.0
 32
0.0
 14
1e+20
 24
1e+20
 34
1e+20
 15
-1e+20
 25
-1e+20
 35
-1e+20
146
0.0
 13
0.0
 23
0.0
 33
0.0
 16
1.0
 26
0.0
 36
0.0
 17
0.0
 27
1.0
 37
0.0
 76
1
330
53A
331
53E
  0
LAYOUT
  5
543
330
D
100
AcDbPlotSettings
  1

  2
DWG to PDF.pc3
  4
ezdxf_(210.00_x_297.00_MM)
  6

 40
0.0
 41
0.0
 42
0.0
 43
0.0
 44
210.0
 45
297.0
 46
0.0
 47
0.0
 48
0.0
 49
0.0
140
0.0
141
0.0
142
1.0
143
1.0
 70
0
 72
1
 73
0
 74
5
  7

 75
16
 76
0
 77
2
 78
300
147
1.0
148
0.0
149
0.0
100
AcDbLayout
  1
Plan 7-7
 70
1
 71
69
 10
-0.0
 20
-0.0
 11
210.0
 21
297.0
 12
0.0
 22
0.0
 32
0.0
 14
1e+20
 24
1e+20
 34
1e+20
 15
-1e+20
 25
-1e+20
 35
-1e+20
146
0.0
 13
0.0
 23
0.0
 33
0.0
 16
1.0
 26
0.0
 36
0.0
 17
0.0
 27
1.0
 37
0.0
 76
1
330
540
331
544
  0
LAYOUT
  5
549
330
D
100
AcDbPlotSettings
  1

  2
DWG to PDF.pc3
  4
ezdxf_(210.00_x_297.00_MM)
  6

 40
0.0
 41
0.0
 42
0.0
 43
0.0
 44
210.0
 45
297.0
 46
0.0
 47
0.0
 48
0.0
 49
0.0
140
0.0
141
0.0
142
1.0
143
1.0
 70
0
 72
1
 73
0
 74
5
  7

 75
16
 76
0
 77
2
 78
300
147
1.0
148
0.0
149
0.0
100
AcDbLayout
  1
Plan 7-8
 70
1
 71
70
 10
-0.0
 20
-0.0
 11
210.0
 21
297.0
 12
0.0
 22
0.0
 32
0.0
 14
1e+20
 24
1e+20
 34
1e+20
 15
-1e+20
 25
-1e+20
 35
-1e+20
146
0.0
 13
0.0
 23
0.0
 33
0.0
 16
1.0
 26
0.0
 36
0.0
 17
0.0
 27
1.0
 37
0.0
 76
1
330
546
331
54A
  0
LAYOUT
  5
54F
330
D
100
AcDbPlotSettings
  1

  2
DWG to PDF.pc3
  4
ezdxf_(210.00_x_297.00_MM)
  6

 40
0.0
 41
0.0
 42
0.0
 43
0.0
 44
210.0
 45
297.0
 46
0.0
 47
0.0
 48
0.0
 49
0.0
140
0.0
141
0.0
142
1.0
143
1.0
 70
0
 72
1
 73
0
 74
5
  7

 75
16
 76
0
 77
2
 78
300
147
1.0
148
0.0
149
0.0
100
AcDbLayout
  1
Plan 7-9
 70
1
 71
71
 10
-0.0
 20
-0.0
 11
210.0
 21
297.0
 12
0.0
 22
0.0
 32
0.0
 14
1e+20
 24
1e+20
 34
1e+20
 15
-1e+20
 25
-1e+20
 35
-1e+20
146
0.0
 13
0.0
 23
0.0
 33
0.0
 16
1.0
 26
0.0
 36
0.0
 17
0.0
 27
1.0
 37
0.0
 76
1
330
54C
331
550
  0
LAYOUT
  5
555
330
D
100
AcDbPlotSettings
  1

  2
DWG to PDF.pc3
  4
ezdxf_(210.00_x_297.00_MM)
  6

 40
0.0
 41
0.0
 42
0.0
 43
0.0
 44
210.0
 45
297.0
 46
0.0
 47
0.0
 48
0.0
 49
0.0
140
0.0
141
0.0
142
1.0
143
1.0
 70
0
 72
1
 73
0
 74
5
  7

 75
16
 76
0
 77
2
 78
300
147
1.0
148
0.0
149
0.0
100
AcDbLayout
  1
Plan 7-10
 70
1
 71
72
 10
-0.0
 20
-0.0
 11
210.0
 21
297.0
 12
0.0
 22
0.0
 32
0.0
 14
1e+20
 24
1e+20
 34
1e+20
 15
-1e+20
 25
-1e+20
 35
-1e+20
146
0.0
 13
0.0
 23
0.0
 33
0.0
 16
1.0
 26
0.0
 36
0.0
 17
0.0
 27
1.0
 37
0.0
 76
1
330
552
331
556
  0
LAYOUT
  5
55B
330
D
100
AcDbPlotSettings
  1

  2
DWG to PDF.pc3
  4
ezdxf_(210.00_x_297.00_MM)
  6

 40
0.0
 41
0.0
 42
0.0
 43
0.0
 44
210.0
 45
297.0
 46
0.0
 47
0.0
 48
0.0
 49
0.0
140
0.0
141
0.0
142
1.0
143
1.0
 70
0
 72
1
 73
0
 74
5
  7

 75
16
 76
0
 77
2
 78
300
147
1.0
148
0.0
149
0.0
100
AcDbLayout
  1
Plan 8-1
 70
1
 71
73
 10
-0.0
 20
-0.0
 11
210.0
 21
297.0
 12
0.0
 22
0.0
 32
0.0
 14
1e+20
 24
1e+20
 34
1e+20
 15
-1e+20
 25
-1e+20
 35
-1e+20
146
0.0
 13
0.0
 23
0.0
 33
0.0
 16
1.0
 26
0.0
 36
0.0
 17
0.0
 27
1.0
 37
0.0
 76
1
330
558
331
55C
  0
LAYOUT
  5
561
330
D
100
AcDbPlotSettings
  1

  2
DWG to PDF.pc3
  4
ezdxf_(210.00_x_297.00_MM)
  6

 40
0.0
 41
0.0
 42
0.0
 43
0.0
 44
210.0
 45
297.0
 46
0.0
 47
0.0
 48
0.0
 49
0.0
140
0.0
141
0.0
142
1.0
143
1.0
 70
0
 72
1
 73
0
 74
5
  7

 75
16
 76
0
 77
2
 78
300
147
1.0
148
0.0
149
0.0
100
AcDbLayout
  1
Plan 8-2
 70
1
 71
74
 10
-0.0
 20
-0.0
 11
210.0
 21
297.0
 12
0.0
 22
0.0
 32
0.0
 14
1e+20
 24
1e+20
 34
1e+20
 15
-1e+20
 25
-1e+20
 35
-1e+20
146
0.0
 13
0.0
 23
0.0
 33
0.0
 16
1.0
 26
0.0
 36
0.0
 17
0.0
 27
1.0
 37
0.0
 76
1
330
55E
331
562
  0
LAYOUT
  5
567
330
D
100
AcDbPlotSettings
  1

  2
DWG to PDF.pc3
  4
ezdxf_(210.00_x_297.00_MM)
  6

 40
0.0
 41
0.0
 42
0.0
 43
0.0
 44
210.0
 45
297.0
 46
0.0
 47
0.0
 48
0.0
 49
0.0
140
0.0
141
0.0
142
1.0
143
1.0
 70
0
 72
1
 73
0
 74
5
  7

 75
16
 76
0
 77
2
 78
300
147
1.0
148
0.0
149
0.0
100
AcDbLayout
  1
Plan 8-3
 70
1
 71
75
 10
-0.0
 20
-0.0
 11
210.0
 21
297.0
 12
0.0
 22
0.0
 32
0.0
 14
1e+20
 24
1e+20
 34
1e+20
 15
-1e+20
 25
-1e+20
 35
-1e+20
146
0.0
 13
0.0
 23
0.0
 33
0.0
 16
1.0
 26
0.0
 36
0.0
 17
0.0
 27
1.0
 37
0.0
 76
1
330
564
331
568
  0
LAYOUT
  5
56D
330
D
100
AcDbPlotSettings
  1

  2
DWG to PDF.pc3
  4
ezdxf_(210.00_x_297.00_MM)
  6

 40
0.0
 41
0.0
 42
0.0
 43
0.0
 44
210.0
 45
297.0
 46
0.0
 47
0.0
 48
0.0
 49
0.0
140
0.0
141
0.0
142
1.0
143
1.0
 70
0
 72
1
 73
0
 74
5
  7

 75
16
 76
0
 77
2
 78
300
147
1.0
148
0.0
149
0.0
100
AcDbLayout
  1
Plan 8-4
 70
1
 71
76
 10
-0.0
 20
-0.0
 11
210.0
 21
297.0
 12
0.0
 22
0.0
 32
0.0
 14
1e+20
 24
1e+20
 34
1e+20
 15
-1e+20
 25
-1e+20
 35
-1e+20
146
0.0
 13
0.0
 23
0.0
 33
0.0
 16
1.0
 26
0.0
 36
0.0
 17
0.0
 27
1.0
 37
0.0
 76
1
330
56A
331
56E
  0
LAYOUT
  5
573
330
D
100
AcDbPlotSettings
  1

  2
DWG to PDF.pc3
  4
ezdxf_(210.00_x_297.00_MM)
  6

 40
0.0
 41
0.0
 42
0.0
 43
0.0
 44
210.0
 45
297.0
 46
0.0
 47
0.0
 48
0.0
 49
0.0
140
0.0
141
0.0
142
1.0
143
1.0
 70
0
 72
1
 73
0
 74
5
  7

 75
16
 76
0
 77
2
 78
300
147
1.0
148
0.0
149
0.0
100
AcDbLayout
  1
Plan 8-5
 70
1
 71
77
 10
-0.0
 20
-0.0
 11
210.0
 21
297.0
 12
0.0
 22
0.0
 32
0.0
 14
1e+20
 24
1e+20
 34
1e+20
 15
-1e+20
 25
-1e+20
 35
-1e+20
146
0.0
 13
0.0
 23
0.0
 33
0.0
 16
1.0
 26
0.0
 36
0.0
 17
0.0
 27
1.0
 37
0.0
 76
1
330
570
331
574
  0
LAYOUT
  5
579
330
D
100
AcDbPlotSettings
  1

  2
DWG to PDF.pc3
  4
ezdxf_(210.00_x_297.00_MM)
  6

 40
0.0
 41
0.0
 42
0.0
 43
0.0
 44
210.0
 45
297.0
 46
0.0
 47
0.0
 48
0.0
 49
0.0
140
0.0
141
0.0
142
1.0
143
1.0
 70
0
 72
1
 73
0
 74
5
  7

 75
16
 76
0
 77
2
 78
300
147
1.0
148
0.0
149
0.0
100
AcDbLayout
  1
Plan 8-6
 70
1
 71
78
 10
-0.0
 20
-0.0
 11
210.0
 21
297.0
 12
0.0
 22
0.0
 32
0.0
 14
1e+20
 24
1e+20
 34
1e+20
 15
-1e+20
 25
-1e+20
 35
-1e+20
146
0.0
 13
0.0
 23
0.0
 33
0.0
 16
1.0
 26
0.0
 36
0.0
 17
0.0
 27
1.0
 37
0.0
 76
1
330
576
331
57A
  0
LAYOUT
  5
57F
330
D
100
AcDbPlotSettings
  1

  2
DWG to PDF.pc3
  4
ezdxf_(210.00_x_297.00_MM)
  6

 40
0.0
 41
0.0
 42
0.0
 43
0.0
 44
210.0
 45
297.0
 46
0.0
 47
0.0
 48
0.0
 49
0.0
140
0.0
141
0.0
142
1.0
143
1.0
 70
0
 72
1
 73
0
 74
5
  7

 75
16
 76
0
 77
2
 78
300
147
1.0
148
0.0
149
0.0
100
AcDbLayout
  1
Plan 8-7
 70
1
 71
79
 10
-0.0
 20
-0.0
 11
210.0
 21
297.0
 12
0.0
 22
0.0
 32
0.0
 14
1e+20
 24
1e+20
 34
1e+20
 15
-1e+20
 25
-1e+20
 35
-1e+20
146
0.0
 13
0.0
 23
0.0
 33
0.0
 16
1.0
 26
0.0
 36
0.0
 17
0.0
 27
1.0
 37
0.0
 76
1
330
57C
331
580
  0
LAYOUT
  5
585
330
D
100
AcDbPlotSettings
  1

  2
DWG to PDF.pc3
  4
ezdxf_(210.00_x_297.00_MM)
  6

 40
0.0
 41
0.0
 42
0.0
 43
0.0
 44
210.0
 45
297.0
 46
0.0
 47
0.0
 48
0.0
 49
0.0
140
0.0
141
0.0
142
1.0
143
1.0
 70
0
 72
1
 73
0
 74
5
  7

 75
16
 76
0
 77
2
 78
300
147
1.0
148
0.0
149
0.0
100
AcDbLayout
  1
Plan 8-8
 70
1
 71
80
 10
-0.0
 20
-0.0
 11
210.0
 21
297.0
 12
0.0
 22
0.0
 32
0.0
 14
1e+20
 24
1e+20
 34
1e+20
 15
-1e+20
 25
-1e+20
 35
-1e+20
146
0.0
 13
0.0
 23
0.0
 33
0.0
 16
1.0
 26
0.0
 36
0.0
 17
0.0
 27
1.0
 37
0.0
 76
1
330
582
331
586
  0
LAYOUT
  5
58B
330
D
100
AcDbPlotSettings
  1

  2
DWG to PDF.pc3
  4
ezdxf_(210.00_x_297.00_MM)
  6

 40
0.0
 41
0.0
 42
0.0
 43
0.0
 44
210.0
 45
297.0
 46
0.0
 47
0.0
 48
0.0
 49
0.0
140
0.0
141
0.0
142
1.0
143
1.0
 70
0
 72
1
 73
0
 74
5
  7

 75
16
 76
0
 77
2
 78
300
147
1.0
148
0.0
149
0.0
100
AcDbLayout
  1
Plan 8-9
 70
1
 71
81
 10
-0.0
 20
-0.0
 11
210.0
 21
297.0
 12
0.0
 22
0.0
 32
0.0
 14
1e+20
 24
1e+20
 34
1e+20
 15
-1e+20
 25
-1e+20
 35
-1e+20
146
0.0
 13
0.0
 23
0.0
 33
0.0
 16
1.0
 26
0.0
 36
0.0
 17
0.0
 27
1.0
 37
0.0
 76
1
330
588
331
58C
  0
LAYOUT
  5
591
330
D
100
AcDbPlotSettings
  1

  2
DWG to PDF.pc3
  4
ezdxf_(210.00_x_297.00_MM)
  6

 40
0.0
 41
0.0
 42
0.0
 43
0.0
 44
210.0
 45
297.0
 46
0.0
 47
0.0
 48
0.0
 49
0.0
140
0.0
141
0.0
142
1.0
143
1.0
 70
0
 72
1
 73
0
 74
5
  7

 75
16
 76
0
 77
2
 78
300
147
1.0
148
0.0
149
0.0
100
AcDbLayout
  1
Plan 8-10
 70
1
 71
82
 10
-0.0
 20
-0.0
 11
210.0
 21
297.0
 12
0.0
 22
0.0
 32
0.0
 14
1e+20
 24
1e+20
 34
1e+20
 15
-1e+20
 25
-1e+20
 35
-1e+20
146
0.0
 13
0.0
 23
0.0
 33
0.0
 16
1.0
 26
0.0
 36
0.0
 17
0.0
 27
1.0
 37
0.0
 76
1
330
58E
331
592
  0
LAYOUT
  5
597
330
D
100
AcDbPlotSettings
  1

  2
DWG to PDF.pc3
  4
ezdxf_(210.00_x_297.00_MM)
  6

 40
0.0
 41
0.0
 42
0.0
 43
0.0
 44
210.0
 45
297.0
 46
0.0
 47
0.0
 48
0.0
 49
0.0
140
0.0
141
0.0
142
1.0
143
1.0
 70
0
 72
1
 73
0
 74
5
  7

 75
16
 76
0
 77
2
 78
300
147
1.0
148
0.0
149
0.0
100
AcDbLayout
  1
Plan 9-1
 70
1
 71
83
 10
-0.0
 20
-0.0
 11
210.0
 21
297.0
 12
0.0
 22
0.0
 32
0.0
 14
1e+20
 24
1e+20
 34
1e+20
 15
-1e+20
 25
-1e+20
 35
-1e+20
146
0.0
 13
0.0
 23
0.0
 33
0.0
 16
1.0
 26
0.0
 36
0.0
 17
0.0
 27
1.0
 37
0.0
 76
1
330
594
331
598
  0
LAYOUT
  5
59D
330
D
100
AcDbPlotSettings
  1

  2
DWG to PDF.pc3
  4
ezdxf_(210.00_x_297.00_MM)
  6

 40
0.0
 41
0.0
 42
0.0
 43
0.0
 44
210.0
 45
297.0
 46
0.0
 47
0.0
 48
0.0
 49
0.0
140
0.0
141
0.0
142
1.0
143
1.0
 70
0
 72
1
 73
0
 74
5
  7

 75
16
 76
0
 77
2
 78
300
147
1.0
148
0.0
149
0.0
100
AcDbLayout
  1
Plan 9-2
 70
1
 71
84
 10
-0.0
 20
-0.0
 11
210.0
 21
297.0
 12
0.0
 22
0.0
 32
0.0
 14
1e+20
 24
1e+20
 34
1e+20
 15
-1e+20
 25
-1e+20
 35
-1e+20
146
0.0
 13
0.0
 23
0.0
 33
0.0
 16
1.0
 26
0.0
 36
0.0
 17
0.0
 27
1.0
 37
0.0
 76
1
330
59A
331
59E
  0
LAYOUT
  5
5A3
330
D
100
AcDbPlotSettings
  1

  2
DWG to PDF.pc3
  4
ezdxf_(210.00_x_297.00_MM)
  6

 40
0.0
 41
0.0
 42
0.0
 43
0.0
 44
210.0
 45
297.0
 46
0.0
 47
0.0
 48
0.0
 49
0.0
140
0.0
141
0.0
142
1.0
143
1.0
 70
0
 72
1
 73
0
 74
5
  7

 75
16
 76
0
 77
2
 78
300
147
1.0
148
0.0
149
0.0
100
AcDbLayout
  1
Plan 9-3
 70
1
 71
85
 10
-0.0
 20
-0.0
 11
210.0
 21
297.0
 12
0.0
 22
0.0
 32
0.0
 14
1e+20
 24
1e+20
 34
1e+20
 15
-1e+20
 25
-1e+20
 35
-1e+20
146
0.0
 13
0.0
 23
0.0
 33
0.0
 16
1.0
 26
0.0
 36
0.0
 17
0.0
 27
1.0
 37
0.0
 76
1
330
5A0
331
5A4
  0
LAYOUT
  5
5A9
330
D
100
AcDbPlotSettings
  1

  2
DWG to PDF.pc3
  4
ezdxf_(210.00_x_297.00_MM)
  6

 40
0.0
 41
0.0
 42
0.0
 43
0.0
 44
210.0
 45
297.0
 46
0.0
 47
0.0
 48
0.0
 49
0.0
140
0.0
141
0.0
142
1.0
143
1.0
 70
0
 72
1
 73
0
 74
5
  7

 75
16
 76
0
 77
2
 78
300
147
1.0
148
0.0
149
0.0
100
AcDbLayout
  1
Plan 9-4
 70
1
 71
86
 10
-0.0
 20
-0.0
 11
210.0
 21
297.0
 12
0.0
 22
0.0
 32
0.0
 14
1e+20
 24
1e+20
 34
1e+20
 15
-1e+20
 25
-1e+20
 35
-1e+20
146
0.0
 13
0.0
 23
0.0
 33
0.0
 16
1.0
 26
0.0
 36
0.0
 17
0.0
 27
1.0
 37
0.0
 76
1
330
5A6
331
5AA
  0
LAYOUT
  5
5AF
330
D
100
AcDbPlotSettings
  1

  2
DWG to PDF.pc3
  4
ezdxf_(210.00_x_297.00_MM)
  6

 40
0.0
 41
0.0
 42
0.0
 43
0.0
 44
210.0
 45
297.0
 46
0.0
 47
0.0
 48
0.0
 49
0.0
140
0.0
141
0.0
142
1.0
143
1.0
 70
0
 72
1
 73
0
 74
5
  7

 75
16
 76
0
 77
2
 78
300
147
1.0
148
0.0
149
0.0
100
AcDbLayout
  1
Plan 9-5
 70
1
 71
87
 10
-0.0
 20
-0.0
 11
210.0
 21
297.0
 12
0.0
 22
0.0
 32
0.0
 14
1e+20
 24
1e+20
 34
1e+20
 15
-1e+20
 25
-1e+20
 35
-1e+20
146
0.0
 13
0.0
 23
0.0
 33
0.0
 16
1.0
 26
0.0
 36
0.0
 17
0.0
 27
1.0
 37
0.0
 76
1
330
5AC
331
5B0
  0
LAYOUT
  5
5B5
330
D
100
AcDbPlotSettings
  1

  2
DWG to PDF.pc3
  4
ezdxf_(210.00_x_297.00_MM)
  6

 40
0.0
 41
0.0
 42
0.0
 43
0.0
 44
210.0
 45
297.0
 46
0.0
 47
0.0
 48
0.0
 49
0.0
140
0.0
141
0.0
142
1.0
143
1.0
 70
0
 72
1
 73
0
 74
5
  7

 75
16
 76
0
 77
2
 78
300
147
1.0
148
0.0
149
0.0
100
AcDbLayout
  1
Plan 9-6
 70
1
 71
88
 10
-0.0
 20
-0.0
 11
210.0
 21
297.0
 12
0.0
 22
0.0
 32
0.0
 14
1e+20
 24
1e+20
 34
1e+20
 15
-1e+20
 25
-1e+20
 35
-1e+20
146
0.0
 13
0.0
 23
0.0
 33
0.0
 16
1.0
 26
0.0
 36
0.0
 17
0.0
 27
1.0
 37
0.0
 76
1
330
5B2
331
5B6
  0
LAYOUT
  5
5BB
330
D
100
AcDbPlotSettings
  1

  2
DWG to PDF.pc3
  4
ezdxf_(210.00_x_297.00_MM)
  6

 40
0.0
 41
0.0
 42
0.0
 43
0.0
 44
210.0
 45
297.0
 46
0.0
 47
0.0
 48
0.0
 49
0.0
140
0.0
141
0.0
142
1.0
143
1.0
 70
0
 72
1
 73
0
 74
5
  7

 75
16
 76
0
 77
2
 78
300
147
1.0
148
0.0
149
0.0
100
AcDbLayout
  1
Plan 9-7
 70
1
 71
89
 10
-0.0
 20
-0.0
 11
210.0
 21
297.0
 12
0.0
 22
0.0
 32
0.0
 14
1e+20
 24
1e+20
 34
1e+20
 15
-1e+20
 25
-1e+20
 35
-1e+20
146
0.0
 13
0.0
 23
0.0
 33
0.0
 16
1.0
 26
0.0
 36
0.0
 17
0.0
 27
1.0
 37
0.0
 76
1
330
5B8
331
5BC
  0
LAYOUT
  5
5C1
330
D
100
AcDbPlotSettings
  1

  2
DWG to PDF.pc3
  4
ezdxf_(210.00_x_297.00_MM)
  6

 40
0.0
 41
0.0
 42
0.0
 43
0.0
 44
210.0
 45
297.0
 46
0.0
 47
0.0
 48
0.0
 49
0.0
140
0.0
141
0.0
142
1.0
143
1.0
 70
0
 72
1
 73
0
 74
5
  7

 75
16
 76
0
 77
2
 78
300
147
1.0
148
0.0
149
0.0
100
AcDbLayout
  1
Plan 9-8
 70
1
 71
90
 10
-0.0
 20
-0.0
 11
210.0
 21
297.0
 12
0.0
 22
0.0
 32
0.0
 14
1e+20
 24
1e+20
 34
1e+20
 15
-1e+20
 25
-1e+20
 35
-1e+20
146
0.0
 13
0.0
 23
0.0
 33
0.0
 16
1.0
 26
0.0
 36
0.0
 17
0.0
 27
1.0
 37
0.0
 76
1
330
5BE
331
5C2
  0
LAYOUT
  5
5C7
330
D
100
AcDbPlotSettings
  1

  2
DWG to PDF.pc3
  4
ezdxf_(210.00_x_297.00_MM)
  6

 40
0.0
 41
0.0
 42
0.0
 43
0.0
 44
210.0
 45
297.0
 46
0.0
 47
0.0
 48
0.0
 49
0.0
140
0.0
141
0.0
142
1.0
143
1.0
 70
0
 72
1
 73
0
 74
5
  7

 75
16
 76
0
 77
2
 78
300
147
1.0
148
0.0
149
0.0
100
AcDbLayout
  1
Plan 9-9
 70
1
 71
91
 10
-0.0
 20
-0.0
 11
210.0
 21
297.0
 12
0.0
 22
0.0
 32
0.0
 14
1e+20
 24
1e+20
 34
1e+20
 15
-1e+20
 25
-1e+20
 35
-1e+20
146
0.0
 13
0.0
 23
0.0
 33
0.0
 16
1.0
 26
0.0
 36
0.0
 17
0.0
 27
1.0
 37
0.0
 76
1
330
5C4
331
5C8
  0
LAYOUT
  5
5CD
330
D
100
AcDbPlotSettings
  1

  2
DWG to PDF.pc3
  4
ezdxf_(210.00_x_297.00_MM)
  6

 40
0.0
 41
0.0
 42
0.0
 43
0.0
 44
210.0
 45
297.0
 46
0.0
 47
0.0
 48
0.0
 49
0.0
140
0.0
141
0.0
142
1.0
143
1.0
 70
0
 72
1
 73
0
 74
5
  7

 75
16
 76
0
 77
2
 78
300
147
1.0
148
0.0
149
0.0
100
AcDbLayout
  1
Plan 9-10
 70
1
 71
92
 10
-0.0
 20
-0.0
 11
210.0
 21
297.0
 12
0.0
 22
0.0
 32
0.0
 14
1e+20
 24
1e+20
 34
1e+20
 15
-1e+20
 25
-1e+20
 35
-1e+20
146
0.0
 13
0.0
 23
0.0
 33
0.0
 16
1.0
 26
0.0
 36
0.0
 17
0.0
 27
1.0
 37
0.0
 76
1
330
5CA
331
5CE
  0
LAYOUT
  5
5D3
330
D
100
AcDbPlotSettings
  1

  2
DWG to PDF.pc3
  4
ezdxf_(210.00_x_297.00_MM)
  6

 40
0.0
 41
0.0
 42
0.0
 43
0.0
 44
210.0
 45
297.0
 46
0.0
 47
0.0
 48
0.0
 49
0.0
140
0.0
141
0.0
142
1.0
143
1.0
 70
0
 72
1
 73
0
 74
5
  7

 75
16
 76
0
 77
2
 78
300
147
1.0
148
0.0
149
0.0
100
AcDbLayout
  1
Plan 10-1
 70
1
 71
93
 10
-0.0
 20
-0.0
 11
210.0
 21
297.0
 12
0.0
 22
0.0
 32
0.0
 14
1e+20
 24
1e+20
 34
1e+20
 15
-1e+20
 25
-1e+20
 35
-1e+20
146
0.0
 13
0.0
 23
0.0
 33
0.0
 16
1.0
 26
0.0
 36
0.0
 17
0.0
 27
1.0
 37
0.0
 76
1
330
5D0
331
5D4
  0
LAYOUT
  5
5D9
330
D
100
AcDbPlotSettings
  1

  2
DWG to PDF.pc3
  4
ezdxf_(210.00_x_297.00_MM)
  6

 40
0.0
 41
0.0
 42
0.0
 43
0.0
 44
210.0
 45
297.0
 46
0.0
 47
0.0
 48
0.0
 49
0.0
140
0.0
141
0.0
142
1.0
143
1.0
 70
0
 72
1
 73
0
 74
5
  7

 75
16
 76
0
 77
2
 78
300
147
1.0
148
0.0
149
0.0
100
AcDbLayout
  1
Plan 10-2
 70
1
 71
94
 10
-0.0
 20
-0.0
 11
210.0
 21
297.0
 12
0.0
 22
0.0
 32
0.0
 14
1e+20
 24
1e+20
 34
1e+20
 15
-1e+20
 25
-1e+20
 35
-1e+20
146
0.0
 13
0.0
 23
0.0
 33
0.0
 16
1.0
 26
0.0
 36
0.0
 17
0.0
 27
1.0
 37
0.0
 76
1
330
5D6
331
5DA
  0
LAYOUT
  5
5DF
330
D
100
AcDbPlotSettings
  1

  2
DWG to PDF.pc3
  4
ezdxf_(210.00_x_297.00_MM)
  6

 40
0.0
 41
0.0
 42
0.0
 43
0.0
 44
210.0
 45
297.0
 46
0.0
 47
0.0
 48
0.0
 49
0.0
140
0.0
141
0.0
142
1.0
143
1.0
 70
0
 72
1
 73
0
 74
5
  7

 75
16
 76
0
 77
2
 78
300
147
1.0
148
0.0
149
0.0
100
AcDbLayout
  1
Plan 10-3
 70
1
 71
95
 10
-0.0
 20
-0.0
 11
210.0
 21
297.0
 12
0.0
 22
0.0
 32
0.0
 14
1e+20
 24
1e+20
 34
1e+20
 15
-1e+20
 25
-1e+20
 35
-1e+20
146
0.0
 13
0.0
 23
0.0
 33
0.0
 16
1.0
 26
0.0
 36
0.0
 17
0.0
 27
1.0
 37
0.0
 76
1
330
5DC
331
5E0
  0
LAYOUT
  5
5E5
330
D
100
AcDbPlotSettings
  1

  2
DWG to PDF.pc3
  4
ezdxf_(210.00_x_297.00_MM)
  6

 40
0.0
 41
0.0
 42
0.0
 43
0.0
 44
210.0
 45
297.0
 46
0.0
 47
0.0
 48
0.0
 49
0.0
140
0.0
141
0.0
142
1.0
143
1.0
 70
0
 72
1
 73
0
 74
5
  7

 75
16
 76
0
 77
2
 78
300
147
1.0
148
0.0
149
0.0
100
AcDbLayout
  1
Plan 10-4
 70
1
 71
96
 10
-0.0
 20
-0.0
 11
210.0
 21
297.0
 12
0.0
 22
0.0
 32
0.0
 14
1e+20
 24
1e+20
 34
1e+20
 15
-1e+20
 25
-1e+20
 35
-1e+20
146
0.0
 13
0.0
 23
0.0
 33
0.0
 16
1.0
 26
0.0
 36
0.0
 17
0.0
 27
1.0
 37
0.0
 76
1
330
5E2
331
5E6
  0
LAYOUT
  5
5EB
330
D
100
AcDbPlotSettings
  1

  2
DWG to PDF.pc3
  4
ezdxf_(210.00_x_297.00_MM)
  6

 40
0.0
 41
0.0
 42
0.0
 43
0.0
 44
210.0
 45
297.0
 46
0.0
 47
0.0
 48
0.0
 49
0.0
140
0.0
141
0.0
142
1.0
143
1.0
 70
0
 72
1
 73
0
 74
5
  7

 75
16
 76
0
 77
2
 78
300
147
1.0
148
0.0
149
0.0
100
AcDbLayout
  1
Plan 10-5
 70
1
 71
97
 10
-0.0
 20
-0.0
 11
210.0
 21
297.0
 12
0.0
 22
0.0
 32
0.0
 14
1e+20
 24
1e+20
 34
1e+20
 15
-1e+20
 25
-1e+20
 35
-1e+20
146
0.0
 13
0.0
 23
0.0
 33
0.0
 16
1.0
 26
0.0
 36
0.0
 17
0.0
 27
1.0
 37
0.0
 76
1
330
5E8
331
5EC
  0
LAYOUT
  5
5F1
330
D
100
AcDbPlotSettings
  1

  2
DWG to PDF.pc3
  4
ezdxf_(210.00_x_297.00_MM)
  6

 40
0.0
 41
0.0
 42
0.0
 43
0.0
 44
210.0
 45
297.0
 46
0.0
 47
0.0
 48
0.0
 49
0.0
140
0.0
141
0.0
142
1.0
143
1.0
 70
0
 72
1
 73
0
 74
5
  7

 75
16
 76
0
 77
2
 78
300
147
1.0
148
0.0
149
0.0
100
AcDbLayout
  1
Plan 10-6
 70
1
 71
98
 10
-0.0
 20
-0.0
 11
210.0
 21
297.0
 12
0.0
 22
0.0
 32
0.0
 14
1e+20
 24
1e+20
 34
1e+20
 15
-1e+20
 25
-1e+20
 35
-1e+20
146
0.0
 13
0.0
 23
0.0
 33
0.0
 16
1.0
 26
0.0
 36
0.0
 17
0.0
 27
1.0
 37
0.0
 76
1
330
5EE
331
5F2
  0
LAYOUT
  5
5F7
330
D
100
AcDbPlotSettings
  1

  2
DWG to PDF.pc3
  4
ezdxf_(210.00_x_297.00_MM)
  6

 40
0.0
 41
0.0
 42
0.0
 43
0.0
 44
210.0
 45
297.0
 46
0.0
 47
0.0
 48
0.0
 49
0.0
140
0.0
141
0.0
142
1.0
143
1.0
 70
0
 72
1
 73
0
 74
5
  7

 75
16
 76
0
 77
2
 78
300
147
1.0
148
0.0
149
0.0
100
AcDbLayout
  1
Plan 10-7
 70
1
 71
99
 10
-0.0
 20
-0.0
 11
210.0
 21
297.0
 12
0.0
 22
0.0
 32
0.0
 14
1e+20
 24
1e+20
 34
1e+20
 15
-1e+20
 25
-1e+20
 35
-1e+20
146
0.0
 13
0.0
 23
0.0
 33
0.0
 16
1.0
 26
0.0
 36
0.0
 17
0.0
 27
1.0
 37
0.0
 76
1
330
5F4
331
5F8
  0
LAYOUT
  5
5FD
330
D
100
AcDbPlotSettings
  1

  2
DWG to PDF.pc3
  4
ezdxf_(210.00_x_297.00_MM)
  6

 40
0.0
 41
0.0
 42
0.0
 43
0.0
 44
210.0
 45
297.0
 46
0.0
 47
0.0
 48
0.0
 49
0.0
140
0.0
141
0.0
142
1.0
143
1.0
 70
0
 72
1
 73
0
 74
5
  7

 75
16
 76
0
 77
2
 78
300
147
1.0
148
0.0
149
0.0
100
AcDbLayout
  1
Plan 10-8
 70
1
 71
100
 10
-0.0
 20
-0.0
 11
210.0
 21
297.0
 12
0.0
 22
0.0
 32
0.0
 14
1e+20
 24
1e+20
 34
1e+20
 15
-1e+20
 25
-1e+20
 35
-1e+20
146
0.0
 13
0.0
 23
0.0
 33
0.0
 16
1.0
 26
0.0
 36
0.0
 17
0.0
 27
1.0
 37
0.0
 76
1
330
5FA
331
5FE
  0
LAYOUT
  5
603
330
D
100
AcDbPlotSettings
  1

  2
DWG to PDF.pc3
  4
ezdxf_(210.00_x_297.00_MM)
  6

 40
0.0
 41
0.0
 42
0.0
 43
0.0
 44
210.0
 45
297.0
 46
0.0
 47
0.0
 48
0.0
 49
0.0
140
0.0
141
0.0
142
1.0
143
1.0
 70
0
 72
1
 73
0
 74
5
  7

 75
16
 76
0
 77
2
 78
300
147
1.0
148
0.0
149
0.0
100
AcDbLayout
  1
Plan 10-9
 70
1
 71
101
 10
-0.0
 20
-0.0
 11
210.0
 21
297.0
 12
0.0
 22
0.0
 32
0.0
 14
1e+20
 24
1e+20
 34
1e+20
 15
-1e+20
 25
-1e+20
 35
-1e+20
146
0.0
 13
0.0
 23
0.0
 33
0.0
 16
1.0
 26
0.0
 36
0.0
 17
0.0
 27
1.0
 37
0.0
 76
1
330
600
331
604
  0
LAYOUT
  5
609
330
D
100
AcDbPlotSettings
  1

  2
DWG to PDF.pc3
  4
ezdxf_(210.00_x_297.00_MM)
  6

 40
0.0
 41
0.0
 42
0.0
 43
0.0
 44
210.0
 45
297.0
 46
0.0
 47
0.0
 48
0.0
 49
0.0
140
0.0
141
0.0
142
1.0
143
1.0
 70
0
 72
1
 73
0
 74
5
  7

 75
16
 76
0
 77
2
 78
300
147
1.0
148
0.0
149
0.0
100
AcDbLayout
  1
Plan 10-10
 70
1
 71
102
 10
-0.0
 20
-0.0
 11
210.0
 21
297.0
 12
0.0
 22
0.0
 32
0.0
 14
1e+20
 24
1e+20
 34
1e+20
 15
-1e+20
 25
-1e+20
 35
-1e+20
146
0.0
 13
0.0
 23
0.0
 33
0.0
 16
1.0
 26
0.0
 36
0.0
 17
0.0
 27
1.0
 37
0.0
 76
1
330
606
331
60A
  0
ENDSEC
  0
EOF
