0
SECTION
2
HEADER
9
$EXTMAX
10
    -670.000
20
   -3630.000
9
$EXTMIN
10
    7000.000
20
     120.000
0
ENDSEC
0
SECTION
2
ENTITIES
0
LINE
8
default
6
CONTINUOUS
10
     -620.0000
20
      135.0000
11
      620.0000
21
      135.0000
39
 0
62
  9
 0
LINE
8
default
6
CONTINUOUS
10
     -620.0000
20
      135.0000
11
     -620.0000
21
     -776.0000
39
 0
62
  9
 0
LINE
8
default
6
CONTINUOUS
10
      620.0000
20
     -776.0000
11
      620.0000
21
      135.0000
39
 0
62
  9
 0
LINE
8
default
6
CONTINUOUS
10
     -620.0000
20
     -776.0000
11
      620.0000
21
     -776.0000
39
 0
62
  9
 0
LINE
8
default
6
CONTINUOUS
10
        0.0000
20
       -0.0000
11
      548.1022
21
     -268.5125
39
 0
62
 53
 0
LINE
8
default
6
CONTINUOUS
10
       -0.0000
20
       -0.0000
11
     -548.1022
21
     -268.5125
39
 0
62
 53
 0
LINE
8
default
6
CONTINUOUS
10
       -0.0000
20
       -0.0000
11
        2.9335
21
       -1.2590
39
 0
62
  7
 0
LINE
8
default
6
CONTINUOUS
10
        0.0000
20
       -0.0000
11
       -2.9335
21
       -1.2590
39
 0
62
  7
 0
LINE
8
default
6
CONTINUOUS
10
        2.9335
20
       -1.2590
11
        5.8657
21
       -2.5210
39
 0
62
  7
 0
LINE
8
default
6
CONTINUOUS
10
       -2.9335
20
       -1.2590
11
       -5.8657
21
       -2.5210
39
 0
62
  7
 0
LINE
8
default
6
CONTINUOUS
10
        5.8657
20
       -2.5210
11
        8.7967
21
       -3.7860
39
 0
62
  7
 0
LINE
8
default
6
CONTINUOUS
10
       -5.8657
20
       -2.5210
11
       -8.7967
21
       -3.7860
39
 0
62
  7
 0
LINE
8
default
6
CONTINUOUS
10
        8.7967
20
       -3.7860
11
       11.7263
21
       -5.0540
39
 0
62
  7
 0
LINE
8
default
6
CONTINUOUS
10
       -8.7967
20
       -3.7860
11
      -11.7263
21
       -5.0540
39
 0
62
  7
 0
LINE
8
default
6
CONTINUOUS
10
       11.7263
20
       -5.0540
11
       14.6547
21
       -6.3250
39
 0
62
  7
 0
LINE
8
default
6
CONTINUOUS
10
      -11.7263
20
       -5.0540
11
      -14.6547
21
       -6.3250
39
 0
62
  7
 0
LINE
8
default
6
CONTINUOUS
10
       14.6547
20
       -6.3250
11
       17.5817
21
       -7.5990
39
 0
62
  7
 0
LINE
8
default
6
CONTINUOUS
10
      -14.6547
20
       -6.3250
11
      -17.5817
21
       -7.5990
39
 0
62
  7
 0
LINE
8
default
6
CONTINUOUS
10
       17.5817
20
       -7.5990
11
       20.5074
21
       -8.8760
39
 0
62
  7
 0
LINE
8
default
6
CONTINUOUS
10
      -17.5817
20
       -7.5990
11
      -20.5074
21
       -8.8760
39
 0
62
  7
 0
LINE
8
default
6
CONTINUOUS
10
       20.5074
20
       -8.8760
11
       23.4319
21
      -10.1559
39
 0
62
  7
 0
LINE
8
default
6
CONTINUOUS
10
      -20.5074
20
       -8.8760
11
      -23.4319
21
      -10.1559
39
 0
62
  7
 0
LINE
8
default
6
CONTINUOUS
10
       23.4319
20
      -10.1559
11
       26.3550
21
      -11.4389
39
 0
62
  7
 0
LINE
8
default
6
CONTINUOUS
10
      -23.4319
20
      -10.1559
11
      -26.3550
21
      -11.4389
39
 0
62
  7
 0
LINE
8
default
6
CONTINUOUS
10
       26.3550
20
      -11.4389
11
       29.2768
21
      -12.7249
39
 0
62
  7
 0
LINE
8
default
6
CONTINUOUS
10
      -26.3550
20
      -11.4389
11
      -29.2768
21
      -12.7249
39
 0
62
  7
 0
LINE
8
default
6
CONTINUOUS
10
       29.2768
20
      -12.7249
11
       32.1973
21
      -14.0138
39
 0
62
  7
 0
LINE
8
default
6
CONTINUOUS
10
      -29.2768
20
      -12.7249
11
      -32.1973
21
      -14.0138
39
 0
62
  7
 0
LINE
8
default
6
CONTINUOUS
10
       32.1973
20
      -14.0138
11
       35.1164
21
      -15.3057
39
 0
62
  7
 0
LINE
8
default
6
CONTINUOUS
10
      -32.1973
20
      -14.0138
11
      -35.1164
21
      -15.3057
39
 0
62
  7
 0
LINE
8
default
6
CONTINUOUS
10
       35.1164
20
      -15.3057
11
       38.0343
21
      -16.6007
39
 0
62
  7
 0
LINE
8
default
6
CONTINUOUS
10
      -35.1164
20
      -15.3057
11
      -38.0343
21
      -16.6007
39
 0
62
  7
 0
LINE
8
default
6
CONTINUOUS
10
       38.0343
20
      -16.6007
11
       40.9508
21
      -17.8986
39
 0
62
  7
 0
LINE
8
default
6
CONTINUOUS
10
      -38.0343
20
      -16.6007
11
      -40.9508
21
      -17.8986
39
 0
62
  7
 0
LINE
8
default
6
CONTINUOUS
10
       40.9508
20
      -17.8986
11
       43.8660
21
      -19.1995
39
 0
62
  7
 0
LINE
8
default
6
CONTINUOUS
10
      -40.9508
20
      -17.8986
11
      -43.8660
21
      -19.1995
39
 0
62
  7
 0
LINE
8
default
6
CONTINUOUS
10
       43.8660
20
      -19.1995
11
       46.7798
21
      -20.5033
39
 0
62
  7
 0
LINE
8
default
6
CONTINUOUS
10
      -43.8660
20
      -19.1995
11
      -46.7798
21
      -20.5033
39
 0
62
  7
 0
LINE
8
default
6
CONTINUOUS
10
       46.7798
20
      -20.5033
11
       49.6923
21
      -21.8102
39
 0
62
  7
 0
LINE
8
default
6
CONTINUOUS
10
      -46.7798
20
      -20.5033
11
      -49.6923
21
      -21.8102
39
 0
62
  7
 0
LINE
8
default
6
CONTINUOUS
10
       49.6923
20
      -21.8102
11
       52.6035
21
      -23.1200
39
 0
62
  7
 0
LINE
8
default
6
CONTINUOUS
10
      -49.6923
20
      -21.8102
11
      -52.6035
21
      -23.1200
39
 0
62
  7
 0
LINE
8
default
6
CONTINUOUS
10
       52.6035
20
      -23.1200
11
       55.5134
21
      -24.4328
39
 0
62
  7
 0
LINE
8
default
6
CONTINUOUS
10
      -52.6035
20
      -23.1200
11
      -55.5134
21
      -24.4328
39
 0
62
  7
 0
LINE
8
default
6
CONTINUOUS
10
       55.5134
20
      -24.4328
11
       58.4218
21
      -25.7486
39
 0
62
  7
 0
LINE
8
default
6
CONTINUOUS
10
      -55.5134
20
      -24.4328
11
      -58.4218
21
      -25.7486
39
 0
62
  7
 0
LINE
8
default
6
CONTINUOUS
10
       58.4218
20
      -25.7486
11
       61.3290
21
      -27.0673
39
 0
62
  7
 0
LINE
8
default
6
CONTINUOUS
10
      -58.4218
20
      -25.7486
11
      -61.3290
21
      -27.0673
39
 0
62
  7
 0
LINE
8
default
6
CONTINUOUS
10
       61.3290
20
      -27.0673
11
       64.2348
21
      -28.3890
39
 0
62
  7
 0
LINE
8
default
6
CONTINUOUS
10
      -61.3290
20
      -27.0673
11
      -64.2348
21
      -28.3890
39
 0
62
  7
 0
LINE
8
default
6
CONTINUOUS
10
       64.2348
20
      -28.3890
11
       67.1392
21
      -29.7137
39
 0
62
  7
 0
LINE
8
default
6
CONTINUOUS
10
      -64.2348
20
      -28.3890
11
      -67.1392
21
      -29.7137
39
 0
62
  7
 0
LINE
8
default
6
CONTINUOUS
10
       67.1392
20
      -29.7137
11
       70.0423
21
      -31.0414
39
 0
62
  7
 0
LINE
8
default
6
CONTINUOUS
10
      -67.1392
20
      -29.7137
11
      -70.0423
21
      -31.0414
39
 0
62
  7
 0
LINE
8
default
6
CONTINUOUS
10
       70.0423
20
      -31.0414
11
       72.9440
21
      -32.3721
39
 0
62
  7
 0
LINE
8
default
6
CONTINUOUS
10
      -70.0423
20
      -31.0414
11
      -72.9440
21
      -32.3721
39
 0
62
  7
 0
LINE
8
default
6
CONTINUOUS
10
       72.9440
20
      -32.3721
11
       75.8444
21
      -33.7057
39
 0
62
  7
 0
LINE
8
default
6
CONTINUOUS
10
      -72.9440
20
      -32.3721
11
      -75.8444
21
      -33.7057
39
 0
62
  7
 0
LINE
8
default
6
CONTINUOUS
10
       75.8444
20
      -33.7057
11
       78.7434
21
      -35.0422
39
 0
62
  7
 0
LINE
8
default
6
CONTINUOUS
10
      -75.8444
20
      -33.7057
11
      -78.7434
21
      -35.0422
39
 0
62
  7
 0
LINE
8
default
6
CONTINUOUS
10
       78.7434
20
      -35.0422
11
       81.6410
21
      -36.3818
39
 0
62
  7
 0
LINE
8
default
6
CONTINUOUS
10
      -78.7434
20
      -35.0422
11
      -81.6410
21
      -36.3818
39
 0
62
  7
 0
LINE
8
default
6
CONTINUOUS
10
       81.6410
20
      -36.3818
11
       84.5373
21
      -37.7243
39
 0
62
  7
 0
LINE
8
default
6
CONTINUOUS
10
      -81.6410
20
      -36.3818
11
      -84.5373
21
      -37.7243
39
 0
62
  7
 0
LINE
8
default
6
CONTINUOUS
10
       84.5373
20
      -37.7243
11
       87.4322
21
      -39.0697
39
 0
62
  7
 0
LINE
8
default
6
CONTINUOUS
10
      -84.5373
20
      -37.7243
11
      -87.4322
21
      -39.0697
39
 0
62
  7
 0
LINE
8
default
6
CONTINUOUS
10
       87.4322
20
      -39.0697
11
       90.3257
21
      -40.4182
39
 0
62
  7
 0
LINE
8
default
6
CONTINUOUS
10
      -87.4322
20
      -39.0697
11
      -90.3257
21
      -40.4182
39
 0
62
  7
 0
LINE
8
default
6
CONTINUOUS
10
       90.3257
20
      -40.4182
11
       93.2178
21
      -41.7695
39
 0
62
  7
 0
LINE
8
default
6
CONTINUOUS
10
      -90.3257
20
      -40.4182
11
      -93.2178
21
      -41.7695
39
 0
62
  7
 0
LINE
8
default
6
CONTINUOUS
10
       93.2178
20
      -41.7695
11
       96.1085
21
      -43.1239
39
 0
62
  7
 0
LINE
8
default
6
CONTINUOUS
10
      -93.2178
20
      -41.7695
11
      -96.1085
21
      -43.1239
39
 0
62
  7
 0
LINE
8
default
6
CONTINUOUS
10
       96.1085
20
      -43.1239
11
       98.9979
21
      -44.4812
39
 0
62
  7
 0
LINE
8
default
6
CONTINUOUS
10
      -96.1085
20
      -43.1239
11
      -98.9979
21
      -44.4812
39
 0
62
  7
 0
LINE
8
default
6
CONTINUOUS
10
       98.9979
20
      -44.4812
11
      101.8858
21
      -45.8414
39
 0
62
  7
 0
LINE
8
default
6
CONTINUOUS
10
      -98.9979
20
      -44.4812
11
     -101.8858
21
      -45.8414
39
 0
62
  7
 0
LINE
8
default
6
CONTINUOUS
10
      101.8858
20
      -45.8414
11
      104.7724
21
      -47.2046
39
 0
62
  7
 0
LINE
8
default
6
CONTINUOUS
10
     -101.8858
20
      -45.8414
11
     -104.7724
21
      -47.2046
39
 0
62
  7
 0
LINE
8
default
6
CONTINUOUS
10
      104.7724
20
      -47.2046
11
      107.6576
21
      -48.5708
39
 0
62
  7
 0
LINE
8
default
6
CONTINUOUS
10
     -104.7724
20
      -47.2046
11
     -107.6576
21
      -48.5708
39
 0
62
  7
 0
LINE
8
default
6
CONTINUOUS
10
      107.6576
20
      -48.5708
11
      110.5414
21
      -49.9399
39
 0
62
  7
 0
LINE
8
default
6
CONTINUOUS
10
     -107.6576
20
      -48.5708
11
     -110.5414
21
      -49.9399
39
 0
62
  7
 0
LINE
8
default
6
CONTINUOUS
10
      110.5414
20
      -49.9399
11
      113.4237
21
      -51.3120
39
 0
62
  7
 0
LINE
8
default
6
CONTINUOUS
10
     -110.5414
20
      -49.9399
11
     -113.4237
21
      -51.3120
39
 0
62
  7
 0
LINE
8
default
6
CONTINUOUS
10
      113.4237
20
      -51.3120
11
      116.3047
21
      -52.6870
39
 0
62
  7
 0
LINE
8
default
6
CONTINUOUS
10
     -113.4237
20
      -51.3120
11
     -116.3047
21
      -52.6870
39
 0
62
  7
 0
LINE
8
default
6
CONTINUOUS
10
      116.3047
20
      -52.6870
11
      119.1842
21
      -54.0649
39
 0
62
  7
 0
LINE
8
default
6
CONTINUOUS
10
     -116.3047
20
      -52.6870
11
     -119.1842
21
      -54.0649
39
 0
62
  7
 0
LINE
8
default
6
CONTINUOUS
10
      119.1842
20
      -54.0649
11
      122.0624
21
      -55.4458
39
 0
62
  7
 0
LINE
8
default
6
CONTINUOUS
10
     -119.1842
20
      -54.0649
11
     -122.0624
21
      -55.4458
39
 0
62
  7
 0
LINE
8
default
6
CONTINUOUS
10
      122.0624
20
      -55.4458
11
      124.9391
21
      -56.8297
39
 0
62
  7
 0
LINE
8
default
6
CONTINUOUS
10
     -122.0624
20
      -55.4458
11
     -124.9391
21
      -56.8297
39
 0
62
  7
 0
LINE
8
default
6
CONTINUOUS
10
      124.9391
20
      -56.8297
11
      127.8144
21
      -58.2164
39
 0
62
  7
 0
LINE
8
default
6
CONTINUOUS
10
     -124.9391
20
      -56.8297
11
     -127.8144
21
      -58.2164
39
 0
62
  7
 0
LINE
8
default
6
CONTINUOUS
10
      127.8144
20
      -58.2164
11
      130.6883
21
      -59.6062
39
 0
62
  7
 0
LINE
8
default
6
CONTINUOUS
10
     -127.8144
20
      -58.2164
11
     -130.6883
21
      -59.6062
39
 0
62
  7
 0
LINE
8
default
6
CONTINUOUS
10
      130.6883
20
      -59.6062
11
      133.5608
21
      -60.9988
39
 0
62
  7
 0
LINE
8
default
6
CONTINUOUS
10
     -130.6883
20
      -59.6062
11
     -133.5608
21
      -60.9988
39
 0
62
  7
 0
LINE
8
default
6
CONTINUOUS
10
      133.5608
20
      -60.9988
11
      136.4319
21
      -62.3944
39
 0
62
  7
 0
LINE
8
default
6
CONTINUOUS
10
     -133.5608
20
      -60.9988
11
     -136.4319
21
      -62.3944
39
 0
62
  7
 0
LINE
8
default
6
CONTINUOUS
10
      136.4319
20
      -62.3944
11
      139.3015
21
      -63.7930
39
 0
62
  7
 0
LINE
8
default
6
CONTINUOUS
10
     -136.4319
20
      -62.3944
11
     -139.3015
21
      -63.7930
39
 0
62
  7
 0
LINE
8
default
6
CONTINUOUS
10
      139.3015
20
      -63.7930
11
      142.1697
21
      -65.1944
39
 0
62
  7
 0
LINE
8
default
6
CONTINUOUS
10
     -139.3015
20
      -63.7930
11
     -142.1697
21
      -65.1944
39
 0
62
  7
 0
LINE
8
default
6
CONTINUOUS
10
      142.1697
20
      -65.1944
11
      145.0364
21
      -66.5989
39
 0
62
  7
 0
LINE
8
default
6
CONTINUOUS
10
     -142.1697
20
      -65.1944
11
     -145.0364
21
      -66.5989
39
 0
62
  7
 0
LINE
8
default
6
CONTINUOUS
10
      145.0364
20
      -66.5989
11
      147.9017
21
      -68.0062
39
 0
62
  7
 0
LINE
8
default
6
CONTINUOUS
10
     -145.0364
20
      -66.5989
11
     -147.9017
21
      -68.0062
39
 0
62
  7
 0
LINE
8
default
6
CONTINUOUS
10
      147.9017
20
      -68.0062
11
      150.7656
21
      -69.4165
39
 0
62
  7
 0
LINE
8
default
6
CONTINUOUS
10
     -147.9017
20
      -68.0062
11
     -150.7656
21
      -69.4165
39
 0
62
  7
 0
LINE
8
default
6
CONTINUOUS
10
      150.7656
20
      -69.4165
11
      153.6280
21
      -70.8297
39
 0
62
  7
 0
LINE
8
default
6
CONTINUOUS
10
     -150.7656
20
      -69.4165
11
     -153.6280
21
      -70.8297
39
 0
62
  7
 0
LINE
8
default
6
CONTINUOUS
10
      153.6280
20
      -70.8297
11
      156.4890
21
      -72.2458
39
 0
62
  7
 0
LINE
8
default
6
CONTINUOUS
10
     -153.6280
20
      -70.8297
11
     -156.4890
21
      -72.2458
39
 0
62
  7
 0
LINE
8
default
6
CONTINUOUS
10
      156.4890
20
      -72.2458
11
      159.3485
21
      -73.6648
39
 0
62
  7
 0
LINE
8
default
6
CONTINUOUS
10
     -156.4890
20
      -72.2458
11
     -159.3485
21
      -73.6648
39
 0
62
  7
 0
LINE
8
default
6
CONTINUOUS
10
      159.3485
20
      -73.6648
11
      162.2066
21
      -75.0868
39
 0
62
  7
 0
LINE
8
default
6
CONTINUOUS
10
     -159.3485
20
      -73.6648
11
     -162.2066
21
      -75.0868
39
 0
62
  7
 0
LINE
8
default
6
CONTINUOUS
10
      162.2066
20
      -75.0868
11
      165.0632
21
      -76.5117
39
 0
62
  7
 0
LINE
8
default
6
CONTINUOUS
10
     -162.2066
20
      -75.0868
11
     -165.0632
21
      -76.5117
39
 0
62
  7
 0
LINE
8
default
6
CONTINUOUS
10
      165.0632
20
      -76.5117
11
      167.9184
21
      -77.9395
39
 0
62
  7
 0
LINE
8
default
6
CONTINUOUS
10
     -165.0632
20
      -76.5117
11
     -167.9184
21
      -77.9395
39
 0
62
  7
 0
LINE
8
default
6
CONTINUOUS
10
      167.9184
20
      -77.9395
11
      170.7721
21
      -79.3703
39
 0
62
  7
 0
LINE
8
default
6
CONTINUOUS
10
     -167.9184
20
      -77.9395
11
     -170.7721
21
      -79.3703
39
 0
62
  7
 0
LINE
8
default
6
CONTINUOUS
10
      170.7721
20
      -79.3703
11
      173.6243
21
      -80.8039
39
 0
62
  7
 0
LINE
8
default
6
CONTINUOUS
10
     -170.7721
20
      -79.3703
11
     -173.6243
21
      -80.8039
39
 0
62
  7
 0
LINE
8
default
6
CONTINUOUS
10
      173.6243
20
      -80.8039
11
      176.4751
21
      -82.2405
39
 0
62
  7
 0
LINE
8
default
6
CONTINUOUS
10
     -173.6243
20
      -80.8039
11
     -176.4751
21
      -82.2405
39
 0
62
  7
 0
LINE
8
default
6
CONTINUOUS
10
      176.4751
20
      -82.2405
11
      179.3244
21
      -83.6800
39
 0
62
  7
 0
LINE
8
default
6
CONTINUOUS
10
     -176.4751
20
      -82.2405
11
     -179.3244
21
      -83.6800
39
 0
62
  7
 0
LINE
8
default
6
CONTINUOUS
10
      179.3244
20
      -83.6800
11
      182.1722
21
      -85.1224
39
 0
62
  7
 0
LINE
8
default
6
CONTINUOUS
10
     -179.3244
20
      -83.6800
11
     -182.1722
21
      -85.1224
39
 0
62
  7
 0
LINE
8
default
6
CONTINUOUS
10
      182.1722
20
      -85.1224
11
      185.0185
21
      -86.5677
39
 0
62
  7
 0
LINE
8
default
6
CONTINUOUS
10
     -182.1722
20
      -85.1224
11
     -185.0185
21
      -86.5677
39
 0
62
  7
 0
LINE
8
default
6
CONTINUOUS
10
      185.0185
20
      -86.5677
11
      187.8634
21
      -88.0159
39
 0
62
  7
 0
LINE
8
default
6
CONTINUOUS
10
     -185.0185
20
      -86.5677
11
     -187.8634
21
      -88.0159
39
 0
62
  7
 0
LINE
8
default
6
CONTINUOUS
10
      187.8634
20
      -88.0159
11
      190.7068
21
      -89.4671
39
 0
62
  7
 0
LINE
8
default
6
CONTINUOUS
10
     -187.8634
20
      -88.0159
11
     -190.7068
21
      -89.4671
39
 0
62
  7
 0
LINE
8
default
6
CONTINUOUS
10
      190.7068
20
      -89.4671
11
      193.5487
21
      -90.9211
39
 0
62
  7
 0
LINE
8
default
6
CONTINUOUS
10
     -190.7068
20
      -89.4671
11
     -193.5487
21
      -90.9211
39
 0
62
  7
 0
LINE
8
default
6
CONTINUOUS
10
      193.5487
20
      -90.9211
11
      196.3891
21
      -92.3781
39
 0
62
  7
 0
LINE
8
default
6
CONTINUOUS
10
     -193.5487
20
      -90.9211
11
     -196.3891
21
      -92.3781
39
 0
62
  7
 0
LINE
8
default
6
CONTINUOUS
10
      196.3891
20
      -92.3781
11
      199.2280
21
      -93.8379
39
 0
62
  7
 0
LINE
8
default
6
CONTINUOUS
10
     -196.3891
20
      -92.3781
11
     -199.2280
21
      -93.8379
39
 0
62
  7
 0
LINE
8
default
6
CONTINUOUS
10
      199.2280
20
      -93.8379
11
      202.0654
21
      -95.3007
39
 0
62
  7
 0
LINE
8
default
6
CONTINUOUS
10
     -199.2280
20
      -93.8379
11
     -202.0654
21
      -95.3007
39
 0
62
  7
 0
LINE
8
default
6
CONTINUOUS
10
      202.0654
20
      -95.3007
11
      204.9013
21
      -96.7664
39
 0
62
  7
 0
LINE
8
default
6
CONTINUOUS
10
     -202.0654
20
      -95.3007
11
     -204.9013
21
      -96.7664
39
 0
62
  7
 0
LINE
8
default
6
CONTINUOUS
10
      204.9013
20
      -96.7664
11
      207.7357
21
      -98.2349
39
 0
62
  7
 0
LINE
8
default
6
CONTINUOUS
10
     -204.9013
20
      -96.7664
11
     -207.7357
21
      -98.2349
39
 0
62
  7
 0
LINE
8
default
6
CONTINUOUS
10
      207.7357
20
      -98.2349
11
      210.5686
21
      -99.7064
39
 0
62
  7
 0
LINE
8
default
6
CONTINUOUS
10
     -207.7357
20
      -98.2349
11
     -210.5686
21
      -99.7064
39
 0
62
  7
 0
LINE
8
default
6
CONTINUOUS
10
      210.5686
20
      -99.7064
11
      213.4001
21
     -101.1807
39
 0
62
  7
 0
LINE
8
default
6
CONTINUOUS
10
     -210.5686
20
      -99.7064
11
     -213.4001
21
     -101.1807
39
 0
62
  7
 0
LINE
8
default
6
CONTINUOUS
10
      213.4001
20
     -101.1807
11
      216.2300
21
     -102.6580
39
 0
62
  7
 0
LINE
8
default
6
CONTINUOUS
10
     -213.4001
20
     -101.1807
11
     -216.2300
21
     -102.6580
39
 0
62
  7
 0
LINE
8
default
6
CONTINUOUS
10
      216.2300
20
     -102.6580
11
      219.0583
21
     -104.1382
39
 0
62
  7
 0
LINE
8
default
6
CONTINUOUS
10
     -216.2300
20
     -102.6580
11
     -219.0583
21
     -104.1382
39
 0
62
  7
 0
LINE
8
default
6
CONTINUOUS
10
      219.0583
20
     -104.1382
11
      221.8852
21
     -105.6212
39
 0
62
  7
 0
LINE
8
default
6
CONTINUOUS
10
     -219.0583
20
     -104.1382
11
     -221.8852
21
     -105.6212
39
 0
62
  7
 0
LINE
8
default
6
CONTINUOUS
10
      221.8852
20
     -105.6212
11
      224.7106
21
     -107.1071
39
 0
62
  7
 0
LINE
8
default
6
CONTINUOUS
10
     -221.8852
20
     -105.6212
11
     -224.7106
21
     -107.1071
39
 0
62
  7
 0
LINE
8
default
6
CONTINUOUS
10
      224.7106
20
     -107.1071
11
      227.5344
21
     -108.5959
39
 0
62
  7
 0
LINE
8
default
6
CONTINUOUS
10
     -224.7106
20
     -107.1071
11
     -227.5344
21
     -108.5959
39
 0
62
  7
 0
LINE
8
default
6
CONTINUOUS
10
      227.5344
20
     -108.5959
11
      230.3567
21
     -110.0877
39
 0
62
  7
 0
LINE
8
default
6
CONTINUOUS
10
     -227.5344
20
     -108.5959
11
     -230.3567
21
     -110.0877
39
 0
62
  7
 0
LINE
8
default
6
CONTINUOUS
10
      230.3567
20
     -110.0877
11
      233.1775
21
     -111.5823
39
 0
62
  7
 0
LINE
8
default
6
CONTINUOUS
10
     -230.3567
20
     -110.0877
11
     -233.1775
21
     -111.5823
39
 0
62
  7
 0
LINE
8
default
6
CONTINUOUS
10
      233.1775
20
     -111.5823
11
      235.9967
21
     -113.0797
39
 0
62
  7
 0
LINE
8
default
6
CONTINUOUS
10
     -233.1775
20
     -111.5823
11
     -235.9967
21
     -113.0797
39
 0
62
  7
 0
LINE
8
default
6
CONTINUOUS
10
      235.9967
20
     -113.0797
11
      238.8144
21
     -114.5801
39
 0
62
  7
 0
LINE
8
default
6
CONTINUOUS
10
     -235.9967
20
     -113.0797
11
     -238.8144
21
     -114.5801
39
 0
62
  7
 0
LINE
8
default
6
CONTINUOUS
10
      238.8144
20
     -114.5801
11
      241.6306
21
     -116.0834
39
 0
62
  7
 0
LINE
8
default
6
CONTINUOUS
10
     -238.8144
20
     -114.5801
11
     -241.6306
21
     -116.0834
39
 0
62
  7
 0
LINE
8
default
6
CONTINUOUS
10
      241.6306
20
     -116.0834
11
      244.4452
21
     -117.5895
39
 0
62
  7
 0
LINE
8
default
6
CONTINUOUS
10
     -241.6306
20
     -116.0834
11
     -244.4452
21
     -117.5895
39
 0
62
  7
 0
LINE
8
default
6
CONTINUOUS
10
      244.4452
20
     -117.5895
11
      247.2583
21
     -119.0985
39
 0
62
  7
 0
LINE
8
default
6
CONTINUOUS
10
     -244.4452
20
     -117.5895
11
     -247.2583
21
     -119.0985
39
 0
62
  7
 0
LINE
8
default
6
CONTINUOUS
10
      247.2583
20
     -119.0985
11
      250.0699
21
     -120.6104
39
 0
62
  7
 0
LINE
8
default
6
CONTINUOUS
10
     -247.2583
20
     -119.0985
11
     -250.0699
21
     -120.6104
39
 0
62
  7
 0
LINE
8
default
6
CONTINUOUS
10
      250.0699
20
     -120.6104
11
      252.8799
21
     -122.1251
39
 0
62
  7
 0
LINE
8
default
6
CONTINUOUS
10
     -250.0699
20
     -120.6104
11
     -252.8799
21
     -122.1251
39
 0
62
  7
 0
LINE
8
default
6
CONTINUOUS
10
      252.8799
20
     -122.1251
11
      255.6883
21
     -123.6428
39
 0
62
  7
 0
LINE
8
default
6
CONTINUOUS
10
     -252.8799
20
     -122.1251
11
     -255.6883
21
     -123.6428
39
 0
62
  7
 0
LINE
8
default
6
CONTINUOUS
10
      255.6883
20
     -123.6428
11
      258.4952
21
     -125.1633
39
 0
62
  7
 0
LINE
8
default
6
CONTINUOUS
10
     -255.6883
20
     -123.6428
11
     -258.4952
21
     -125.1633
39
 0
62
  7
 0
LINE
8
default
6
CONTINUOUS
10
      258.4952
20
     -125.1633
11
      261.3006
21
     -126.6866
39
 0
62
  7
 0
LINE
8
default
6
CONTINUOUS
10
     -258.4952
20
     -125.1633
11
     -261.3006
21
     -126.6866
39
 0
62
  7
 0
LINE
8
default
6
CONTINUOUS
10
      261.3006
20
     -126.6866
11
      264.1044
21
     -128.2129
39
 0
62
  7
 0
LINE
8
default
6
CONTINUOUS
10
     -261.3006
20
     -126.6866
11
     -264.1044
21
     -128.2129
39
 0
62
  7
 0
LINE
8
default
6
CONTINUOUS
10
      264.1044
20
     -128.2129
11
      266.9066
21
     -129.7420
39
 0
62
  7
 0
LINE
8
default
6
CONTINUOUS
10
     -264.1044
20
     -128.2129
11
     -266.9066
21
     -129.7420
39
 0
62
  7
 0
LINE
8
default
6
CONTINUOUS
10
      266.9066
20
     -129.7420
11
      269.7072
21
     -131.2740
39
 0
62
  7
 0
LINE
8
default
6
CONTINUOUS
10
     -266.9066
20
     -129.7420
11
     -269.7072
21
     -131.2740
39
 0
62
  7
 0
LINE
8
default
6
CONTINUOUS
10
      269.7072
20
     -131.2740
11
      272.5063
21
     -132.8088
39
 0
62
  7
 0
LINE
8
default
6
CONTINUOUS
10
     -269.7072
20
     -131.2740
11
     -272.5063
21
     -132.8088
39
 0
62
  7
 0
LINE
8
default
6
CONTINUOUS
10
      272.5063
20
     -132.8088
11
      275.3038
21
     -134.3465
39
 0
62
  7
 0
LINE
8
default
6
CONTINUOUS
10
     -272.5063
20
     -132.8088
11
     -275.3038
21
     -134.3465
39
 0
62
  7
 0
LINE
8
default
6
CONTINUOUS
10
      275.3038
20
     -134.3465
11
      278.0998
21
     -135.8871
39
 0
62
  7
 0
LINE
8
default
6
CONTINUOUS
10
     -275.3038
20
     -134.3465
11
     -278.0998
21
     -135.8871
39
 0
62
  7
 0
LINE
8
default
6
CONTINUOUS
10
      278.0998
20
     -135.8871
11
      280.8941
21
     -137.4305
39
 0
62
  7
 0
LINE
8
default
6
CONTINUOUS
10
     -278.0998
20
     -135.8871
11
     -280.8941
21
     -137.4305
39
 0
62
  7
 0
LINE
8
default
6
CONTINUOUS
10
      280.8941
20
     -137.4305
11
      283.6869
21
     -138.9768
39
 0
62
  7
 0
LINE
8
default
6
CONTINUOUS
10
     -280.8941
20
     -137.4305
11
     -283.6869
21
     -138.9768
39
 0
62
  7
 0
LINE
8
default
6
CONTINUOUS
10
      283.6869
20
     -138.9768
11
      286.2875
21
     -140.4198
39
 0
62
  7
 0
LINE
8
default
6
CONTINUOUS
10
     -283.6869
20
     -138.9768
11
     -286.2875
21
     -140.4198
39
 0
62
  7
 0
LINE
8
default
6
CONTINUOUS
10
      286.2875
20
     -140.4198
11
      288.8869
21
     -141.8650
39
 0
62
  7
 0
LINE
8
default
6
CONTINUOUS
10
     -286.2875
20
     -140.4198
11
     -288.8869
21
     -141.8650
39
 0
62
  7
 0
LINE
8
default
6
CONTINUOUS
10
      288.8869
20
     -141.8650
11
      291.4852
21
     -143.3124
39
 0
62
  7
 0
LINE
8
default
6
CONTINUOUS
10
     -288.8869
20
     -141.8650
11
     -291.4852
21
     -143.3124
39
 0
62
  7
 0
LINE
8
default
6
CONTINUOUS
10
      291.4852
20
     -143.3124
11
      294.0822
21
     -144.7619
39
 0
62
  7
 0
LINE
8
default
6
CONTINUOUS
10
     -291.4852
20
     -143.3124
11
     -294.0822
21
     -144.7619
39
 0
62
  7
 0
LINE
8
default
6
CONTINUOUS
10
      294.0822
20
     -144.7619
11
      296.6780
21
     -146.2135
39
 0
62
  7
 0
LINE
8
default
6
CONTINUOUS
10
     -294.0822
20
     -144.7619
11
     -296.6780
21
     -146.2135
39
 0
62
  7
 0
LINE
8
default
6
CONTINUOUS
10
      296.6780
20
     -146.2135
11
      299.2726
21
     -147.6674
39
 0
62
  7
 0
LINE
8
default
6
CONTINUOUS
10
     -296.6780
20
     -146.2135
11
     -299.2726
21
     -147.6674
39
 0
62
  7
 0
LINE
8
default
6
CONTINUOUS
10
      299.2726
20
     -147.6674
11
      301.8661
21
     -149.1234
39
 0
62
  7
 0
LINE
8
default
6
CONTINUOUS
10
     -299.2726
20
     -147.6674
11
     -301.8661
21
     -149.1234
39
 0
62
  7
 0
LINE
8
default
6
CONTINUOUS
10
      301.8661
20
     -149.1234
11
      304.4583
21
     -150.5815
39
 0
62
  7
 0
LINE
8
default
6
CONTINUOUS
10
     -301.8661
20
     -149.1234
11
     -304.4583
21
     -150.5815
39
 0
62
  7
 0
LINE
8
default
6
CONTINUOUS
10
      304.4583
20
     -150.5815
11
      307.0493
21
     -152.0418
39
 0
62
  7
 0
LINE
8
default
6
CONTINUOUS
10
     -304.4583
20
     -150.5815
11
     -307.0493
21
     -152.0418
39
 0
62
  7
 0
LINE
8
default
6
CONTINUOUS
10
      307.0493
20
     -152.0418
11
      309.6392
21
     -153.5043
39
 0
62
  7
 0
LINE
8
default
6
CONTINUOUS
10
     -307.0493
20
     -152.0418
11
     -309.6392
21
     -153.5043
39
 0
62
  7
 0
LINE
8
default
6
CONTINUOUS
10
      309.6392
20
     -153.5043
11
      312.2278
21
     -154.9689
39
 0
62
  7
 0
LINE
8
default
6
CONTINUOUS
10
     -309.6392
20
     -153.5043
11
     -312.2278
21
     -154.9689
39
 0
62
  7
 0
LINE
8
default
6
CONTINUOUS
10
      312.2278
20
     -154.9689
11
      314.8152
21
     -156.4357
39
 0
62
  7
 0
LINE
8
default
6
CONTINUOUS
10
     -312.2278
20
     -154.9689
11
     -314.8152
21
     -156.4357
39
 0
62
  7
 0
LINE
8
default
6
CONTINUOUS
10
      314.8152
20
     -156.4357
11
      317.4015
21
     -157.9046
39
 0
62
  7
 0
LINE
8
default
6
CONTINUOUS
10
     -314.8152
20
     -156.4357
11
     -317.4015
21
     -157.9046
39
 0
62
  7
 0
LINE
8
default
6
CONTINUOUS
10
      317.4015
20
     -157.9046
11
      319.9866
21
     -159.3757
39
 0
62
  7
 0
LINE
8
default
6
CONTINUOUS
10
     -317.4015
20
     -157.9046
11
     -319.9866
21
     -159.3757
39
 0
62
  7
 0
LINE
8
default
6
CONTINUOUS
10
      319.9866
20
     -159.3757
11
      322.5704
21
     -160.8490
39
 0
62
  7
 0
LINE
8
default
6
CONTINUOUS
10
     -319.9866
20
     -159.3757
11
     -322.5704
21
     -160.8490
39
 0
62
  7
 0
LINE
8
default
6
CONTINUOUS
10
      322.5704
20
     -160.8490
11
      325.1531
21
     -162.3244
39
 0
62
  7
 0
LINE
8
default
6
CONTINUOUS
10
     -322.5704
20
     -160.8490
11
     -325.1531
21
     -162.3244
39
 0
62
  7
 0
LINE
8
default
6
CONTINUOUS
10
      325.1531
20
     -162.3244
11
      327.7345
21
     -163.8020
39
 0
62
  7
 0
LINE
8
default
6
CONTINUOUS
10
     -325.1531
20
     -162.3244
11
     -327.7345
21
     -163.8020
39
 0
62
  7
 0
LINE
8
default
6
CONTINUOUS
10
      327.7345
20
     -163.8020
11
      330.3148
21
     -165.2817
39
 0
62
  7
 0
LINE
8
default
6
CONTINUOUS
10
     -327.7345
20
     -163.8020
11
     -330.3148
21
     -165.2817
39
 0
62
  7
 0
LINE
8
default
6
CONTINUOUS
10
      330.3148
20
     -165.2817
11
      332.8939
21
     -166.7636
39
 0
62
  7
 0
LINE
8
default
6
CONTINUOUS
10
     -330.3148
20
     -165.2817
11
     -332.8939
21
     -166.7636
39
 0
62
  7
 0
LINE
8
default
6
CONTINUOUS
10
      332.8939
20
     -166.7636
11
      335.4717
21
     -168.2476
39
 0
62
  7
 0
LINE
8
default
6
CONTINUOUS
10
     -332.8939
20
     -166.7636
11
     -335.4717
21
     -168.2476
39
 0
62
  7
 0
LINE
8
default
6
CONTINUOUS
10
      335.4717
20
     -168.2476
11
      338.0484
21
     -169.7338
39
 0
62
  7
 0
LINE
8
default
6
CONTINUOUS
10
     -335.4717
20
     -168.2476
11
     -338.0484
21
     -169.7338
39
 0
62
  7
 0
LINE
8
default
6
CONTINUOUS
10
      338.0484
20
     -169.7338
11
      340.6239
21
     -171.2222
39
 0
62
  7
 0
LINE
8
default
6
CONTINUOUS
10
     -338.0484
20
     -169.7338
11
     -340.6239
21
     -171.2222
39
 0
62
  7
 0
LINE
8
default
6
CONTINUOUS
10
      340.6239
20
     -171.2222
11
      343.1982
21
     -172.7127
39
 0
62
  7
 0
LINE
8
default
6
CONTINUOUS
10
     -340.6239
20
     -171.2222
11
     -343.1982
21
     -172.7127
39
 0
62
  7
 0
LINE
8
default
6
CONTINUOUS
10
      343.1982
20
     -172.7127
11
      345.7713
21
     -174.2054
39
 0
62
  7
 0
LINE
8
default
6
CONTINUOUS
10
     -343.1982
20
     -172.7127
11
     -345.7713
21
     -174.2054
39
 0
62
  7
 0
LINE
8
default
6
CONTINUOUS
10
      345.7713
20
     -174.2054
11
      348.3431
21
     -175.7003
39
 0
62
  7
 0
LINE
8
default
6
CONTINUOUS
10
     -345.7713
20
     -174.2054
11
     -348.3431
21
     -175.7003
39
 0
62
  7
 0
LINE
8
default
6
CONTINUOUS
10
      348.3431
20
     -175.7003
11
      350.9138
21
     -177.1973
39
 0
62
  7
 0
LINE
8
default
6
CONTINUOUS
10
     -348.3431
20
     -175.7003
11
     -350.9138
21
     -177.1973
39
 0
62
  7
 0
LINE
8
default
6
CONTINUOUS
10
      350.9138
20
     -177.1973
11
      353.4833
21
     -178.6965
39
 0
62
  7
 0
LINE
8
default
6
CONTINUOUS
10
     -350.9138
20
     -177.1973
11
     -353.4833
21
     -178.6965
39
 0
62
  7
 0
LINE
8
default
6
CONTINUOUS
10
      353.4833
20
     -178.6965
11
      356.0516
21
     -180.1978
39
 0
62
  7
 0
LINE
8
default
6
CONTINUOUS
10
     -353.4833
20
     -178.6965
11
     -356.0516
21
     -180.1978
39
 0
62
  7
 0
LINE
8
default
6
CONTINUOUS
10
      356.0516
20
     -180.1978
11
      358.6187
21
     -181.7013
39
 0
62
  7
 0
LINE
8
default
6
CONTINUOUS
10
     -356.0516
20
     -180.1978
11
     -358.6187
21
     -181.7013
39
 0
62
  7
 0
LINE
8
default
6
CONTINUOUS
10
      358.6187
20
     -181.7013
11
      361.1846
21
     -183.2069
39
 0
62
  7
 0
LINE
8
default
6
CONTINUOUS
10
     -358.6187
20
     -181.7013
11
     -361.1846
21
     -183.2069
39
 0
62
  7
 0
LINE
8
default
6
CONTINUOUS
10
      361.1846
20
     -183.2069
11
      363.7493
21
     -184.7147
39
 0
62
  7
 0
LINE
8
default
6
CONTINUOUS
10
     -361.1846
20
     -183.2069
11
     -363.7493
21
     -184.7147
39
 0
62
  7
 0
LINE
8
default
6
CONTINUOUS
10
      363.7493
20
     -184.7147
11
      366.3128
21
     -186.2247
39
 0
62
  7
 0
LINE
8
default
6
CONTINUOUS
10
     -363.7493
20
     -184.7147
11
     -366.3128
21
     -186.2247
39
 0
62
  7
 0
LINE
8
default
6
CONTINUOUS
10
      366.3128
20
     -186.2247
11
      368.8752
21
     -187.7368
39
 0
62
  7
 0
LINE
8
default
6
CONTINUOUS
10
     -366.3128
20
     -186.2247
11
     -368.8752
21
     -187.7368
39
 0
62
  7
 0
LINE
8
default
6
CONTINUOUS
10
      368.8752
20
     -187.7368
11
      371.4363
21
     -189.2511
39
 0
62
  7
 0
LINE
8
default
6
CONTINUOUS
10
     -368.8752
20
     -187.7368
11
     -371.4363
21
     -189.2511
39
 0
62
  7
 0
LINE
8
default
6
CONTINUOUS
10
      371.4363
20
     -189.2511
11
      373.9962
21
     -190.7675
39
 0
62
  7
 0
LINE
8
default
6
CONTINUOUS
10
     -371.4363
20
     -189.2511
11
     -373.9962
21
     -190.7675
39
 0
62
  7
 0
LINE
8
default
6
CONTINUOUS
10
      373.9962
20
     -190.7675
11
      376.5549
21
     -192.2861
39
 0
62
  7
 0
LINE
8
default
6
CONTINUOUS
10
     -373.9962
20
     -190.7675
11
     -376.5549
21
     -192.2861
39
 0
62
  7
 0
LINE
8
default
6
CONTINUOUS
10
      376.5549
20
     -192.2861
11
      379.1124
21
     -193.8068
39
 0
62
  7
 0
LINE
8
default
6
CONTINUOUS
10
     -376.5549
20
     -192.2861
11
     -379.1124
21
     -193.8068
39
 0
62
  7
 0
LINE
8
default
6
CONTINUOUS
10
      379.1124
20
     -193.8068
11
      381.6688
21
     -195.3297
39
 0
62
  7
 0
LINE
8
default
6
CONTINUOUS
10
     -379.1124
20
     -193.8068
11
     -381.6688
21
     -195.3297
39
 0
62
  7
 0
LINE
8
default
6
CONTINUOUS
10
      381.6688
20
     -195.3297
11
      384.2239
21
     -196.8548
39
 0
62
  7
 0
LINE
8
default
6
CONTINUOUS
10
     -381.6688
20
     -195.3297
11
     -384.2239
21
     -196.8548
39
 0
62
  7
 0
LINE
8
default
6
CONTINUOUS
10
      384.2239
20
     -196.8548
11
      386.7778
21
     -198.3821
39
 0
62
  7
 0
LINE
8
default
6
CONTINUOUS
10
     -384.2239
20
     -196.8548
11
     -386.7778
21
     -198.3821
39
 0
62
  7
 0
LINE
8
default
6
CONTINUOUS
10
      386.7778
20
     -198.3821
11
      389.3306
21
     -199.9114
39
 0
62
  7
 0
LINE
8
default
6
CONTINUOUS
10
     -386.7778
20
     -198.3821
11
     -389.3306
21
     -199.9114
39
 0
62
  7
 0
LINE
8
default
6
CONTINUOUS
10
      389.3306
20
     -199.9114
11
      391.8821
21
     -201.4430
39
 0
62
  7
 0
LINE
8
default
6
CONTINUOUS
10
     -389.3306
20
     -199.9114
11
     -391.8821
21
     -201.4430
39
 0
62
  7
 0
LINE
8
default
6
CONTINUOUS
10
      391.8821
20
     -201.4430
11
      394.4325
21
     -202.9767
39
 0
62
  7
 0
LINE
8
default
6
CONTINUOUS
10
     -391.8821
20
     -201.4430
11
     -394.4325
21
     -202.9767
39
 0
62
  7
 0
LINE
8
default
6
CONTINUOUS
10
      394.4325
20
     -202.9767
11
      396.9816
21
     -204.5126
39
 0
62
  7
 0
LINE
8
default
6
CONTINUOUS
10
     -394.4325
20
     -202.9767
11
     -396.9816
21
     -204.5126
39
 0
62
  7
 0
LINE
8
default
6
CONTINUOUS
10
      396.9816
20
     -204.5126
11
      399.5296
21
     -206.0506
39
 0
62
  7
 0
LINE
8
default
6
CONTINUOUS
10
     -396.9816
20
     -204.5126
11
     -399.5296
21
     -206.0506
39
 0
62
  7
 0
LINE
8
default
6
CONTINUOUS
10
      399.5296
20
     -206.0506
11
      402.0763
21
     -207.5908
39
 0
62
  7
 0
LINE
8
default
6
CONTINUOUS
10
     -399.5296
20
     -206.0506
11
     -402.0763
21
     -207.5908
39
 0
62
  7
 0
LINE
8
default
6
CONTINUOUS
10
      402.0763
20
     -207.5908
11
      404.6219
21
     -209.1331
39
 0
62
  7
 0
LINE
8
default
6
CONTINUOUS
10
     -402.0763
20
     -207.5908
11
     -404.6219
21
     -209.1331
39
 0
62
  7
 0
LINE
8
default
6
CONTINUOUS
10
      404.6219
20
     -209.1331
11
      407.1663
21
     -210.6776
39
 0
62
  7
 0
LINE
8
default
6
CONTINUOUS
10
     -404.6219
20
     -209.1331
11
     -407.1663
21
     -210.6776
39
 0
62
  7
 0
LINE
8
default
6
CONTINUOUS
10
      407.1663
20
     -210.6776
11
      409.7094
21
     -212.2243
39
 0
62
  7
 0
LINE
8
default
6
CONTINUOUS
10
     -407.1663
20
     -210.6776
11
     -409.7094
21
     -212.2243
39
 0
62
  7
 0
LINE
8
default
6
CONTINUOUS
10
      409.7094
20
     -212.2243
11
      412.2514
21
     -213.7731
39
 0
62
  7
 0
LINE
8
default
6
CONTINUOUS
10
     -409.7094
20
     -212.2243
11
     -412.2514
21
     -213.7731
39
 0
62
  7
 0
LINE
8
default
6
CONTINUOUS
10
      412.2514
20
     -213.7731
11
      414.7922
21
     -215.3241
39
 0
62
  7
 0
LINE
8
default
6
CONTINUOUS
10
     -412.2514
20
     -213.7731
11
     -414.7922
21
     -215.3241
39
 0
62
  7
 0
LINE
8
default
6
CONTINUOUS
10
      414.7922
20
     -215.3241
11
      417.3317
21
     -216.8772
39
 0
62
  7
 0
LINE
8
default
6
CONTINUOUS
10
     -414.7922
20
     -215.3241
11
     -417.3317
21
     -216.8772
39
 0
62
  7
 0
LINE
8
default
6
CONTINUOUS
10
      417.3317
20
     -216.8772
11
      419.8701
21
     -218.4325
39
 0
62
  7
 0
LINE
8
default
6
CONTINUOUS
10
     -417.3317
20
     -216.8772
11
     -419.8701
21
     -218.4325
39
 0
62
  7
 0
LINE
8
default
6
CONTINUOUS
10
      419.8701
20
     -218.4325
11
      422.4073
21
     -219.9900
39
 0
62
  7
 0
LINE
8
default
6
CONTINUOUS
10
     -419.8701
20
     -218.4325
11
     -422.4073
21
     -219.9900
39
 0
62
  7
 0
LINE
8
default
6
CONTINUOUS
10
      422.4073
20
     -219.9900
11
      424.9433
21
     -221.5496
39
 0
62
  7
 0
LINE
8
default
6
CONTINUOUS
10
     -422.4073
20
     -219.9900
11
     -424.9433
21
     -221.5496
39
 0
62
  7
 0
LINE
8
default
6
CONTINUOUS
10
      424.9433
20
     -221.5496
11
      427.4781
21
     -223.1113
39
 0
62
  7
 0
LINE
8
default
6
CONTINUOUS
10
     -424.9433
20
     -221.5496
11
     -427.4781
21
     -223.1113
39
 0
62
  7
 0
LINE
8
default
6
CONTINUOUS
10
      427.4781
20
     -223.1113
11
      430.0117
21
     -224.6753
39
 0
62
  7
 0
LINE
8
default
6
CONTINUOUS
10
     -427.4781
20
     -223.1113
11
     -430.0117
21
     -224.6753
39
 0
62
  7
 0
LINE
8
default
6
CONTINUOUS
10
      430.0117
20
     -224.6753
11
      432.5441
21
     -226.2414
39
 0
62
  7
 0
LINE
8
default
6
CONTINUOUS
10
     -430.0117
20
     -224.6753
11
     -432.5441
21
     -226.2414
39
 0
62
  7
 0
LINE
8
default
6
CONTINUOUS
10
      432.5441
20
     -226.2414
11
      435.0753
21
     -227.8096
39
 0
62
  7
 0
LINE
8
default
6
CONTINUOUS
10
     -432.5441
20
     -226.2414
11
     -435.0753
21
     -227.8096
39
 0
62
  7
 0
LINE
8
default
6
CONTINUOUS
10
      435.0753
20
     -227.8096
11
      437.6053
21
     -229.3800
39
 0
62
  7
 0
LINE
8
default
6
CONTINUOUS
10
     -435.0753
20
     -227.8096
11
     -437.6053
21
     -229.3800
39
 0
62
  7
 0
LINE
8
default
6
CONTINUOUS
10
      437.6053
20
     -229.3800
11
      440.1341
21
     -230.9526
39
 0
62
  7
 0
LINE
8
default
6
CONTINUOUS
10
     -437.6053
20
     -229.3800
11
     -440.1341
21
     -230.9526
39
 0
62
  7
 0
LINE
8
default
6
CONTINUOUS
10
      440.1341
20
     -230.9526
11
      442.6617
21
     -232.5273
39
 0
62
  7
 0
LINE
8
default
6
CONTINUOUS
10
     -440.1341
20
     -230.9526
11
     -442.6617
21
     -232.5273
39
 0
62
  7
 0
LINE
8
default
6
CONTINUOUS
10
      442.6617
20
     -232.5273
11
      445.1881
21
     -234.1042
39
 0
62
  7
 0
LINE
8
default
6
CONTINUOUS
10
     -442.6617
20
     -232.5273
11
     -445.1881
21
     -234.1042
39
 0
62
  7
 0
LINE
8
default
6
CONTINUOUS
10
      445.1881
20
     -234.1042
11
      447.7133
21
     -235.6832
39
 0
62
  7
 0
LINE
8
default
6
CONTINUOUS
10
     -445.1881
20
     -234.1042
11
     -447.7133
21
     -235.6832
39
 0
62
  7
 0
LINE
8
default
6
CONTINUOUS
10
      447.7133
20
     -235.6832
11
      450.2373
21
     -237.2644
39
 0
62
  7
 0
LINE
8
default
6
CONTINUOUS
10
     -447.7133
20
     -235.6832
11
     -450.2373
21
     -237.2644
39
 0
62
  7
 0
LINE
8
default
6
CONTINUOUS
10
      450.2373
20
     -237.2644
11
      452.7601
21
     -238.8478
39
 0
62
  7
 0
LINE
8
default
6
CONTINUOUS
10
     -450.2373
20
     -237.2644
11
     -452.7601
21
     -238.8478
39
 0
62
  7
 0
LINE
8
default
6
CONTINUOUS
10
      452.7601
20
     -238.8478
11
      455.2818
21
     -240.4333
39
 0
62
  7
 0
LINE
8
default
6
CONTINUOUS
10
     -452.7601
20
     -238.8478
11
     -455.2818
21
     -240.4333
39
 0
62
  7
 0
LINE
8
default
6
CONTINUOUS
10
      455.2818
20
     -240.4333
11
      457.8022
21
     -242.0210
39
 0
62
  7
 0
LINE
8
default
6
CONTINUOUS
10
     -455.2818
20
     -240.4333
11
     -457.8022
21
     -242.0210
39
 0
62
  7
 0
LINE
8
default
6
CONTINUOUS
10
      457.8022
20
     -242.0210
11
      460.3214
21
     -243.6108
39
 0
62
  7
 0
LINE
8
default
6
CONTINUOUS
10
     -457.8022
20
     -242.0210
11
     -460.3214
21
     -243.6108
39
 0
62
  7
 0
LINE
8
default
6
CONTINUOUS
10
      460.3214
20
     -243.6108
11
      462.8394
21
     -245.2028
39
 0
62
  7
 0
LINE
8
default
6
CONTINUOUS
10
     -460.3214
20
     -243.6108
11
     -462.8394
21
     -245.2028
39
 0
62
  7
 0
LINE
8
default
6
CONTINUOUS
10
      462.8394
20
     -245.2028
11
      465.3563
21
     -246.7970
39
 0
62
  7
 0
LINE
8
default
6
CONTINUOUS
10
     -462.8394
20
     -245.2028
11
     -465.3563
21
     -246.7970
39
 0
62
  7
 0
LINE
8
default
6
CONTINUOUS
10
      465.3563
20
     -246.7970
11
      467.8719
21
     -248.3933
39
 0
62
  7
 0
LINE
8
default
6
CONTINUOUS
10
     -465.3563
20
     -246.7970
11
     -467.8719
21
     -248.3933
39
 0
62
  7
 0
LINE
8
default
6
CONTINUOUS
10
      467.8719
20
     -248.3933
11
      470.3864
21
     -249.9918
39
 0
62
  7
 0
LINE
8
default
6
CONTINUOUS
10
     -467.8719
20
     -248.3933
11
     -470.3864
21
     -249.9918
39
 0
62
  7
 0
LINE
8
default
6
CONTINUOUS
10
      470.3864
20
     -249.9918
11
      472.8996
21
     -251.5924
39
 0
62
  7
 0
LINE
8
default
6
CONTINUOUS
10
     -470.3864
20
     -249.9918
11
     -472.8996
21
     -251.5924
39
 0
62
  7
 0
LINE
8
default
6
CONTINUOUS
10
      472.8996
20
     -251.5924
11
      475.4117
21
     -253.1952
39
 0
62
  7
 0
LINE
8
default
6
CONTINUOUS
10
     -472.8996
20
     -251.5924
11
     -475.4117
21
     -253.1952
39
 0
62
  7
 0
LINE
8
default
6
CONTINUOUS
10
      475.4117
20
     -253.1952
11
      477.9225
21
     -254.8002
39
 0
62
  7
 0
LINE
8
default
6
CONTINUOUS
10
     -475.4117
20
     -253.1952
11
     -477.9225
21
     -254.8002
39
 0
62
  7
 0
LINE
8
default
6
CONTINUOUS
10
      477.9225
20
     -254.8002
11
      480.4322
21
     -256.4073
39
 0
62
  7
 0
LINE
8
default
6
CONTINUOUS
10
     -477.9225
20
     -254.8002
11
     -480.4322
21
     -256.4073
39
 0
62
  7
 0
LINE
8
default
6
CONTINUOUS
10
      480.4322
20
     -256.4073
11
      482.9406
21
     -258.0165
39
 0
62
  7
 0
LINE
8
default
6
CONTINUOUS
10
     -480.4322
20
     -256.4073
11
     -482.9406
21
     -258.0165
39
 0
62
  7
 0
LINE
8
default
6
CONTINUOUS
10
      482.9406
20
     -258.0165
11
      485.4479
21
     -259.6280
39
 0
62
  7
 0
LINE
8
default
6
CONTINUOUS
10
     -482.9406
20
     -258.0165
11
     -485.4479
21
     -259.6280
39
 0
62
  7
 0
LINE
8
default
6
CONTINUOUS
10
      485.4479
20
     -259.6280
11
      487.9540
21
     -261.2416
39
 0
62
  7
 0
LINE
8
default
6
CONTINUOUS
10
     -485.4479
20
     -259.6280
11
     -487.9540
21
     -261.2416
39
 0
62
  7
 0
LINE
8
default
6
CONTINUOUS
10
      487.9540
20
     -261.2416
11
      490.4588
21
     -262.8573
39
 0
62
  7
 0
LINE
8
default
6
CONTINUOUS
10
     -487.9540
20
     -261.2416
11
     -490.4588
21
     -262.8573
39
 0
62
  7
 0
LINE
8
default
6
CONTINUOUS
10
      490.4588
20
     -262.8573
11
      492.9625
21
     -264.4752
39
 0
62
  7
 0
LINE
8
default
6
CONTINUOUS
10
     -490.4588
20
     -262.8573
11
     -492.9625
21
     -264.4752
39
 0
62
  7
 0
LINE
8
default
6
CONTINUOUS
10
      492.9625
20
     -264.4752
11
      495.4650
21
     -266.0953
39
 0
62
  7
 0
LINE
8
default
6
CONTINUOUS
10
     -492.9625
20
     -264.4752
11
     -495.4650
21
     -266.0953
39
 0
62
  7
 0
LINE
8
default
6
CONTINUOUS
10
      495.4650
20
     -266.0953
11
      497.9663
21
     -267.7175
39
 0
62
  7
 0
LINE
8
default
6
CONTINUOUS
10
     -495.4650
20
     -266.0953
11
     -497.9663
21
     -267.7175
39
 0
62
  7
 0
LINE
8
default
6
CONTINUOUS
10
      497.9663
20
     -267.7175
11
      500.4663
21
     -269.3419
39
 0
62
  7
 0
LINE
8
default
6
CONTINUOUS
10
     -497.9663
20
     -267.7175
11
     -500.4663
21
     -269.3419
39
 0
62
  7
 0
LINE
8
default
6
CONTINUOUS
10
      500.4663
20
     -269.3419
11
      502.9652
21
     -270.9684
39
 0
62
  7
 0
LINE
8
default
6
CONTINUOUS
10
     -500.4663
20
     -269.3419
11
     -502.9652
21
     -270.9684
39
 0
62
  7
 0
LINE
8
default
6
CONTINUOUS
10
      502.9652
20
     -270.9684
11
      505.4629
21
     -272.5971
39
 0
62
  7
 0
LINE
8
default
6
CONTINUOUS
10
     -502.9652
20
     -270.9684
11
     -505.4629
21
     -272.5971
39
 0
62
  7
 0
LINE
8
default
6
CONTINUOUS
10
      505.4629
20
     -272.5971
11
      507.9594
21
     -274.2280
39
 0
62
  7
 0
LINE
8
default
6
CONTINUOUS
10
     -505.4629
20
     -272.5971
11
     -507.9594
21
     -274.2280
39
 0
62
  7
 0
LINE
8
default
6
CONTINUOUS
10
      507.9594
20
     -274.2280
11
      510.4547
21
     -275.8610
39
 0
62
  7
 0
LINE
8
default
6
CONTINUOUS
10
     -507.9594
20
     -274.2280
11
     -510.4547
21
     -275.8610
39
 0
62
  7
 0
LINE
8
default
6
CONTINUOUS
10
      510.4547
20
     -275.8610
11
      512.9488
21
     -277.4962
39
 0
62
  7
 0
LINE
8
default
6
CONTINUOUS
10
     -510.4547
20
     -275.8610
11
     -512.9488
21
     -277.4962
39
 0
62
  7
 0
LINE
8
default
6
CONTINUOUS
10
      512.9488
20
     -277.4962
11
      515.4417
21
     -279.1335
39
 0
62
  7
 0
LINE
8
default
6
CONTINUOUS
10
     -512.9488
20
     -277.4962
11
     -515.4417
21
     -279.1335
39
 0
62
  7
 0
LINE
8
default
6
CONTINUOUS
10
      515.4417
20
     -279.1335
11
      517.9334
21
     -280.7730
39
 0
62
  7
 0
LINE
8
default
6
CONTINUOUS
10
     -515.4417
20
     -279.1335
11
     -517.9334
21
     -280.7730
39
 0
62
  7
 0
LINE
8
default
6
CONTINUOUS
10
      517.9334
20
     -280.7730
11
      520.4239
21
     -282.4146
39
 0
62
  7
 0
LINE
8
default
6
CONTINUOUS
10
     -517.9334
20
     -280.7730
11
     -520.4239
21
     -282.4146
39
 0
62
  7
 0
LINE
8
default
6
CONTINUOUS
10
      520.4239
20
     -282.4146
11
      522.9132
21
     -284.0584
39
 0
62
  7
 0
LINE
8
default
6
CONTINUOUS
10
     -520.4239
20
     -282.4146
11
     -522.9132
21
     -284.0584
39
 0
62
  7
 0
LINE
8
default
6
CONTINUOUS
10
      522.9132
20
     -284.0584
11
      525.4013
21
     -285.7044
39
 0
62
  7
 0
LINE
8
default
6
CONTINUOUS
10
     -522.9132
20
     -284.0584
11
     -525.4013
21
     -285.7044
39
 0
62
  7
 0
LINE
8
default
6
CONTINUOUS
10
      525.4013
20
     -285.7044
11
      527.8883
21
     -287.3525
39
 0
62
  7
 0
LINE
8
default
6
CONTINUOUS
10
     -525.4013
20
     -285.7044
11
     -527.8883
21
     -287.3525
39
 0
62
  7
 0
LINE
8
default
6
CONTINUOUS
10
      527.8883
20
     -287.3525
11
      530.3740
21
     -289.0028
39
 0
62
  7
 0
LINE
8
default
6
CONTINUOUS
10
     -527.8883
20
     -287.3525
11
     -530.3740
21
     -289.0028
39
 0
62
  7
 0
LINE
8
default
6
CONTINUOUS
10
      530.3740
20
     -289.0028
11
      532.8585
21
     -290.6553
39
 0
62
  7
 0
LINE
8
default
6
CONTINUOUS
10
     -530.3740
20
     -289.0028
11
     -532.8585
21
     -290.6553
39
 0
62
  7
 0
LINE
8
default
6
CONTINUOUS
10
      532.8585
20
     -290.6553
11
      534.9540
21
     -292.0515
39
 0
62
  7
 0
LINE
8
default
6
CONTINUOUS
10
     -532.8585
20
     -290.6553
11
     -534.9540
21
     -292.0515
39
 0
62
  7
 0
LINE
8
default
6
CONTINUOUS
10
        0.0000
20
       -0.0000
11
        0.0000
21
     -343.0000
39
 0
62
  7
 0
LINE
8
default
6
CONTINUOUS
10
        0.0000
20
     -195.0000
11
       17.1153
21
     -196.3065
39
 0
62
  5
 0
LINE
8
default
6
CONTINUOUS
10
       -0.0000
20
     -195.0000
11
      -17.1153
21
     -196.3065
39
 0
62
  5
 0
LINE
8
default
6
CONTINUOUS
10
       17.1153
20
     -196.3065
11
       27.0960
21
     -197.6283
39
 0
62
  5
 0
LINE
8
default
6
CONTINUOUS
10
      -17.1153
20
     -196.3065
11
      -27.0960
21
     -197.6283
39
 0
62
  5
 0
LINE
8
default
6
CONTINUOUS
10
       27.0960
20
     -197.6283
11
       41.3496
21
     -200.5887
39
 0
62
  5
 0
LINE
8
default
6
CONTINUOUS
10
      -27.0960
20
     -197.6283
11
      -41.3496
21
     -200.5887
39
 0
62
  5
 0
LINE
8
default
6
CONTINUOUS
10
       41.3496
20
     -200.5887
11
       52.7993
21
     -203.9235
39
 0
62
  5
 0
LINE
8
default
6
CONTINUOUS
10
      -41.3496
20
     -200.5887
11
      -52.7993
21
     -203.9235
39
 0
62
  5
 0
LINE
8
default
6
CONTINUOUS
10
       52.7993
20
     -203.9235
11
       91.5159
21
     -216.7031
39
 0
62
  5
 0
LINE
8
default
6
CONTINUOUS
10
      -52.7993
20
     -203.9235
11
      -91.5159
21
     -216.7031
39
 0
62
  5
 0
LINE
8
default
6
CONTINUOUS
10
       91.5159
20
     -216.7031
11
      177.2611
21
     -245.0060
39
 0
62
  5
 0
LINE
8
default
6
CONTINUOUS
10
      -91.5159
20
     -216.7031
11
     -177.2611
21
     -245.0060
39
 0
62
  5
 0
LINE
8
default
6
CONTINUOUS
10
      177.2611
20
     -245.0060
11
      261.0550
21
     -272.6647
39
 0
62
  5
 0
LINE
8
default
6
CONTINUOUS
10
     -177.2611
20
     -245.0060
11
     -261.0550
21
     -272.6647
39
 0
62
  5
 0
LINE
8
default
6
CONTINUOUS
10
      261.0550
20
     -272.6647
11
      346.2135
21
     -300.7739
39
 0
62
  5
 0
LINE
8
default
6
CONTINUOUS
10
     -261.0550
20
     -272.6647
11
     -346.2135
21
     -300.7739
39
 0
62
  5
 0
LINE
8
default
6
CONTINUOUS
10
      346.2135
20
     -300.7739
11
      411.9140
21
     -322.4604
39
 0
62
  5
 0
LINE
8
default
6
CONTINUOUS
10
     -346.2135
20
     -300.7739
11
     -411.9140
21
     -322.4604
39
 0
62
  5
 0
LINE
8
default
6
CONTINUOUS
10
      411.9140
20
     -322.4604
11
      476.3428
21
     -336.7297
39
 0
62
  5
 0
LINE
8
default
6
CONTINUOUS
10
     -411.9140
20
     -322.4604
11
     -476.3428
21
     -336.7297
39
 0
62
  5
 0
LINE
8
default
6
CONTINUOUS
10
      476.3428
20
     -336.7297
11
      529.7558
21
     -329.5993
39
 0
62
  5
 0
LINE
8
default
6
CONTINUOUS
10
     -476.3428
20
     -336.7297
11
     -529.7558
21
     -329.5993
39
 0
62
  5
 0
LINE
8
default
6
CONTINUOUS
10
      529.7558
20
     -329.5993
11
      534.9540
21
     -292.0515
39
 0
62
  5
 0
LINE
8
default
6
CONTINUOUS
10
     -529.7558
20
     -329.5993
11
     -534.9540
21
     -292.0515
39
 0
62
  5
 0
LINE
8
default
6
CONTINUOUS
10
       91.5159
20
     -216.7031
11
       91.5159
21
      -40.9743
39
 0
62
 30
 0
LINE
8
default
6
CONTINUOUS
10
      -91.5159
20
     -216.7031
11
      -91.5159
21
      -40.9743
39
 0
62
 30
 0
LINE
8
default
6
CONTINUOUS
10
      177.2611
20
     -245.0060
11
      177.2611
21
      -82.6376
39
 0
62
 30
 0
LINE
8
default
6
CONTINUOUS
10
     -177.2611
20
     -245.0060
11
     -177.2611
21
      -82.6376
39
 0
62
 30
 0
LINE
8
default
6
CONTINUOUS
10
      261.0550
20
     -272.6647
11
      261.0550
21
     -126.5533
39
 0
62
 30
 0
LINE
8
default
6
CONTINUOUS
10
     -261.0550
20
     -272.6647
11
     -261.0550
21
     -126.5533
39
 0
62
 30
 0
LINE
8
default
6
CONTINUOUS
10
      346.2135
20
     -300.7739
11
      346.2135
21
     -174.4625
39
 0
62
 30
 0
LINE
8
default
6
CONTINUOUS
10
     -346.2135
20
     -300.7739
11
     -346.2135
21
     -174.4625
39
 0
62
 30
 0
LINE
8
default
6
CONTINUOUS
10
      411.9140
20
     -322.4604
11
      411.9140
21
     -213.5675
39
 0
62
 30
 0
LINE
8
default
6
CONTINUOUS
10
     -411.9140
20
     -322.4604
11
     -411.9140
21
     -213.5675
39
 0
62
 30
 0
LINE
8
default
6
CONTINUOUS
10
      476.3428
20
     -336.7297
11
      476.3428
21
     -253.7904
39
 0
62
 30
 0
LINE
8
default
6
CONTINUOUS
10
     -476.3428
20
     -336.7297
11
     -476.3428
21
     -253.7904
39
 0
62
 30
 0
LINE
8
default
6
CONTINUOUS
10
      529.7558
20
     -329.5993
11
      498.3537
21
     -267.9692
39
 0
62
 30
 0
LINE
8
default
6
CONTINUOUS
10
     -529.7558
20
     -329.5993
11
     -498.3537
21
     -267.9692
39
 0
62
 30
 0
LINE
8
default
6
CONTINUOUS
10
       46.4545
20
     -169.2722
11
       46.4545
21
      -20.3577
39
 0
62
192
 0
LINE
8
default
6
CONTINUOUS
10
      -46.4545
20
     -169.2722
11
      -46.4545
21
      -20.3577
39
 0
62
192
 0
LINE
8
default
6
CONTINUOUS
10
      131.3399
20
     -197.4315
11
      131.3399
21
      -59.9221
39
 0
62
192
 0
LINE
8
default
6
CONTINUOUS
10
     -131.3399
20
     -197.4315
11
     -131.3399
21
      -59.9221
39
 0
62
192
 0
LINE
8
default
6
CONTINUOUS
10
      216.6304
20
     -225.7252
11
      216.6304
21
     -102.8676
39
 0
62
192
 0
LINE
8
default
6
CONTINUOUS
10
     -216.6304
20
     -225.7252
11
     -216.6304
21
     -102.8676
39
 0
62
192
 0
LINE
8
default
6
CONTINUOUS
10
      299.2175
20
     -253.1220
11
      299.2175
21
     -147.6365
39
 0
62
192
 0
LINE
8
default
6
CONTINUOUS
10
     -299.2175
20
     -253.1220
11
     -299.2175
21
     -147.6365
39
 0
62
192
 0
LINE
8
default
6
CONTINUOUS
10
      505.7392
20
     -272.7776
11
      475.6594
21
     -318.8233
39
 0
62
  3
 0
LINE
8
default
6
CONTINUOUS
10
     -505.7392
20
     -272.7776
11
     -475.6594
21
     -318.8233
39
 0
62
  3
 0
LINE
8
default
6
CONTINUOUS
10
        0.0000
20
       -0.0000
11
        0.0000
21
      120.7800
39
 0
62
  7
 0
LINE
8
default
6
CONTINUOUS
10
        0.0000
20
      108.7800
11
      178.0561
21
      -83.0392
39
 0
62
  9
 0
LINE
8
default
6
CONTINUOUS
10
       -0.0000
20
      108.7800
11
     -178.0561
21
      -83.0392
39
 0
62
  9
 0
LINE
8
default
6
CONTINUOUS
10
        0.0000
20
      108.7800
11
      359.6593
21
     -182.3119
39
 0
62
  9
 0
LINE
8
default
6
CONTINUOUS
10
       -0.0000
20
      108.7800
11
     -359.6593
21
     -182.3119
39
 0
62
  9
 0
LINE
8
default
6
CONTINUOUS
10
       -5.0000
20
     -133.3200
11
        5.0000
21
     -133.3200
39
 0
62
  1
 0
LINE
8
default
6
CONTINUOUS
10
       -5.0000
20
     -153.0000
11
        5.0000
21
     -153.0000
39
 0
62
  4
 0
LINE
8
default
6
CONTINUOUS
10
       -5.0000
20
     -258.0000
11
        5.0000
21
     -258.0000
39
 0
62
  3
 0
LINE
8
default
6
CONTINUOUS
10
      529.7558
20
     -329.5993
11
        0.0000
21
      -96.6000
39
 0
62
 50
 0
LINE
8
default
6
CONTINUOUS
10
     -529.7558
20
     -329.5993
11
       -0.0000
21
      -96.6000
39
 0
62
 50
 0
LINE
8
default
6
CONTINUOUS
10
      529.7558
20
     -329.5993
11
        0.0000
21
     -153.8600
39
 0
62
211
 0
LINE
8
default
6
CONTINUOUS
10
     -529.7558
20
     -329.5993
11
       -0.0000
21
     -153.8600
39
 0
62
211
 0
TEXT
5
10A38
8
0
6
CONTINUOUS
62
  7
10
     -383.67
20
       -0.00
30
        0.00
40
        8.00
 1
LEHG-0.11                                         
50
        0.00
0
TEXT
5
10A38
8
0
6
CONTINUOUS
62
  7
10
     -383.67
20
      -14.00
30
        0.00
40
        8.00
 1
Laboratori d'envol                                
50
        0.00
0
TEXT
5
10A38
8
0
6
CONTINUOUS
62
  7
10
     -383.67
20
      -28.00
30
        0.00
40
        8.00
 1
gnuBowsprit                                       
50
        0.00
0
TEXT
5
10A38
8
0
6
CONTINUOUS
62
  7
10
     -383.67
20
      -42.00
30
        0.00
40
        8.00
 1
Angle 127.8 deg                                   
50
        0.00
0
TEXT
5
10A38
8
0
6
CONTINUOUS
62
  7
10
     -383.67
20
      -56.00
30
        0.00
40
        8.00
 1
Span 10.70 m                                      
50
        0.00
0
TEXT
5
10A38
8
0
6
CONTINUOUS
62
  7
10
     -383.67
20
      -70.00
30
        0.00
40
        8.00
 1
AR    7.83                                        
50
        0.00
0
TEXT
5
10A38
8
0
6
CONTINUOUS
62
  7
10
     -383.67
20
      -84.00
30
        0.00
40
        8.00
 1
Area 14.62 m2                                     
50
        0.00
0
ENDSEC
0
EOF
