0
SECTION
2
HEADER
9
$EXTMAX
10
    -670.000
20
   -3630.000
9
$EXTMIN
10
    7000.000
20
     120.000
0
ENDSEC
0
SECTION
2
ENTITIES
0
LINE
8
default
6
CONTINUOUS
10
     -620.0000
20
      135.0000
11
      620.0000
21
      135.0000
39
 0
62
  9
 0
LINE
8
default
6
CONTINUOUS
10
     -620.0000
20
      135.0000
11
     -620.0000
21
     -776.0000
39
 0
62
  9
 0
LINE
8
default
6
CONTINUOUS
10
      620.0000
20
     -776.0000
11
      620.0000
21
      135.0000
39
 0
62
  9
 0
LINE
8
default
6
CONTINUOUS
10
     -620.0000
20
     -776.0000
11
      620.0000
21
     -776.0000
39
 0
62
  9
 0
LINE
8
default
6
CONTINUOUS
10
        0.0000
20
       -0.0000
11
      435.4636
21
     -316.3828
39
 0
62
 53
 0
LINE
8
default
6
CONTINUOUS
10
       -0.0000
20
       -0.0000
11
     -435.4636
21
     -316.3828
39
 0
62
 53
 0
LINE
8
default
6
CONTINUOUS
10
        0.0000
20
       -0.0000
11
        2.6151
21
       -1.7517
39
 0
62
  7
 0
LINE
8
default
6
CONTINUOUS
10
       -0.0000
20
       -0.0000
11
       -2.6151
21
       -1.7517
39
 0
62
  7
 0
LINE
8
default
6
CONTINUOUS
10
        2.6151
20
       -1.7517
11
        5.2288
21
       -3.5054
39
 0
62
  7
 0
LINE
8
default
6
CONTINUOUS
10
       -2.6151
20
       -1.7517
11
       -5.2288
21
       -3.5054
39
 0
62
  7
 0
LINE
8
default
6
CONTINUOUS
10
        5.2288
20
       -3.5054
11
        7.8412
21
       -5.2611
39
 0
62
  7
 0
LINE
8
default
6
CONTINUOUS
10
       -5.2288
20
       -3.5054
11
       -7.8412
21
       -5.2611
39
 0
62
  7
 0
LINE
8
default
6
CONTINUOUS
10
        7.8412
20
       -5.2611
11
       10.4522
21
       -7.0189
39
 0
62
  7
 0
LINE
8
default
6
CONTINUOUS
10
       -7.8412
20
       -5.2611
11
      -10.4522
21
       -7.0189
39
 0
62
  7
 0
LINE
8
default
6
CONTINUOUS
10
       10.4522
20
       -7.0189
11
       13.0618
21
       -8.7787
39
 0
62
  7
 0
LINE
8
default
6
CONTINUOUS
10
      -10.4522
20
       -7.0189
11
      -13.0618
21
       -8.7787
39
 0
62
  7
 0
LINE
8
default
6
CONTINUOUS
10
       13.0618
20
       -8.7787
11
       15.6700
21
      -10.5405
39
 0
62
  7
 0
LINE
8
default
6
CONTINUOUS
10
      -13.0618
20
       -8.7787
11
      -15.6700
21
      -10.5405
39
 0
62
  7
 0
LINE
8
default
6
CONTINUOUS
10
       15.6700
20
      -10.5405
11
       18.2769
21
      -12.3044
39
 0
62
  7
 0
LINE
8
default
6
CONTINUOUS
10
      -15.6700
20
      -10.5405
11
      -18.2769
21
      -12.3044
39
 0
62
  7
 0
LINE
8
default
6
CONTINUOUS
10
       18.2769
20
      -12.3044
11
       20.8824
21
      -14.0703
39
 0
62
  7
 0
LINE
8
default
6
CONTINUOUS
10
      -18.2769
20
      -12.3044
11
      -20.8824
21
      -14.0703
39
 0
62
  7
 0
LINE
8
default
6
CONTINUOUS
10
       20.8824
20
      -14.0703
11
       23.4865
21
      -15.8382
39
 0
62
  7
 0
LINE
8
default
6
CONTINUOUS
10
      -20.8824
20
      -14.0703
11
      -23.4865
21
      -15.8382
39
 0
62
  7
 0
LINE
8
default
6
CONTINUOUS
10
       23.4865
20
      -15.8382
11
       26.0893
21
      -17.6082
39
 0
62
  7
 0
LINE
8
default
6
CONTINUOUS
10
      -23.4865
20
      -15.8382
11
      -26.0893
21
      -17.6082
39
 0
62
  7
 0
LINE
8
default
6
CONTINUOUS
10
       26.0893
20
      -17.6082
11
       28.6907
21
      -19.3801
39
 0
62
  7
 0
LINE
8
default
6
CONTINUOUS
10
      -26.0893
20
      -17.6082
11
      -28.6907
21
      -19.3801
39
 0
62
  7
 0
LINE
8
default
6
CONTINUOUS
10
       28.6907
20
      -19.3801
11
       31.2907
21
      -21.1541
39
 0
62
  7
 0
LINE
8
default
6
CONTINUOUS
10
      -28.6907
20
      -19.3801
11
      -31.2907
21
      -21.1541
39
 0
62
  7
 0
LINE
8
default
6
CONTINUOUS
10
       31.2907
20
      -21.1541
11
       33.8893
21
      -22.9302
39
 0
62
  7
 0
LINE
8
default
6
CONTINUOUS
10
      -31.2907
20
      -21.1541
11
      -33.8893
21
      -22.9302
39
 0
62
  7
 0
LINE
8
default
6
CONTINUOUS
10
       33.8893
20
      -22.9302
11
       36.4865
21
      -24.7082
39
 0
62
  7
 0
LINE
8
default
6
CONTINUOUS
10
      -33.8893
20
      -22.9302
11
      -36.4865
21
      -24.7082
39
 0
62
  7
 0
LINE
8
default
6
CONTINUOUS
10
       36.4865
20
      -24.7082
11
       39.0824
21
      -26.4882
39
 0
62
  7
 0
LINE
8
default
6
CONTINUOUS
10
      -36.4865
20
      -24.7082
11
      -39.0824
21
      -26.4882
39
 0
62
  7
 0
LINE
8
default
6
CONTINUOUS
10
       39.0824
20
      -26.4882
11
       41.6768
21
      -28.2703
39
 0
62
  7
 0
LINE
8
default
6
CONTINUOUS
10
      -39.0824
20
      -26.4882
11
      -41.6768
21
      -28.2703
39
 0
62
  7
 0
LINE
8
default
6
CONTINUOUS
10
       41.6768
20
      -28.2703
11
       44.2699
21
      -30.0544
39
 0
62
  7
 0
LINE
8
default
6
CONTINUOUS
10
      -41.6768
20
      -28.2703
11
      -44.2699
21
      -30.0544
39
 0
62
  7
 0
LINE
8
default
6
CONTINUOUS
10
       44.2699
20
      -30.0544
11
       46.8616
21
      -31.8405
39
 0
62
  7
 0
LINE
8
default
6
CONTINUOUS
10
      -44.2699
20
      -30.0544
11
      -46.8616
21
      -31.8405
39
 0
62
  7
 0
LINE
8
default
6
CONTINUOUS
10
       46.8616
20
      -31.8405
11
       49.4519
21
      -33.6287
39
 0
62
  7
 0
LINE
8
default
6
CONTINUOUS
10
      -46.8616
20
      -31.8405
11
      -49.4519
21
      -33.6287
39
 0
62
  7
 0
LINE
8
default
6
CONTINUOUS
10
       49.4519
20
      -33.6287
11
       52.0408
21
      -35.4188
39
 0
62
  7
 0
LINE
8
default
6
CONTINUOUS
10
      -49.4519
20
      -33.6287
11
      -52.0408
21
      -35.4188
39
 0
62
  7
 0
LINE
8
default
6
CONTINUOUS
10
       52.0408
20
      -35.4188
11
       54.6283
21
      -37.2110
39
 0
62
  7
 0
LINE
8
default
6
CONTINUOUS
10
      -52.0408
20
      -35.4188
11
      -54.6283
21
      -37.2110
39
 0
62
  7
 0
LINE
8
default
6
CONTINUOUS
10
       54.6283
20
      -37.2110
11
       57.2144
21
      -39.0051
39
 0
62
  7
 0
LINE
8
default
6
CONTINUOUS
10
      -54.6283
20
      -37.2110
11
      -57.2144
21
      -39.0051
39
 0
62
  7
 0
LINE
8
default
6
CONTINUOUS
10
       57.2144
20
      -39.0051
11
       59.7992
21
      -40.8013
39
 0
62
  7
 0
LINE
8
default
6
CONTINUOUS
10
      -57.2144
20
      -39.0051
11
      -59.7992
21
      -40.8013
39
 0
62
  7
 0
LINE
8
default
6
CONTINUOUS
10
       59.7992
20
      -40.8013
11
       62.3825
21
      -42.5995
39
 0
62
  7
 0
LINE
8
default
6
CONTINUOUS
10
      -59.7992
20
      -40.8013
11
      -62.3825
21
      -42.5995
39
 0
62
  7
 0
LINE
8
default
6
CONTINUOUS
10
       62.3825
20
      -42.5995
11
       64.9644
21
      -44.3997
39
 0
62
  7
 0
LINE
8
default
6
CONTINUOUS
10
      -62.3825
20
      -42.5995
11
      -64.9644
21
      -44.3997
39
 0
62
  7
 0
LINE
8
default
6
CONTINUOUS
10
       64.9644
20
      -44.3997
11
       67.5449
21
      -46.2019
39
 0
62
  7
 0
LINE
8
default
6
CONTINUOUS
10
      -64.9644
20
      -44.3997
11
      -67.5449
21
      -46.2019
39
 0
62
  7
 0
LINE
8
default
6
CONTINUOUS
10
       67.5449
20
      -46.2019
11
       70.1240
21
      -48.0061
39
 0
62
  7
 0
LINE
8
default
6
CONTINUOUS
10
      -67.5449
20
      -46.2019
11
      -70.1240
21
      -48.0061
39
 0
62
  7
 0
LINE
8
default
6
CONTINUOUS
10
       70.1240
20
      -48.0061
11
       72.7018
21
      -49.8124
39
 0
62
  7
 0
LINE
8
default
6
CONTINUOUS
10
      -70.1240
20
      -48.0061
11
      -72.7018
21
      -49.8124
39
 0
62
  7
 0
LINE
8
default
6
CONTINUOUS
10
       72.7018
20
      -49.8124
11
       75.2781
21
      -51.6206
39
 0
62
  7
 0
LINE
8
default
6
CONTINUOUS
10
      -72.7018
20
      -49.8124
11
      -75.2781
21
      -51.6206
39
 0
62
  7
 0
LINE
8
default
6
CONTINUOUS
10
       75.2781
20
      -51.6206
11
       77.8530
21
      -53.4308
39
 0
62
  7
 0
LINE
8
default
6
CONTINUOUS
10
      -75.2781
20
      -51.6206
11
      -77.8530
21
      -53.4308
39
 0
62
  7
 0
LINE
8
default
6
CONTINUOUS
10
       77.8530
20
      -53.4308
11
       80.4264
21
      -55.2430
39
 0
62
  7
 0
LINE
8
default
6
CONTINUOUS
10
      -77.8530
20
      -53.4308
11
      -80.4264
21
      -55.2430
39
 0
62
  7
 0
LINE
8
default
6
CONTINUOUS
10
       80.4264
20
      -55.2430
11
       82.9985
21
      -57.0573
39
 0
62
  7
 0
LINE
8
default
6
CONTINUOUS
10
      -80.4264
20
      -55.2430
11
      -82.9985
21
      -57.0573
39
 0
62
  7
 0
LINE
8
default
6
CONTINUOUS
10
       82.9985
20
      -57.0573
11
       85.5692
21
      -58.8735
39
 0
62
  7
 0
LINE
8
default
6
CONTINUOUS
10
      -82.9985
20
      -57.0573
11
      -85.5692
21
      -58.8735
39
 0
62
  7
 0
LINE
8
default
6
CONTINUOUS
10
       85.5692
20
      -58.8735
11
       88.1384
21
      -60.6918
39
 0
62
  7
 0
LINE
8
default
6
CONTINUOUS
10
      -85.5692
20
      -58.8735
11
      -88.1384
21
      -60.6918
39
 0
62
  7
 0
LINE
8
default
6
CONTINUOUS
10
       88.1384
20
      -60.6918
11
       90.7063
21
      -62.5120
39
 0
62
  7
 0
LINE
8
default
6
CONTINUOUS
10
      -88.1384
20
      -60.6918
11
      -90.7063
21
      -62.5120
39
 0
62
  7
 0
LINE
8
default
6
CONTINUOUS
10
       90.7063
20
      -62.5120
11
       93.2727
21
      -64.3342
39
 0
62
  7
 0
LINE
8
default
6
CONTINUOUS
10
      -90.7063
20
      -62.5120
11
      -93.2727
21
      -64.3342
39
 0
62
  7
 0
LINE
8
default
6
CONTINUOUS
10
       93.2727
20
      -64.3342
11
       95.8377
21
      -66.1585
39
 0
62
  7
 0
LINE
8
default
6
CONTINUOUS
10
      -93.2727
20
      -64.3342
11
      -95.8377
21
      -66.1585
39
 0
62
  7
 0
LINE
8
default
6
CONTINUOUS
10
       95.8377
20
      -66.1585
11
       98.4013
21
      -67.9847
39
 0
62
  7
 0
LINE
8
default
6
CONTINUOUS
10
      -95.8377
20
      -66.1585
11
      -98.4013
21
      -67.9847
39
 0
62
  7
 0
LINE
8
default
6
CONTINUOUS
10
       98.4013
20
      -67.9847
11
      100.9634
21
      -69.8129
39
 0
62
  7
 0
LINE
8
default
6
CONTINUOUS
10
      -98.4013
20
      -67.9847
11
     -100.9634
21
      -69.8129
39
 0
62
  7
 0
LINE
8
default
6
CONTINUOUS
10
      100.9634
20
      -69.8129
11
      103.5242
21
      -71.6431
39
 0
62
  7
 0
LINE
8
default
6
CONTINUOUS
10
     -100.9634
20
      -69.8129
11
     -103.5242
21
      -71.6431
39
 0
62
  7
 0
LINE
8
default
6
CONTINUOUS
10
      103.5242
20
      -71.6431
11
      106.0835
21
      -73.4753
39
 0
62
  7
 0
LINE
8
default
6
CONTINUOUS
10
     -103.5242
20
      -71.6431
11
     -106.0835
21
      -73.4753
39
 0
62
  7
 0
LINE
8
default
6
CONTINUOUS
10
      106.0835
20
      -73.4753
11
      108.6414
21
      -75.3095
39
 0
62
  7
 0
LINE
8
default
6
CONTINUOUS
10
     -106.0835
20
      -73.4753
11
     -108.6414
21
      -75.3095
39
 0
62
  7
 0
LINE
8
default
6
CONTINUOUS
10
      108.6414
20
      -75.3095
11
      111.1978
21
      -77.1457
39
 0
62
  7
 0
LINE
8
default
6
CONTINUOUS
10
     -108.6414
20
      -75.3095
11
     -111.1978
21
      -77.1457
39
 0
62
  7
 0
LINE
8
default
6
CONTINUOUS
10
      111.1978
20
      -77.1457
11
      113.7529
21
      -78.9839
39
 0
62
  7
 0
LINE
8
default
6
CONTINUOUS
10
     -111.1978
20
      -77.1457
11
     -113.7529
21
      -78.9839
39
 0
62
  7
 0
LINE
8
default
6
CONTINUOUS
10
      113.7529
20
      -78.9839
11
      116.3065
21
      -80.8240
39
 0
62
  7
 0
LINE
8
default
6
CONTINUOUS
10
     -113.7529
20
      -78.9839
11
     -116.3065
21
      -80.8240
39
 0
62
  7
 0
LINE
8
default
6
CONTINUOUS
10
      116.3065
20
      -80.8240
11
      118.8586
21
      -82.6662
39
 0
62
  7
 0
LINE
8
default
6
CONTINUOUS
10
     -116.3065
20
      -80.8240
11
     -118.8586
21
      -82.6662
39
 0
62
  7
 0
LINE
8
default
6
CONTINUOUS
10
      118.8586
20
      -82.6662
11
      121.4093
21
      -84.5103
39
 0
62
  7
 0
LINE
8
default
6
CONTINUOUS
10
     -118.8586
20
      -82.6662
11
     -121.4093
21
      -84.5103
39
 0
62
  7
 0
LINE
8
default
6
CONTINUOUS
10
      121.4093
20
      -84.5103
11
      123.9586
21
      -86.3564
39
 0
62
  7
 0
LINE
8
default
6
CONTINUOUS
10
     -121.4093
20
      -84.5103
11
     -123.9586
21
      -86.3564
39
 0
62
  7
 0
LINE
8
default
6
CONTINUOUS
10
      123.9586
20
      -86.3564
11
      126.5065
21
      -88.2045
39
 0
62
  7
 0
LINE
8
default
6
CONTINUOUS
10
     -123.9586
20
      -86.3564
11
     -126.5065
21
      -88.2045
39
 0
62
  7
 0
LINE
8
default
6
CONTINUOUS
10
      126.5065
20
      -88.2045
11
      129.0529
21
      -90.0546
39
 0
62
  7
 0
LINE
8
default
6
CONTINUOUS
10
     -126.5065
20
      -88.2045
11
     -129.0529
21
      -90.0546
39
 0
62
  7
 0
LINE
8
default
6
CONTINUOUS
10
      129.0529
20
      -90.0546
11
      131.5979
21
      -91.9067
39
 0
62
  7
 0
LINE
8
default
6
CONTINUOUS
10
     -129.0529
20
      -90.0546
11
     -131.5979
21
      -91.9067
39
 0
62
  7
 0
LINE
8
default
6
CONTINUOUS
10
      131.5979
20
      -91.9067
11
      134.1414
21
      -93.7607
39
 0
62
  7
 0
LINE
8
default
6
CONTINUOUS
10
     -131.5979
20
      -91.9067
11
     -134.1414
21
      -93.7607
39
 0
62
  7
 0
LINE
8
default
6
CONTINUOUS
10
      134.1414
20
      -93.7607
11
      136.6835
21
      -95.6167
39
 0
62
  7
 0
LINE
8
default
6
CONTINUOUS
10
     -134.1414
20
      -93.7607
11
     -136.6835
21
      -95.6167
39
 0
62
  7
 0
LINE
8
default
6
CONTINUOUS
10
      136.6835
20
      -95.6167
11
      139.2242
21
      -97.4747
39
 0
62
  7
 0
LINE
8
default
6
CONTINUOUS
10
     -136.6835
20
      -95.6167
11
     -139.2242
21
      -97.4747
39
 0
62
  7
 0
LINE
8
default
6
CONTINUOUS
10
      139.2242
20
      -97.4747
11
      141.7634
21
      -99.3347
39
 0
62
  7
 0
LINE
8
default
6
CONTINUOUS
10
     -139.2242
20
      -97.4747
11
     -141.7634
21
      -99.3347
39
 0
62
  7
 0
LINE
8
default
6
CONTINUOUS
10
      141.7634
20
      -99.3347
11
      144.3011
21
     -101.1966
39
 0
62
  7
 0
LINE
8
default
6
CONTINUOUS
10
     -141.7634
20
      -99.3347
11
     -144.3011
21
     -101.1966
39
 0
62
  7
 0
LINE
8
default
6
CONTINUOUS
10
      144.3011
20
     -101.1966
11
      146.8374
21
     -103.0606
39
 0
62
  7
 0
LINE
8
default
6
CONTINUOUS
10
     -144.3011
20
     -101.1966
11
     -146.8374
21
     -103.0606
39
 0
62
  7
 0
LINE
8
default
6
CONTINUOUS
10
      146.8374
20
     -103.0606
11
      149.3723
21
     -104.9265
39
 0
62
  7
 0
LINE
8
default
6
CONTINUOUS
10
     -146.8374
20
     -103.0606
11
     -149.3723
21
     -104.9265
39
 0
62
  7
 0
LINE
8
default
6
CONTINUOUS
10
      149.3723
20
     -104.9265
11
      151.9057
21
     -106.7943
39
 0
62
  7
 0
LINE
8
default
6
CONTINUOUS
10
     -149.3723
20
     -104.9265
11
     -151.9057
21
     -106.7943
39
 0
62
  7
 0
LINE
8
default
6
CONTINUOUS
10
      151.9057
20
     -106.7943
11
      154.4376
21
     -108.6642
39
 0
62
  7
 0
LINE
8
default
6
CONTINUOUS
10
     -151.9057
20
     -106.7943
11
     -154.4376
21
     -108.6642
39
 0
62
  7
 0
LINE
8
default
6
CONTINUOUS
10
      154.4376
20
     -108.6642
11
      156.9681
21
     -110.5360
39
 0
62
  7
 0
LINE
8
default
6
CONTINUOUS
10
     -154.4376
20
     -108.6642
11
     -156.9681
21
     -110.5360
39
 0
62
  7
 0
LINE
8
default
6
CONTINUOUS
10
      156.9681
20
     -110.5360
11
      159.4972
21
     -112.4098
39
 0
62
  7
 0
LINE
8
default
6
CONTINUOUS
10
     -156.9681
20
     -110.5360
11
     -159.4972
21
     -112.4098
39
 0
62
  7
 0
LINE
8
default
6
CONTINUOUS
10
      159.4972
20
     -112.4098
11
      162.0247
21
     -114.2855
39
 0
62
  7
 0
LINE
8
default
6
CONTINUOUS
10
     -159.4972
20
     -112.4098
11
     -162.0247
21
     -114.2855
39
 0
62
  7
 0
LINE
8
default
6
CONTINUOUS
10
      162.0247
20
     -114.2855
11
      164.5508
21
     -116.1632
39
 0
62
  7
 0
LINE
8
default
6
CONTINUOUS
10
     -162.0247
20
     -114.2855
11
     -164.5508
21
     -116.1632
39
 0
62
  7
 0
LINE
8
default
6
CONTINUOUS
10
      164.5508
20
     -116.1632
11
      167.0755
21
     -118.0429
39
 0
62
  7
 0
LINE
8
default
6
CONTINUOUS
10
     -164.5508
20
     -116.1632
11
     -167.0755
21
     -118.0429
39
 0
62
  7
 0
LINE
8
default
6
CONTINUOUS
10
      167.0755
20
     -118.0429
11
      169.5987
21
     -119.9245
39
 0
62
  7
 0
LINE
8
default
6
CONTINUOUS
10
     -167.0755
20
     -118.0429
11
     -169.5987
21
     -119.9245
39
 0
62
  7
 0
LINE
8
default
6
CONTINUOUS
10
      169.5987
20
     -119.9245
11
      172.1204
21
     -121.8081
39
 0
62
  7
 0
LINE
8
default
6
CONTINUOUS
10
     -169.5987
20
     -119.9245
11
     -172.1204
21
     -121.8081
39
 0
62
  7
 0
LINE
8
default
6
CONTINUOUS
10
      172.1204
20
     -121.8081
11
      174.6407
21
     -123.6937
39
 0
62
  7
 0
LINE
8
default
6
CONTINUOUS
10
     -172.1204
20
     -121.8081
11
     -174.6407
21
     -123.6937
39
 0
62
  7
 0
LINE
8
default
6
CONTINUOUS
10
      174.6407
20
     -123.6937
11
      177.1595
21
     -125.5812
39
 0
62
  7
 0
LINE
8
default
6
CONTINUOUS
10
     -174.6407
20
     -123.6937
11
     -177.1595
21
     -125.5812
39
 0
62
  7
 0
LINE
8
default
6
CONTINUOUS
10
      177.1595
20
     -125.5812
11
      179.6768
21
     -127.4707
39
 0
62
  7
 0
LINE
8
default
6
CONTINUOUS
10
     -177.1595
20
     -125.5812
11
     -179.6768
21
     -127.4707
39
 0
62
  7
 0
LINE
8
default
6
CONTINUOUS
10
      179.6768
20
     -127.4707
11
      182.1926
21
     -129.3621
39
 0
62
  7
 0
LINE
8
default
6
CONTINUOUS
10
     -179.6768
20
     -127.4707
11
     -182.1926
21
     -129.3621
39
 0
62
  7
 0
LINE
8
default
6
CONTINUOUS
10
      182.1926
20
     -129.3621
11
      184.7070
21
     -131.2555
39
 0
62
  7
 0
LINE
8
default
6
CONTINUOUS
10
     -182.1926
20
     -129.3621
11
     -184.7070
21
     -131.2555
39
 0
62
  7
 0
LINE
8
default
6
CONTINUOUS
10
      184.7070
20
     -131.2555
11
      187.2199
21
     -133.1509
39
 0
62
  7
 0
LINE
8
default
6
CONTINUOUS
10
     -184.7070
20
     -131.2555
11
     -187.2199
21
     -133.1509
39
 0
62
  7
 0
LINE
8
default
6
CONTINUOUS
10
      187.2199
20
     -133.1509
11
      189.7313
21
     -135.0482
39
 0
62
  7
 0
LINE
8
default
6
CONTINUOUS
10
     -187.2199
20
     -133.1509
11
     -189.7313
21
     -135.0482
39
 0
62
  7
 0
LINE
8
default
6
CONTINUOUS
10
      189.7313
20
     -135.0482
11
      192.2413
21
     -136.9474
39
 0
62
  7
 0
LINE
8
default
6
CONTINUOUS
10
     -189.7313
20
     -135.0482
11
     -192.2413
21
     -136.9474
39
 0
62
  7
 0
LINE
8
default
6
CONTINUOUS
10
      192.2413
20
     -136.9474
11
      194.7498
21
     -138.8487
39
 0
62
  7
 0
LINE
8
default
6
CONTINUOUS
10
     -192.2413
20
     -136.9474
11
     -194.7498
21
     -138.8487
39
 0
62
  7
 0
LINE
8
default
6
CONTINUOUS
10
      194.7498
20
     -138.8487
11
      197.2567
21
     -140.7518
39
 0
62
  7
 0
LINE
8
default
6
CONTINUOUS
10
     -194.7498
20
     -138.8487
11
     -197.2567
21
     -140.7518
39
 0
62
  7
 0
LINE
8
default
6
CONTINUOUS
10
      197.2567
20
     -140.7518
11
      199.7623
21
     -142.6569
39
 0
62
  7
 0
LINE
8
default
6
CONTINUOUS
10
     -197.2567
20
     -140.7518
11
     -199.7623
21
     -142.6569
39
 0
62
  7
 0
LINE
8
default
6
CONTINUOUS
10
      199.7623
20
     -142.6569
11
      202.2663
21
     -144.5640
39
 0
62
  7
 0
LINE
8
default
6
CONTINUOUS
10
     -199.7623
20
     -142.6569
11
     -202.2663
21
     -144.5640
39
 0
62
  7
 0
LINE
8
default
6
CONTINUOUS
10
      202.2663
20
     -144.5640
11
      204.7688
21
     -146.4730
39
 0
62
  7
 0
LINE
8
default
6
CONTINUOUS
10
     -202.2663
20
     -144.5640
11
     -204.7688
21
     -146.4730
39
 0
62
  7
 0
LINE
8
default
6
CONTINUOUS
10
      204.7688
20
     -146.4730
11
      207.2699
21
     -148.3840
39
 0
62
  7
 0
LINE
8
default
6
CONTINUOUS
10
     -204.7688
20
     -146.4730
11
     -207.2699
21
     -148.3840
39
 0
62
  7
 0
LINE
8
default
6
CONTINUOUS
10
      207.2699
20
     -148.3840
11
      209.7695
21
     -150.2969
39
 0
62
  7
 0
LINE
8
default
6
CONTINUOUS
10
     -207.2699
20
     -148.3840
11
     -209.7695
21
     -150.2969
39
 0
62
  7
 0
LINE
8
default
6
CONTINUOUS
10
      209.7695
20
     -150.2969
11
      212.2675
21
     -152.2117
39
 0
62
  7
 0
LINE
8
default
6
CONTINUOUS
10
     -209.7695
20
     -150.2969
11
     -212.2675
21
     -152.2117
39
 0
62
  7
 0
LINE
8
default
6
CONTINUOUS
10
      212.2675
20
     -152.2117
11
      214.7641
21
     -154.1285
39
 0
62
  7
 0
LINE
8
default
6
CONTINUOUS
10
     -212.2675
20
     -152.2117
11
     -214.7641
21
     -154.1285
39
 0
62
  7
 0
LINE
8
default
6
CONTINUOUS
10
      214.7641
20
     -154.1285
11
      217.2592
21
     -156.0472
39
 0
62
  7
 0
LINE
8
default
6
CONTINUOUS
10
     -214.7641
20
     -154.1285
11
     -217.2592
21
     -156.0472
39
 0
62
  7
 0
LINE
8
default
6
CONTINUOUS
10
      217.2592
20
     -156.0472
11
      219.7528
21
     -157.9679
39
 0
62
  7
 0
LINE
8
default
6
CONTINUOUS
10
     -217.2592
20
     -156.0472
11
     -219.7528
21
     -157.9679
39
 0
62
  7
 0
LINE
8
default
6
CONTINUOUS
10
      219.7528
20
     -157.9679
11
      222.2449
21
     -159.8905
39
 0
62
  7
 0
LINE
8
default
6
CONTINUOUS
10
     -219.7528
20
     -157.9679
11
     -222.2449
21
     -159.8905
39
 0
62
  7
 0
LINE
8
default
6
CONTINUOUS
10
      222.2449
20
     -159.8905
11
      224.7355
21
     -161.8151
39
 0
62
  7
 0
LINE
8
default
6
CONTINUOUS
10
     -222.2449
20
     -159.8905
11
     -224.7355
21
     -161.8151
39
 0
62
  7
 0
LINE
8
default
6
CONTINUOUS
10
      224.7355
20
     -161.8151
11
      227.2247
21
     -163.7416
39
 0
62
  7
 0
LINE
8
default
6
CONTINUOUS
10
     -224.7355
20
     -161.8151
11
     -227.2247
21
     -163.7416
39
 0
62
  7
 0
LINE
8
default
6
CONTINUOUS
10
      227.2247
20
     -163.7416
11
      229.7123
21
     -165.6700
39
 0
62
  7
 0
LINE
8
default
6
CONTINUOUS
10
     -227.2247
20
     -163.7416
11
     -229.7123
21
     -165.6700
39
 0
62
  7
 0
LINE
8
default
6
CONTINUOUS
10
      229.7123
20
     -165.6700
11
      232.1984
21
     -167.6003
39
 0
62
  7
 0
LINE
8
default
6
CONTINUOUS
10
     -229.7123
20
     -165.6700
11
     -232.1984
21
     -167.6003
39
 0
62
  7
 0
LINE
8
default
6
CONTINUOUS
10
      232.1984
20
     -167.6003
11
      234.6830
21
     -169.5326
39
 0
62
  7
 0
LINE
8
default
6
CONTINUOUS
10
     -232.1984
20
     -167.6003
11
     -234.6830
21
     -169.5326
39
 0
62
  7
 0
LINE
8
default
6
CONTINUOUS
10
      234.6830
20
     -169.5326
11
      237.1661
21
     -171.4669
39
 0
62
  7
 0
LINE
8
default
6
CONTINUOUS
10
     -234.6830
20
     -169.5326
11
     -237.1661
21
     -171.4669
39
 0
62
  7
 0
LINE
8
default
6
CONTINUOUS
10
      237.1661
20
     -171.4669
11
      239.6477
21
     -173.4030
39
 0
62
  7
 0
LINE
8
default
6
CONTINUOUS
10
     -237.1661
20
     -171.4669
11
     -239.6477
21
     -173.4030
39
 0
62
  7
 0
LINE
8
default
6
CONTINUOUS
10
      239.6477
20
     -173.4030
11
      242.1278
21
     -175.3411
39
 0
62
  7
 0
LINE
8
default
6
CONTINUOUS
10
     -239.6477
20
     -173.4030
11
     -242.1278
21
     -175.3411
39
 0
62
  7
 0
LINE
8
default
6
CONTINUOUS
10
      242.1278
20
     -175.3411
11
      244.6064
21
     -177.2811
39
 0
62
  7
 0
LINE
8
default
6
CONTINUOUS
10
     -242.1278
20
     -175.3411
11
     -244.6064
21
     -177.2811
39
 0
62
  7
 0
LINE
8
default
6
CONTINUOUS
10
      244.6064
20
     -177.2811
11
      247.0835
21
     -179.2231
39
 0
62
  7
 0
LINE
8
default
6
CONTINUOUS
10
     -244.6064
20
     -177.2811
11
     -247.0835
21
     -179.2231
39
 0
62
  7
 0
LINE
8
default
6
CONTINUOUS
10
      247.0835
20
     -179.2231
11
      249.5590
21
     -181.1669
39
 0
62
  7
 0
LINE
8
default
6
CONTINUOUS
10
     -247.0835
20
     -179.2231
11
     -249.5590
21
     -181.1669
39
 0
62
  7
 0
LINE
8
default
6
CONTINUOUS
10
      249.5590
20
     -181.1669
11
      252.0331
21
     -183.1127
39
 0
62
  7
 0
LINE
8
default
6
CONTINUOUS
10
     -249.5590
20
     -181.1669
11
     -252.0331
21
     -183.1127
39
 0
62
  7
 0
LINE
8
default
6
CONTINUOUS
10
      252.0331
20
     -183.1127
11
      253.8323
21
     -184.5298
39
 0
62
  7
 0
LINE
8
default
6
CONTINUOUS
10
     -252.0331
20
     -183.1127
11
     -253.8323
21
     -184.5298
39
 0
62
  7
 0
LINE
8
default
6
CONTINUOUS
10
      253.8323
20
     -184.5298
11
      255.6307
21
     -185.9478
39
 0
62
  7
 0
LINE
8
default
6
CONTINUOUS
10
     -253.8323
20
     -184.5298
11
     -255.6307
21
     -185.9478
39
 0
62
  7
 0
LINE
8
default
6
CONTINUOUS
10
      255.6307
20
     -185.9478
11
      257.4284
21
     -187.3668
39
 0
62
  7
 0
LINE
8
default
6
CONTINUOUS
10
     -255.6307
20
     -185.9478
11
     -257.4284
21
     -187.3668
39
 0
62
  7
 0
LINE
8
default
6
CONTINUOUS
10
      257.4284
20
     -187.3668
11
      259.2252
21
     -188.7868
39
 0
62
  7
 0
LINE
8
default
6
CONTINUOUS
10
     -257.4284
20
     -187.3668
11
     -259.2252
21
     -188.7868
39
 0
62
  7
 0
LINE
8
default
6
CONTINUOUS
10
      259.2252
20
     -188.7868
11
      261.0213
21
     -190.2078
39
 0
62
  7
 0
LINE
8
default
6
CONTINUOUS
10
     -259.2252
20
     -188.7868
11
     -261.0213
21
     -190.2078
39
 0
62
  7
 0
LINE
8
default
6
CONTINUOUS
10
      261.0213
20
     -190.2078
11
      262.8166
21
     -191.6299
39
 0
62
  7
 0
LINE
8
default
6
CONTINUOUS
10
     -261.0213
20
     -190.2078
11
     -262.8166
21
     -191.6299
39
 0
62
  7
 0
LINE
8
default
6
CONTINUOUS
10
      262.8166
20
     -191.6299
11
      264.6111
21
     -193.0529
39
 0
62
  7
 0
LINE
8
default
6
CONTINUOUS
10
     -262.8166
20
     -191.6299
11
     -264.6111
21
     -193.0529
39
 0
62
  7
 0
LINE
8
default
6
CONTINUOUS
10
      264.6111
20
     -193.0529
11
      266.4047
21
     -194.4770
39
 0
62
  7
 0
LINE
8
default
6
CONTINUOUS
10
     -264.6111
20
     -193.0529
11
     -266.4047
21
     -194.4770
39
 0
62
  7
 0
LINE
8
default
6
CONTINUOUS
10
      266.4047
20
     -194.4770
11
      268.1976
21
     -195.9020
39
 0
62
  7
 0
LINE
8
default
6
CONTINUOUS
10
     -266.4047
20
     -194.4770
11
     -268.1976
21
     -195.9020
39
 0
62
  7
 0
LINE
8
default
6
CONTINUOUS
10
      268.1976
20
     -195.9020
11
      269.9898
21
     -197.3281
39
 0
62
  7
 0
LINE
8
default
6
CONTINUOUS
10
     -268.1976
20
     -195.9020
11
     -269.9898
21
     -197.3281
39
 0
62
  7
 0
LINE
8
default
6
CONTINUOUS
10
      269.9898
20
     -197.3281
11
      271.7811
21
     -198.7551
39
 0
62
  7
 0
LINE
8
default
6
CONTINUOUS
10
     -269.9898
20
     -197.3281
11
     -271.7811
21
     -198.7551
39
 0
62
  7
 0
LINE
8
default
6
CONTINUOUS
10
      271.7811
20
     -198.7551
11
      273.5716
21
     -200.1832
39
 0
62
  7
 0
LINE
8
default
6
CONTINUOUS
10
     -271.7811
20
     -198.7551
11
     -273.5716
21
     -200.1832
39
 0
62
  7
 0
LINE
8
default
6
CONTINUOUS
10
      273.5716
20
     -200.1832
11
      275.3613
21
     -201.6123
39
 0
62
  7
 0
LINE
8
default
6
CONTINUOUS
10
     -273.5716
20
     -200.1832
11
     -275.3613
21
     -201.6123
39
 0
62
  7
 0
LINE
8
default
6
CONTINUOUS
10
      275.3613
20
     -201.6123
11
      277.1503
21
     -203.0424
39
 0
62
  7
 0
LINE
8
default
6
CONTINUOUS
10
     -275.3613
20
     -201.6123
11
     -277.1503
21
     -203.0424
39
 0
62
  7
 0
LINE
8
default
6
CONTINUOUS
10
      277.1503
20
     -203.0424
11
      278.9384
21
     -204.4735
39
 0
62
  7
 0
LINE
8
default
6
CONTINUOUS
10
     -277.1503
20
     -203.0424
11
     -278.9384
21
     -204.4735
39
 0
62
  7
 0
LINE
8
default
6
CONTINUOUS
10
      278.9384
20
     -204.4735
11
      280.7258
21
     -205.9055
39
 0
62
  7
 0
LINE
8
default
6
CONTINUOUS
10
     -278.9384
20
     -204.4735
11
     -280.7258
21
     -205.9055
39
 0
62
  7
 0
LINE
8
default
6
CONTINUOUS
10
      280.7258
20
     -205.9055
11
      282.5123
21
     -207.3386
39
 0
62
  7
 0
LINE
8
default
6
CONTINUOUS
10
     -280.7258
20
     -205.9055
11
     -282.5123
21
     -207.3386
39
 0
62
  7
 0
LINE
8
default
6
CONTINUOUS
10
      282.5123
20
     -207.3386
11
      284.2981
21
     -208.7727
39
 0
62
  7
 0
LINE
8
default
6
CONTINUOUS
10
     -282.5123
20
     -207.3386
11
     -284.2981
21
     -208.7727
39
 0
62
  7
 0
LINE
8
default
6
CONTINUOUS
10
      284.2981
20
     -208.7727
11
      286.0831
21
     -210.2079
39
 0
62
  7
 0
LINE
8
default
6
CONTINUOUS
10
     -284.2981
20
     -208.7727
11
     -286.0831
21
     -210.2079
39
 0
62
  7
 0
LINE
8
default
6
CONTINUOUS
10
      286.0831
20
     -210.2079
11
      287.8673
21
     -211.6440
39
 0
62
  7
 0
LINE
8
default
6
CONTINUOUS
10
     -286.0831
20
     -210.2079
11
     -287.8673
21
     -211.6440
39
 0
62
  7
 0
LINE
8
default
6
CONTINUOUS
10
      287.8673
20
     -211.6440
11
      289.6507
21
     -213.0811
39
 0
62
  7
 0
LINE
8
default
6
CONTINUOUS
10
     -287.8673
20
     -211.6440
11
     -289.6507
21
     -213.0811
39
 0
62
  7
 0
LINE
8
default
6
CONTINUOUS
10
      289.6507
20
     -213.0811
11
      291.4333
21
     -214.5192
39
 0
62
  7
 0
LINE
8
default
6
CONTINUOUS
10
     -289.6507
20
     -213.0811
11
     -291.4333
21
     -214.5192
39
 0
62
  7
 0
LINE
8
default
6
CONTINUOUS
10
      291.4333
20
     -214.5192
11
      293.2151
21
     -215.9583
39
 0
62
  7
 0
LINE
8
default
6
CONTINUOUS
10
     -291.4333
20
     -214.5192
11
     -293.2151
21
     -215.9583
39
 0
62
  7
 0
LINE
8
default
6
CONTINUOUS
10
      293.2151
20
     -215.9583
11
      294.9962
21
     -217.3985
39
 0
62
  7
 0
LINE
8
default
6
CONTINUOUS
10
     -293.2151
20
     -215.9583
11
     -294.9962
21
     -217.3985
39
 0
62
  7
 0
LINE
8
default
6
CONTINUOUS
10
      294.9962
20
     -217.3985
11
      296.7764
21
     -218.8396
39
 0
62
  7
 0
LINE
8
default
6
CONTINUOUS
10
     -294.9962
20
     -217.3985
11
     -296.7764
21
     -218.8396
39
 0
62
  7
 0
LINE
8
default
6
CONTINUOUS
10
      296.7764
20
     -218.8396
11
      298.5559
21
     -220.2817
39
 0
62
  7
 0
LINE
8
default
6
CONTINUOUS
10
     -296.7764
20
     -218.8396
11
     -298.5559
21
     -220.2817
39
 0
62
  7
 0
LINE
8
default
6
CONTINUOUS
10
      298.5559
20
     -220.2817
11
      300.3345
21
     -221.7249
39
 0
62
  7
 0
LINE
8
default
6
CONTINUOUS
10
     -298.5559
20
     -220.2817
11
     -300.3345
21
     -221.7249
39
 0
62
  7
 0
LINE
8
default
6
CONTINUOUS
10
      300.3345
20
     -221.7249
11
      302.1124
21
     -223.1690
39
 0
62
  7
 0
LINE
8
default
6
CONTINUOUS
10
     -300.3345
20
     -221.7249
11
     -302.1124
21
     -223.1690
39
 0
62
  7
 0
LINE
8
default
6
CONTINUOUS
10
      302.1124
20
     -223.1690
11
      303.8895
21
     -224.6142
39
 0
62
  7
 0
LINE
8
default
6
CONTINUOUS
10
     -302.1124
20
     -223.1690
11
     -303.8895
21
     -224.6142
39
 0
62
  7
 0
LINE
8
default
6
CONTINUOUS
10
      303.8895
20
     -224.6142
11
      305.6657
21
     -226.0604
39
 0
62
  7
 0
LINE
8
default
6
CONTINUOUS
10
     -303.8895
20
     -224.6142
11
     -305.6657
21
     -226.0604
39
 0
62
  7
 0
LINE
8
default
6
CONTINUOUS
10
      305.6657
20
     -226.0604
11
      307.4412
21
     -227.5075
39
 0
62
  7
 0
LINE
8
default
6
CONTINUOUS
10
     -305.6657
20
     -226.0604
11
     -307.4412
21
     -227.5075
39
 0
62
  7
 0
LINE
8
default
6
CONTINUOUS
10
      307.4412
20
     -227.5075
11
      309.2159
21
     -228.9557
39
 0
62
  7
 0
LINE
8
default
6
CONTINUOUS
10
     -307.4412
20
     -227.5075
11
     -309.2159
21
     -228.9557
39
 0
62
  7
 0
LINE
8
default
6
CONTINUOUS
10
      309.2159
20
     -228.9557
11
      310.9898
21
     -230.4049
39
 0
62
  7
 0
LINE
8
default
6
CONTINUOUS
10
     -309.2159
20
     -228.9557
11
     -310.9898
21
     -230.4049
39
 0
62
  7
 0
LINE
8
default
6
CONTINUOUS
10
      310.9898
20
     -230.4049
11
      312.7630
21
     -231.8551
39
 0
62
  7
 0
LINE
8
default
6
CONTINUOUS
10
     -310.9898
20
     -230.4049
11
     -312.7630
21
     -231.8551
39
 0
62
  7
 0
LINE
8
default
6
CONTINUOUS
10
      312.7630
20
     -231.8551
11
      314.5353
21
     -233.3063
39
 0
62
  7
 0
LINE
8
default
6
CONTINUOUS
10
     -312.7630
20
     -231.8551
11
     -314.5353
21
     -233.3063
39
 0
62
  7
 0
LINE
8
default
6
CONTINUOUS
10
      314.5353
20
     -233.3063
11
      316.3068
21
     -234.7585
39
 0
62
  7
 0
LINE
8
default
6
CONTINUOUS
10
     -314.5353
20
     -233.3063
11
     -316.3068
21
     -234.7585
39
 0
62
  7
 0
LINE
8
default
6
CONTINUOUS
10
      316.3068
20
     -234.7585
11
      318.0776
21
     -236.2117
39
 0
62
  7
 0
LINE
8
default
6
CONTINUOUS
10
     -316.3068
20
     -234.7585
11
     -318.0776
21
     -236.2117
39
 0
62
  7
 0
LINE
8
default
6
CONTINUOUS
10
      318.0776
20
     -236.2117
11
      319.8475
21
     -237.6659
39
 0
62
  7
 0
LINE
8
default
6
CONTINUOUS
10
     -318.0776
20
     -236.2117
11
     -319.8475
21
     -237.6659
39
 0
62
  7
 0
LINE
8
default
6
CONTINUOUS
10
      319.8475
20
     -237.6659
11
      321.6167
21
     -239.1211
39
 0
62
  7
 0
LINE
8
default
6
CONTINUOUS
10
     -319.8475
20
     -237.6659
11
     -321.6167
21
     -239.1211
39
 0
62
  7
 0
LINE
8
default
6
CONTINUOUS
10
      321.6167
20
     -239.1211
11
      323.3850
21
     -240.5773
39
 0
62
  7
 0
LINE
8
default
6
CONTINUOUS
10
     -321.6167
20
     -239.1211
11
     -323.3850
21
     -240.5773
39
 0
62
  7
 0
LINE
8
default
6
CONTINUOUS
10
      323.3850
20
     -240.5773
11
      325.1526
21
     -242.0345
39
 0
62
  7
 0
LINE
8
default
6
CONTINUOUS
10
     -323.3850
20
     -240.5773
11
     -325.1526
21
     -242.0345
39
 0
62
  7
 0
LINE
8
default
6
CONTINUOUS
10
      325.1526
20
     -242.0345
11
      326.9194
21
     -243.4928
39
 0
62
  7
 0
LINE
8
default
6
CONTINUOUS
10
     -325.1526
20
     -242.0345
11
     -326.9194
21
     -243.4928
39
 0
62
  7
 0
LINE
8
default
6
CONTINUOUS
10
      326.9194
20
     -243.4928
11
      328.6854
21
     -244.9520
39
 0
62
  7
 0
LINE
8
default
6
CONTINUOUS
10
     -326.9194
20
     -243.4928
11
     -328.6854
21
     -244.9520
39
 0
62
  7
 0
LINE
8
default
6
CONTINUOUS
10
      328.6854
20
     -244.9520
11
      330.4506
21
     -246.4122
39
 0
62
  7
 0
LINE
8
default
6
CONTINUOUS
10
     -328.6854
20
     -244.9520
11
     -330.4506
21
     -246.4122
39
 0
62
  7
 0
LINE
8
default
6
CONTINUOUS
10
      330.4506
20
     -246.4122
11
      332.2150
21
     -247.8735
39
 0
62
  7
 0
LINE
8
default
6
CONTINUOUS
10
     -330.4506
20
     -246.4122
11
     -332.2150
21
     -247.8735
39
 0
62
  7
 0
LINE
8
default
6
CONTINUOUS
10
      332.2150
20
     -247.8735
11
      333.9786
21
     -249.3357
39
 0
62
  7
 0
LINE
8
default
6
CONTINUOUS
10
     -332.2150
20
     -247.8735
11
     -333.9786
21
     -249.3357
39
 0
62
  7
 0
LINE
8
default
6
CONTINUOUS
10
      333.9786
20
     -249.3357
11
      335.7415
21
     -250.7990
39
 0
62
  7
 0
LINE
8
default
6
CONTINUOUS
10
     -333.9786
20
     -249.3357
11
     -335.7415
21
     -250.7990
39
 0
62
  7
 0
LINE
8
default
6
CONTINUOUS
10
      335.7415
20
     -250.7990
11
      337.5035
21
     -252.2632
39
 0
62
  7
 0
LINE
8
default
6
CONTINUOUS
10
     -335.7415
20
     -250.7990
11
     -337.5035
21
     -252.2632
39
 0
62
  7
 0
LINE
8
default
6
CONTINUOUS
10
      337.5035
20
     -252.2632
11
      339.2647
21
     -253.7285
39
 0
62
  7
 0
LINE
8
default
6
CONTINUOUS
10
     -337.5035
20
     -252.2632
11
     -339.2647
21
     -253.7285
39
 0
62
  7
 0
LINE
8
default
6
CONTINUOUS
10
      339.2647
20
     -253.7285
11
      341.0252
21
     -255.1948
39
 0
62
  7
 0
LINE
8
default
6
CONTINUOUS
10
     -339.2647
20
     -253.7285
11
     -341.0252
21
     -255.1948
39
 0
62
  7
 0
LINE
8
default
6
CONTINUOUS
10
      341.0252
20
     -255.1948
11
      342.7849
21
     -256.6621
39
 0
62
  7
 0
LINE
8
default
6
CONTINUOUS
10
     -341.0252
20
     -255.1948
11
     -342.7849
21
     -256.6621
39
 0
62
  7
 0
LINE
8
default
6
CONTINUOUS
10
      342.7849
20
     -256.6621
11
      344.5437
21
     -258.1303
39
 0
62
  7
 0
LINE
8
default
6
CONTINUOUS
10
     -342.7849
20
     -256.6621
11
     -344.5437
21
     -258.1303
39
 0
62
  7
 0
LINE
8
default
6
CONTINUOUS
10
      344.5437
20
     -258.1303
11
      346.3018
21
     -259.5996
39
 0
62
  7
 0
LINE
8
default
6
CONTINUOUS
10
     -344.5437
20
     -258.1303
11
     -346.3018
21
     -259.5996
39
 0
62
  7
 0
LINE
8
default
6
CONTINUOUS
10
      346.3018
20
     -259.5996
11
      348.0591
21
     -261.0699
39
 0
62
  7
 0
LINE
8
default
6
CONTINUOUS
10
     -346.3018
20
     -259.5996
11
     -348.0591
21
     -261.0699
39
 0
62
  7
 0
LINE
8
default
6
CONTINUOUS
10
      348.0591
20
     -261.0699
11
      349.8156
21
     -262.5412
39
 0
62
  7
 0
LINE
8
default
6
CONTINUOUS
10
     -348.0591
20
     -261.0699
11
     -349.8156
21
     -262.5412
39
 0
62
  7
 0
LINE
8
default
6
CONTINUOUS
10
      349.8156
20
     -262.5412
11
      351.5713
21
     -264.0135
39
 0
62
  7
 0
LINE
8
default
6
CONTINUOUS
10
     -349.8156
20
     -262.5412
11
     -351.5713
21
     -264.0135
39
 0
62
  7
 0
LINE
8
default
6
CONTINUOUS
10
      351.5713
20
     -264.0135
11
      353.3262
21
     -265.4868
39
 0
62
  7
 0
LINE
8
default
6
CONTINUOUS
10
     -351.5713
20
     -264.0135
11
     -353.3262
21
     -265.4868
39
 0
62
  7
 0
LINE
8
default
6
CONTINUOUS
10
      353.3262
20
     -265.4868
11
      355.0804
21
     -266.9611
39
 0
62
  7
 0
LINE
8
default
6
CONTINUOUS
10
     -353.3262
20
     -265.4868
11
     -355.0804
21
     -266.9611
39
 0
62
  7
 0
LINE
8
default
6
CONTINUOUS
10
      355.0804
20
     -266.9611
11
      356.8337
21
     -268.4365
39
 0
62
  7
 0
LINE
8
default
6
CONTINUOUS
10
     -355.0804
20
     -266.9611
11
     -356.8337
21
     -268.4365
39
 0
62
  7
 0
LINE
8
default
6
CONTINUOUS
10
      356.8337
20
     -268.4365
11
      358.5862
21
     -269.9128
39
 0
62
  7
 0
LINE
8
default
6
CONTINUOUS
10
     -356.8337
20
     -268.4365
11
     -358.5862
21
     -269.9128
39
 0
62
  7
 0
LINE
8
default
6
CONTINUOUS
10
      358.5862
20
     -269.9128
11
      360.3380
21
     -271.3901
39
 0
62
  7
 0
LINE
8
default
6
CONTINUOUS
10
     -358.5862
20
     -269.9128
11
     -360.3380
21
     -271.3901
39
 0
62
  7
 0
LINE
8
default
6
CONTINUOUS
10
      360.3380
20
     -271.3901
11
      362.0890
21
     -272.8685
39
 0
62
  7
 0
LINE
8
default
6
CONTINUOUS
10
     -360.3380
20
     -271.3901
11
     -362.0890
21
     -272.8685
39
 0
62
  7
 0
LINE
8
default
6
CONTINUOUS
10
      362.0890
20
     -272.8685
11
      363.8391
21
     -274.3478
39
 0
62
  7
 0
LINE
8
default
6
CONTINUOUS
10
     -362.0890
20
     -272.8685
11
     -363.8391
21
     -274.3478
39
 0
62
  7
 0
LINE
8
default
6
CONTINUOUS
10
      363.8391
20
     -274.3478
11
      365.5885
21
     -275.8281
39
 0
62
  7
 0
LINE
8
default
6
CONTINUOUS
10
     -363.8391
20
     -274.3478
11
     -365.5885
21
     -275.8281
39
 0
62
  7
 0
LINE
8
default
6
CONTINUOUS
10
      365.5885
20
     -275.8281
11
      367.3371
21
     -277.3095
39
 0
62
  7
 0
LINE
8
default
6
CONTINUOUS
10
     -365.5885
20
     -275.8281
11
     -367.3371
21
     -277.3095
39
 0
62
  7
 0
LINE
8
default
6
CONTINUOUS
10
      367.3371
20
     -277.3095
11
      369.0849
21
     -278.7918
39
 0
62
  7
 0
LINE
8
default
6
CONTINUOUS
10
     -367.3371
20
     -277.3095
11
     -369.0849
21
     -278.7918
39
 0
62
  7
 0
LINE
8
default
6
CONTINUOUS
10
      369.0849
20
     -278.7918
11
      370.8319
21
     -280.2752
39
 0
62
  7
 0
LINE
8
default
6
CONTINUOUS
10
     -369.0849
20
     -278.7918
11
     -370.8319
21
     -280.2752
39
 0
62
  7
 0
LINE
8
default
6
CONTINUOUS
10
      370.8319
20
     -280.2752
11
      372.5781
21
     -281.7596
39
 0
62
  7
 0
LINE
8
default
6
CONTINUOUS
10
     -370.8319
20
     -280.2752
11
     -372.5781
21
     -281.7596
39
 0
62
  7
 0
LINE
8
default
6
CONTINUOUS
10
      372.5781
20
     -281.7596
11
      374.3235
21
     -283.2449
39
 0
62
  7
 0
LINE
8
default
6
CONTINUOUS
10
     -372.5781
20
     -281.7596
11
     -374.3235
21
     -283.2449
39
 0
62
  7
 0
LINE
8
default
6
CONTINUOUS
10
      374.3235
20
     -283.2449
11
      376.0681
21
     -284.7313
39
 0
62
  7
 0
LINE
8
default
6
CONTINUOUS
10
     -374.3235
20
     -283.2449
11
     -376.0681
21
     -284.7313
39
 0
62
  7
 0
LINE
8
default
6
CONTINUOUS
10
      376.0681
20
     -284.7313
11
      377.8120
21
     -286.2187
39
 0
62
  7
 0
LINE
8
default
6
CONTINUOUS
10
     -376.0681
20
     -284.7313
11
     -377.8120
21
     -286.2187
39
 0
62
  7
 0
LINE
8
default
6
CONTINUOUS
10
      377.8120
20
     -286.2187
11
      379.5550
21
     -287.7071
39
 0
62
  7
 0
LINE
8
default
6
CONTINUOUS
10
     -377.8120
20
     -286.2187
11
     -379.5550
21
     -287.7071
39
 0
62
  7
 0
LINE
8
default
6
CONTINUOUS
10
      379.5550
20
     -287.7071
11
      381.2973
21
     -289.1965
39
 0
62
  7
 0
LINE
8
default
6
CONTINUOUS
10
     -379.5550
20
     -287.7071
11
     -381.2973
21
     -289.1965
39
 0
62
  7
 0
LINE
8
default
6
CONTINUOUS
10
      381.2973
20
     -289.1965
11
      383.0388
21
     -290.6869
39
 0
62
  7
 0
LINE
8
default
6
CONTINUOUS
10
     -381.2973
20
     -289.1965
11
     -383.0388
21
     -290.6869
39
 0
62
  7
 0
LINE
8
default
6
CONTINUOUS
10
      383.0388
20
     -290.6869
11
      384.7794
21
     -292.1783
39
 0
62
  7
 0
LINE
8
default
6
CONTINUOUS
10
     -383.0388
20
     -290.6869
11
     -384.7794
21
     -292.1783
39
 0
62
  7
 0
LINE
8
default
6
CONTINUOUS
10
      384.7794
20
     -292.1783
11
      386.5193
21
     -293.6707
39
 0
62
  7
 0
LINE
8
default
6
CONTINUOUS
10
     -384.7794
20
     -292.1783
11
     -386.5193
21
     -293.6707
39
 0
62
  7
 0
LINE
8
default
6
CONTINUOUS
10
      386.5193
20
     -293.6707
11
      388.2584
21
     -295.1641
39
 0
62
  7
 0
LINE
8
default
6
CONTINUOUS
10
     -386.5193
20
     -293.6707
11
     -388.2584
21
     -295.1641
39
 0
62
  7
 0
LINE
8
default
6
CONTINUOUS
10
      388.2584
20
     -295.1641
11
      389.9967
21
     -296.6585
39
 0
62
  7
 0
LINE
8
default
6
CONTINUOUS
10
     -388.2584
20
     -295.1641
11
     -389.9967
21
     -296.6585
39
 0
62
  7
 0
LINE
8
default
6
CONTINUOUS
10
      389.9967
20
     -296.6585
11
      391.7342
21
     -298.1540
39
 0
62
  7
 0
LINE
8
default
6
CONTINUOUS
10
     -389.9967
20
     -296.6585
11
     -391.7342
21
     -298.1540
39
 0
62
  7
 0
LINE
8
default
6
CONTINUOUS
10
      391.7342
20
     -298.1540
11
      393.4709
21
     -299.6504
39
 0
62
  7
 0
LINE
8
default
6
CONTINUOUS
10
     -391.7342
20
     -298.1540
11
     -393.4709
21
     -299.6504
39
 0
62
  7
 0
LINE
8
default
6
CONTINUOUS
10
      393.4709
20
     -299.6504
11
      395.2069
21
     -301.1478
39
 0
62
  7
 0
LINE
8
default
6
CONTINUOUS
10
     -393.4709
20
     -299.6504
11
     -395.2069
21
     -301.1478
39
 0
62
  7
 0
LINE
8
default
6
CONTINUOUS
10
      395.2069
20
     -301.1478
11
      396.9420
21
     -302.6463
39
 0
62
  7
 0
LINE
8
default
6
CONTINUOUS
10
     -395.2069
20
     -301.1478
11
     -396.9420
21
     -302.6463
39
 0
62
  7
 0
LINE
8
default
6
CONTINUOUS
10
      396.9420
20
     -302.6463
11
      398.6763
21
     -304.1457
39
 0
62
  7
 0
LINE
8
default
6
CONTINUOUS
10
     -396.9420
20
     -302.6463
11
     -398.6763
21
     -304.1457
39
 0
62
  7
 0
LINE
8
default
6
CONTINUOUS
10
      398.6763
20
     -304.1457
11
      400.4099
21
     -305.6462
39
 0
62
  7
 0
LINE
8
default
6
CONTINUOUS
10
     -398.6763
20
     -304.1457
11
     -400.4099
21
     -305.6462
39
 0
62
  7
 0
LINE
8
default
6
CONTINUOUS
10
      400.4099
20
     -305.6462
11
      402.1426
21
     -307.1476
39
 0
62
  7
 0
LINE
8
default
6
CONTINUOUS
10
     -400.4099
20
     -305.6462
11
     -402.1426
21
     -307.1476
39
 0
62
  7
 0
LINE
8
default
6
CONTINUOUS
10
      402.1426
20
     -307.1476
11
      403.8746
21
     -308.6501
39
 0
62
  7
 0
LINE
8
default
6
CONTINUOUS
10
     -402.1426
20
     -307.1476
11
     -403.8746
21
     -308.6501
39
 0
62
  7
 0
LINE
8
default
6
CONTINUOUS
10
      403.8746
20
     -308.6501
11
      405.6058
21
     -310.1536
39
 0
62
  7
 0
LINE
8
default
6
CONTINUOUS
10
     -403.8746
20
     -308.6501
11
     -405.6058
21
     -310.1536
39
 0
62
  7
 0
LINE
8
default
6
CONTINUOUS
10
      405.6058
20
     -310.1536
11
      407.3362
21
     -311.6580
39
 0
62
  7
 0
LINE
8
default
6
CONTINUOUS
10
     -405.6058
20
     -310.1536
11
     -407.3362
21
     -311.6580
39
 0
62
  7
 0
LINE
8
default
6
CONTINUOUS
10
      407.3362
20
     -311.6580
11
      409.0658
21
     -313.1635
39
 0
62
  7
 0
LINE
8
default
6
CONTINUOUS
10
     -407.3362
20
     -311.6580
11
     -409.0658
21
     -313.1635
39
 0
62
  7
 0
LINE
8
default
6
CONTINUOUS
10
      409.0658
20
     -313.1635
11
      410.7946
21
     -314.6700
39
 0
62
  7
 0
LINE
8
default
6
CONTINUOUS
10
     -409.0658
20
     -313.1635
11
     -410.7946
21
     -314.6700
39
 0
62
  7
 0
LINE
8
default
6
CONTINUOUS
10
      410.7946
20
     -314.6700
11
      412.5226
21
     -316.1775
39
 0
62
  7
 0
LINE
8
default
6
CONTINUOUS
10
     -410.7946
20
     -314.6700
11
     -412.5226
21
     -316.1775
39
 0
62
  7
 0
LINE
8
default
6
CONTINUOUS
10
      412.5226
20
     -316.1775
11
      414.2498
21
     -317.6860
39
 0
62
  7
 0
LINE
8
default
6
CONTINUOUS
10
     -412.5226
20
     -316.1775
11
     -414.2498
21
     -317.6860
39
 0
62
  7
 0
LINE
8
default
6
CONTINUOUS
10
      414.2498
20
     -317.6860
11
      415.9762
21
     -319.1955
39
 0
62
  7
 0
LINE
8
default
6
CONTINUOUS
10
     -414.2498
20
     -317.6860
11
     -415.9762
21
     -319.1955
39
 0
62
  7
 0
LINE
8
default
6
CONTINUOUS
10
      415.9762
20
     -319.1955
11
      417.7019
21
     -320.7060
39
 0
62
  7
 0
LINE
8
default
6
CONTINUOUS
10
     -415.9762
20
     -319.1955
11
     -417.7019
21
     -320.7060
39
 0
62
  7
 0
LINE
8
default
6
CONTINUOUS
10
      417.7019
20
     -320.7060
11
      419.4267
21
     -322.2175
39
 0
62
  7
 0
LINE
8
default
6
CONTINUOUS
10
     -417.7019
20
     -320.7060
11
     -419.4267
21
     -322.2175
39
 0
62
  7
 0
LINE
8
default
6
CONTINUOUS
10
      419.4267
20
     -322.2175
11
      421.1508
21
     -323.7300
39
 0
62
  7
 0
LINE
8
default
6
CONTINUOUS
10
     -419.4267
20
     -322.2175
11
     -421.1508
21
     -323.7300
39
 0
62
  7
 0
LINE
8
default
6
CONTINUOUS
10
      421.1508
20
     -323.7300
11
      422.8740
21
     -325.2435
39
 0
62
  7
 0
LINE
8
default
6
CONTINUOUS
10
     -421.1508
20
     -323.7300
11
     -422.8740
21
     -325.2435
39
 0
62
  7
 0
LINE
8
default
6
CONTINUOUS
10
      422.8740
20
     -325.2435
11
      424.5965
21
     -326.7580
39
 0
62
  7
 0
LINE
8
default
6
CONTINUOUS
10
     -422.8740
20
     -325.2435
11
     -424.5965
21
     -326.7580
39
 0
62
  7
 0
LINE
8
default
6
CONTINUOUS
10
      424.5965
20
     -326.7580
11
      426.1737
21
     -328.1464
39
 0
62
  7
 0
LINE
8
default
6
CONTINUOUS
10
     -424.5965
20
     -326.7580
11
     -426.1737
21
     -328.1464
39
 0
62
  7
 0
LINE
8
default
6
CONTINUOUS
10
        0.0000
20
       -0.0000
11
        0.0000
21
     -370.5284
39
 0
62
  7
 0
LINE
8
default
6
CONTINUOUS
10
      251.9725
20
     -183.0651
11
        0.0000
21
     -155.5300
39
 0
62
  7
 0
LINE
8
default
6
CONTINUOUS
10
     -251.9725
20
     -183.0651
11
       -0.0000
21
     -155.5300
39
 0
62
  7
 0
LINE
8
default
6
CONTINUOUS
10
        0.0000
20
     -315.0000
11
       40.0000
21
     -317.1210
39
 0
62
  5
 0
LINE
8
default
6
CONTINUOUS
10
       -0.0000
20
     -315.0000
11
      -40.0000
21
     -317.1210
39
 0
62
  5
 0
LINE
8
default
6
CONTINUOUS
10
       40.0000
20
     -317.1210
11
      119.0000
21
     -328.4715
39
 0
62
  5
 0
LINE
8
default
6
CONTINUOUS
10
      -40.0000
20
     -317.1210
11
     -119.0000
21
     -328.4715
39
 0
62
  5
 0
LINE
8
default
6
CONTINUOUS
10
      119.0000
20
     -328.4715
11
      203.0000
21
     -348.6296
39
 0
62
  5
 0
LINE
8
default
6
CONTINUOUS
10
     -119.0000
20
     -328.4715
11
     -203.0000
21
     -348.6296
39
 0
62
  5
 0
LINE
8
default
6
CONTINUOUS
10
      203.0000
20
     -348.6296
11
      287.0000
21
     -367.2366
39
 0
62
  5
 0
LINE
8
default
6
CONTINUOUS
10
     -203.0000
20
     -348.6296
11
     -287.0000
21
     -367.2366
39
 0
62
  5
 0
LINE
8
default
6
CONTINUOUS
10
      287.0000
20
     -367.2366
11
      366.0000
21
     -363.0520
39
 0
62
  5
 0
LINE
8
default
6
CONTINUOUS
10
     -287.0000
20
     -367.2366
11
     -366.0000
21
     -363.0520
39
 0
62
  5
 0
LINE
8
default
6
CONTINUOUS
10
      366.0000
20
     -363.0520
11
      415.6122
21
     -342.2625
39
 0
62
  5
 0
LINE
8
default
6
CONTINUOUS
10
     -366.0000
20
     -363.0520
11
     -415.6122
21
     -342.2625
39
 0
62
  5
 0
LINE
8
default
6
CONTINUOUS
10
      415.6122
20
     -342.2625
11
      426.1737
21
     -328.1464
39
 0
62
  5
 0
LINE
8
default
6
CONTINUOUS
10
     -415.6122
20
     -342.2625
11
     -426.1737
21
     -328.1464
39
 0
62
  5
 0
LINE
8
default
6
CONTINUOUS
10
       40.0000
20
     -317.1210
11
       40.0000
21
      -27.1185
39
 0
62
 30
 0
LINE
8
default
6
CONTINUOUS
10
      -40.0000
20
     -317.1210
11
      -40.0000
21
      -27.1185
39
 0
62
 30
 0
LINE
8
default
6
CONTINUOUS
10
      119.0000
20
     -328.4715
11
      119.0000
21
      -82.7684
39
 0
62
 30
 0
LINE
8
default
6
CONTINUOUS
10
     -119.0000
20
     -328.4715
11
     -119.0000
21
      -82.7684
39
 0
62
 30
 0
LINE
8
default
6
CONTINUOUS
10
      203.0000
20
     -348.6296
11
      203.0000
21
     -145.1237
39
 0
62
 30
 0
LINE
8
default
6
CONTINUOUS
10
     -203.0000
20
     -348.6296
11
     -203.0000
21
     -145.1237
39
 0
62
 30
 0
LINE
8
default
6
CONTINUOUS
10
      287.0000
20
     -367.2366
11
      287.0000
21
     -210.9459
39
 0
62
 30
 0
LINE
8
default
6
CONTINUOUS
10
     -287.0000
20
     -367.2366
11
     -287.0000
21
     -210.9459
39
 0
62
 30
 0
LINE
8
default
6
CONTINUOUS
10
      366.0000
20
     -363.0520
11
      366.0000
21
     -276.1767
39
 0
62
 30
 0
LINE
8
default
6
CONTINUOUS
10
     -366.0000
20
     -363.0520
11
     -366.0000
21
     -276.1767
39
 0
62
 30
 0
LINE
8
default
6
CONTINUOUS
10
      415.6122
20
     -342.2625
11
      393.3962
21
     -299.5860
39
 0
62
 30
 0
LINE
8
default
6
CONTINUOUS
10
     -415.6122
20
     -342.2625
11
     -393.3962
21
     -299.5860
39
 0
62
 30
 0
LINE
8
default
6
CONTINUOUS
10
      403.5877
20
     -308.4012
11
      356.4072
21
     -362.7887
39
 0
62
  3
 0
LINE
8
default
6
CONTINUOUS
10
     -403.5877
20
     -308.4012
11
     -356.4072
21
     -362.7887
39
 0
62
  3
 0
LINE
8
default
6
CONTINUOUS
10
       -5.0000
20
     -198.9300
11
        5.0000
21
     -198.9300
39
 0
62
  1
 0
LINE
8
default
6
CONTINUOUS
10
       -5.0000
20
     -198.9300
11
        5.0000
21
     -198.9300
39
 0
62
  4
 0
LINE
8
default
6
CONTINUOUS
10
       -5.0000
20
     -332.3300
11
        5.0000
21
     -332.3300
39
 0
62
  3
 0
TEXT
5
10A38
8
0
6
CONTINUOUS
62
  7
10
     -304.82
20
       -0.00
30
        0.00
40
        8.00
 1
LEHG-0.11                                         
50
        0.00
0
TEXT
5
10A38
8
0
6
CONTINUOUS
62
  7
10
     -304.82
20
      -14.00
30
        0.00
40
        8.00
 1
Laboratori d'envol                                
50
        0.00
0
TEXT
5
10A38
8
0
6
CONTINUOUS
62
  7
10
     -304.82
20
      -28.00
30
        0.00
40
        8.00
 1
gnuAlpha                                          
50
        0.00
0
TEXT
5
10A38
8
0
6
CONTINUOUS
62
  7
10
     -304.82
20
      -42.00
30
        0.00
40
        8.00
 1
Angle 108.0 deg                                   
50
        0.00
0
TEXT
5
10A38
8
0
6
CONTINUOUS
62
  7
10
     -304.82
20
      -56.00
30
        0.00
40
        8.00
 1
Span  8.52 m                                      
50
        0.00
0
TEXT
5
10A38
8
0
6
CONTINUOUS
62
  7
10
     -304.82
20
      -70.00
30
        0.00
40
        8.00
 1
AR    4.56                                        
50
        0.00
0
TEXT
5
10A38
8
0
6
CONTINUOUS
62
  7
10
     -304.82
20
      -84.00
30
        0.00
40
        8.00
 1
Area 15.94 m2                                     
50
        0.00
0
ENDSEC
0
EOF
