0
SECTION
2
HEADER
9
$EXTMAX
10
    -670.000
20
   -3630.000
9
$EXTMIN
10
    7000.000
20
     120.000
0
ENDSEC
0
SECTION
2
ENTITIES
0
LINE
8
default
6
CONTINUOUS
10
     -620.0000
20
      135.0000
11
      620.0000
21
      135.0000
39
 0
62
  9
 0
LINE
8
default
6
CONTINUOUS
10
     -620.0000
20
      135.0000
11
     -620.0000
21
     -776.0000
39
 0
62
  9
 0
LINE
8
default
6
CONTINUOUS
10
      620.0000
20
     -776.0000
11
      620.0000
21
      135.0000
39
 0
62
  9
 0
LINE
8
default
6
CONTINUOUS
10
     -620.0000
20
     -776.0000
11
      620.0000
21
     -776.0000
39
 0
62
  9
 0
LINE
8
default
6
CONTINUOUS
10
        0.0000
20
       -0.0000
11
      478.7778
21
     -401.7423
39
 0
62
 53
 0
LINE
8
default
6
CONTINUOUS
10
       -0.0000
20
       -0.0000
11
     -478.7778
21
     -401.7423
39
 0
62
 53
 0
LINE
8
default
6
CONTINUOUS
10
       -0.0000
20
        0.0000
11
        2.4753
21
       -2.2336
39
 0
62
  7
 0
LINE
8
default
6
CONTINUOUS
10
        0.0000
20
        0.0000
11
       -2.4753
21
       -2.2336
39
 0
62
  7
 0
LINE
8
default
6
CONTINUOUS
10
        2.4753
20
       -2.2336
11
        4.9522
21
       -4.4654
39
 0
62
  7
 0
LINE
8
default
6
CONTINUOUS
10
       -2.4753
20
       -2.2336
11
       -4.9522
21
       -4.4654
39
 0
62
  7
 0
LINE
8
default
6
CONTINUOUS
10
        4.9522
20
       -4.4654
11
        7.4307
21
       -6.6954
39
 0
62
  7
 0
LINE
8
default
6
CONTINUOUS
10
       -4.9522
20
       -4.4654
11
       -7.4307
21
       -6.6954
39
 0
62
  7
 0
LINE
8
default
6
CONTINUOUS
10
        7.4307
20
       -6.6954
11
        9.9109
21
       -8.9235
39
 0
62
  7
 0
LINE
8
default
6
CONTINUOUS
10
       -7.4307
20
       -6.6954
11
       -9.9109
21
       -8.9235
39
 0
62
  7
 0
LINE
8
default
6
CONTINUOUS
10
        9.9109
20
       -8.9235
11
       12.3927
21
      -11.1499
39
 0
62
  7
 0
LINE
8
default
6
CONTINUOUS
10
       -9.9109
20
       -8.9235
11
      -12.3927
21
      -11.1499
39
 0
62
  7
 0
LINE
8
default
6
CONTINUOUS
10
       12.3927
20
      -11.1499
11
       14.8762
21
      -13.3744
39
 0
62
  7
 0
LINE
8
default
6
CONTINUOUS
10
      -12.3927
20
      -11.1499
11
      -14.8762
21
      -13.3744
39
 0
62
  7
 0
LINE
8
default
6
CONTINUOUS
10
       14.8762
20
      -13.3744
11
       17.3613
21
      -15.5971
39
 0
62
  7
 0
LINE
8
default
6
CONTINUOUS
10
      -14.8762
20
      -13.3744
11
      -17.3613
21
      -15.5971
39
 0
62
  7
 0
LINE
8
default
6
CONTINUOUS
10
       17.3613
20
      -15.5971
11
       19.8480
21
      -17.8179
39
 0
62
  7
 0
LINE
8
default
6
CONTINUOUS
10
      -17.3613
20
      -15.5971
11
      -19.8480
21
      -17.8179
39
 0
62
  7
 0
LINE
8
default
6
CONTINUOUS
10
       19.8480
20
      -17.8179
11
       22.3364
21
      -20.0370
39
 0
62
  7
 0
LINE
8
default
6
CONTINUOUS
10
      -19.8480
20
      -17.8179
11
      -22.3364
21
      -20.0370
39
 0
62
  7
 0
LINE
8
default
6
CONTINUOUS
10
       22.3364
20
      -20.0370
11
       24.8264
21
      -22.2542
39
 0
62
  7
 0
LINE
8
default
6
CONTINUOUS
10
      -22.3364
20
      -20.0370
11
      -24.8264
21
      -22.2542
39
 0
62
  7
 0
LINE
8
default
6
CONTINUOUS
10
       24.8264
20
      -22.2542
11
       27.3180
21
      -24.4695
39
 0
62
  7
 0
LINE
8
default
6
CONTINUOUS
10
      -24.8264
20
      -22.2542
11
      -27.3180
21
      -24.4695
39
 0
62
  7
 0
LINE
8
default
6
CONTINUOUS
10
       27.3180
20
      -24.4695
11
       29.8112
21
      -26.6831
39
 0
62
  7
 0
LINE
8
default
6
CONTINUOUS
10
      -27.3180
20
      -24.4695
11
      -29.8112
21
      -26.6831
39
 0
62
  7
 0
LINE
8
default
6
CONTINUOUS
10
       29.8112
20
      -26.6831
11
       32.3061
21
      -28.8948
39
 0
62
  7
 0
LINE
8
default
6
CONTINUOUS
10
      -29.8112
20
      -26.6831
11
      -32.3061
21
      -28.8948
39
 0
62
  7
 0
LINE
8
default
6
CONTINUOUS
10
       32.3061
20
      -28.8948
11
       34.8026
21
      -31.1047
39
 0
62
  7
 0
LINE
8
default
6
CONTINUOUS
10
      -32.3061
20
      -28.8948
11
      -34.8026
21
      -31.1047
39
 0
62
  7
 0
LINE
8
default
6
CONTINUOUS
10
       34.8026
20
      -31.1047
11
       37.3007
21
      -33.3127
39
 0
62
  7
 0
LINE
8
default
6
CONTINUOUS
10
      -34.8026
20
      -31.1047
11
      -37.3007
21
      -33.3127
39
 0
62
  7
 0
LINE
8
default
6
CONTINUOUS
10
       37.3007
20
      -33.3127
11
       39.8004
21
      -35.5189
39
 0
62
  7
 0
LINE
8
default
6
CONTINUOUS
10
      -37.3007
20
      -33.3127
11
      -39.8004
21
      -35.5189
39
 0
62
  7
 0
LINE
8
default
6
CONTINUOUS
10
       39.8004
20
      -35.5189
11
       42.3017
21
      -37.7233
39
 0
62
  7
 0
LINE
8
default
6
CONTINUOUS
10
      -39.8004
20
      -35.5189
11
      -42.3017
21
      -37.7233
39
 0
62
  7
 0
LINE
8
default
6
CONTINUOUS
10
       42.3017
20
      -37.7233
11
       44.8047
21
      -39.9258
39
 0
62
  7
 0
LINE
8
default
6
CONTINUOUS
10
      -42.3017
20
      -37.7233
11
      -44.8047
21
      -39.9258
39
 0
62
  7
 0
LINE
8
default
6
CONTINUOUS
10
       44.8047
20
      -39.9258
11
       47.3093
21
      -42.1265
39
 0
62
  7
 0
LINE
8
default
6
CONTINUOUS
10
      -44.8047
20
      -39.9258
11
      -47.3093
21
      -42.1265
39
 0
62
  7
 0
LINE
8
default
6
CONTINUOUS
10
       47.3093
20
      -42.1265
11
       49.8155
21
      -44.3254
39
 0
62
  7
 0
LINE
8
default
6
CONTINUOUS
10
      -47.3093
20
      -42.1265
11
      -49.8155
21
      -44.3254
39
 0
62
  7
 0
LINE
8
default
6
CONTINUOUS
10
       49.8155
20
      -44.3254
11
       52.3233
21
      -46.5224
39
 0
62
  7
 0
LINE
8
default
6
CONTINUOUS
10
      -49.8155
20
      -44.3254
11
      -52.3233
21
      -46.5224
39
 0
62
  7
 0
LINE
8
default
6
CONTINUOUS
10
       52.3233
20
      -46.5224
11
       54.8328
21
      -48.7176
39
 0
62
  7
 0
LINE
8
default
6
CONTINUOUS
10
      -52.3233
20
      -46.5224
11
      -54.8328
21
      -48.7176
39
 0
62
  7
 0
LINE
8
default
6
CONTINUOUS
10
       54.8328
20
      -48.7176
11
       57.3438
21
      -50.9109
39
 0
62
  7
 0
LINE
8
default
6
CONTINUOUS
10
      -54.8328
20
      -48.7176
11
      -57.3438
21
      -50.9109
39
 0
62
  7
 0
LINE
8
default
6
CONTINUOUS
10
       57.3438
20
      -50.9109
11
       59.8564
21
      -53.1024
39
 0
62
  7
 0
LINE
8
default
6
CONTINUOUS
10
      -57.3438
20
      -50.9109
11
      -59.8564
21
      -53.1024
39
 0
62
  7
 0
LINE
8
default
6
CONTINUOUS
10
       59.8564
20
      -53.1024
11
       62.3707
21
      -55.2920
39
 0
62
  7
 0
LINE
8
default
6
CONTINUOUS
10
      -59.8564
20
      -53.1024
11
      -62.3707
21
      -55.2920
39
 0
62
  7
 0
LINE
8
default
6
CONTINUOUS
10
       62.3707
20
      -55.2920
11
       64.8866
21
      -57.4798
39
 0
62
  7
 0
LINE
8
default
6
CONTINUOUS
10
      -62.3707
20
      -55.2920
11
      -64.8866
21
      -57.4798
39
 0
62
  7
 0
LINE
8
default
6
CONTINUOUS
10
       64.8866
20
      -57.4798
11
       67.4040
21
      -59.6657
39
 0
62
  7
 0
LINE
8
default
6
CONTINUOUS
10
      -64.8866
20
      -57.4798
11
      -67.4040
21
      -59.6657
39
 0
62
  7
 0
LINE
8
default
6
CONTINUOUS
10
       67.4040
20
      -59.6657
11
       69.9231
21
      -61.8498
39
 0
62
  7
 0
LINE
8
default
6
CONTINUOUS
10
      -67.4040
20
      -59.6657
11
      -69.9231
21
      -61.8498
39
 0
62
  7
 0
LINE
8
default
6
CONTINUOUS
10
       69.9231
20
      -61.8498
11
       72.4438
21
      -64.0321
39
 0
62
  7
 0
LINE
8
default
6
CONTINUOUS
10
      -69.9231
20
      -61.8498
11
      -72.4438
21
      -64.0321
39
 0
62
  7
 0
LINE
8
default
6
CONTINUOUS
10
       72.4438
20
      -64.0321
11
       74.9661
21
      -66.2124
39
 0
62
  7
 0
LINE
8
default
6
CONTINUOUS
10
      -72.4438
20
      -64.0321
11
      -74.9661
21
      -66.2124
39
 0
62
  7
 0
LINE
8
default
6
CONTINUOUS
10
       74.9661
20
      -66.2124
11
       77.4900
21
      -68.3910
39
 0
62
  7
 0
LINE
8
default
6
CONTINUOUS
10
      -74.9661
20
      -66.2124
11
      -77.4900
21
      -68.3910
39
 0
62
  7
 0
LINE
8
default
6
CONTINUOUS
10
       77.4900
20
      -68.3910
11
       80.0155
21
      -70.5676
39
 0
62
  7
 0
LINE
8
default
6
CONTINUOUS
10
      -77.4900
20
      -68.3910
11
      -80.0155
21
      -70.5676
39
 0
62
  7
 0
LINE
8
default
6
CONTINUOUS
10
       80.0155
20
      -70.5676
11
       82.5426
21
      -72.7425
39
 0
62
  7
 0
LINE
8
default
6
CONTINUOUS
10
      -80.0155
20
      -70.5676
11
      -82.5426
21
      -72.7425
39
 0
62
  7
 0
LINE
8
default
6
CONTINUOUS
10
       82.5426
20
      -72.7425
11
       85.0712
21
      -74.9154
39
 0
62
  7
 0
LINE
8
default
6
CONTINUOUS
10
      -82.5426
20
      -72.7425
11
      -85.0712
21
      -74.9154
39
 0
62
  7
 0
LINE
8
default
6
CONTINUOUS
10
       85.0712
20
      -74.9154
11
       87.6015
21
      -77.0865
39
 0
62
  7
 0
LINE
8
default
6
CONTINUOUS
10
      -85.0712
20
      -74.9154
11
      -87.6015
21
      -77.0865
39
 0
62
  7
 0
LINE
8
default
6
CONTINUOUS
10
       87.6015
20
      -77.0865
11
       90.1334
21
      -79.2558
39
 0
62
  7
 0
LINE
8
default
6
CONTINUOUS
10
      -87.6015
20
      -77.0865
11
      -90.1334
21
      -79.2558
39
 0
62
  7
 0
LINE
8
default
6
CONTINUOUS
10
       90.1334
20
      -79.2558
11
       92.6668
21
      -81.4232
39
 0
62
  7
 0
LINE
8
default
6
CONTINUOUS
10
      -90.1334
20
      -79.2558
11
      -92.6668
21
      -81.4232
39
 0
62
  7
 0
LINE
8
default
6
CONTINUOUS
10
       92.6668
20
      -81.4232
11
       95.2019
21
      -83.5887
39
 0
62
  7
 0
LINE
8
default
6
CONTINUOUS
10
      -92.6668
20
      -81.4232
11
      -95.2019
21
      -83.5887
39
 0
62
  7
 0
LINE
8
default
6
CONTINUOUS
10
       95.2019
20
      -83.5887
11
       97.7385
21
      -85.7524
39
 0
62
  7
 0
LINE
8
default
6
CONTINUOUS
10
      -95.2019
20
      -83.5887
11
      -97.7385
21
      -85.7524
39
 0
62
  7
 0
LINE
8
default
6
CONTINUOUS
10
       97.7385
20
      -85.7524
11
      100.2768
21
      -87.9142
39
 0
62
  7
 0
LINE
8
default
6
CONTINUOUS
10
      -97.7385
20
      -85.7524
11
     -100.2768
21
      -87.9142
39
 0
62
  7
 0
LINE
8
default
6
CONTINUOUS
10
      100.2768
20
      -87.9142
11
      102.8166
21
      -90.0741
39
 0
62
  7
 0
LINE
8
default
6
CONTINUOUS
10
     -100.2768
20
      -87.9142
11
     -102.8166
21
      -90.0741
39
 0
62
  7
 0
LINE
8
default
6
CONTINUOUS
10
      102.8166
20
      -90.0741
11
      105.3580
21
      -92.2322
39
 0
62
  7
 0
LINE
8
default
6
CONTINUOUS
10
     -102.8166
20
      -90.0741
11
     -105.3580
21
      -92.2322
39
 0
62
  7
 0
LINE
8
default
6
CONTINUOUS
10
      105.3580
20
      -92.2322
11
      107.9010
21
      -94.3884
39
 0
62
  7
 0
LINE
8
default
6
CONTINUOUS
10
     -105.3580
20
      -92.2322
11
     -107.9010
21
      -94.3884
39
 0
62
  7
 0
LINE
8
default
6
CONTINUOUS
10
      107.9010
20
      -94.3884
11
      110.4456
21
      -96.5427
39
 0
62
  7
 0
LINE
8
default
6
CONTINUOUS
10
     -107.9010
20
      -94.3884
11
     -110.4456
21
      -96.5427
39
 0
62
  7
 0
LINE
8
default
6
CONTINUOUS
10
      110.4456
20
      -96.5427
11
      112.9917
21
      -98.6952
39
 0
62
  7
 0
LINE
8
default
6
CONTINUOUS
10
     -110.4456
20
      -96.5427
11
     -112.9917
21
      -98.6952
39
 0
62
  7
 0
LINE
8
default
6
CONTINUOUS
10
      112.9917
20
      -98.6952
11
      115.5395
21
     -100.8458
39
 0
62
  7
 0
LINE
8
default
6
CONTINUOUS
10
     -112.9917
20
      -98.6952
11
     -115.5395
21
     -100.8458
39
 0
62
  7
 0
LINE
8
default
6
CONTINUOUS
10
      115.5395
20
     -100.8458
11
      118.0888
21
     -102.9945
39
 0
62
  7
 0
LINE
8
default
6
CONTINUOUS
10
     -115.5395
20
     -100.8458
11
     -118.0888
21
     -102.9945
39
 0
62
  7
 0
LINE
8
default
6
CONTINUOUS
10
      118.0888
20
     -102.9945
11
      120.6397
21
     -105.1413
39
 0
62
  7
 0
LINE
8
default
6
CONTINUOUS
10
     -118.0888
20
     -102.9945
11
     -120.6397
21
     -105.1413
39
 0
62
  7
 0
LINE
8
default
6
CONTINUOUS
10
      120.6397
20
     -105.1413
11
      123.1921
21
     -107.2863
39
 0
62
  7
 0
LINE
8
default
6
CONTINUOUS
10
     -120.6397
20
     -105.1413
11
     -123.1921
21
     -107.2863
39
 0
62
  7
 0
LINE
8
default
6
CONTINUOUS
10
      123.1921
20
     -107.2863
11
      125.7462
21
     -109.4294
39
 0
62
  7
 0
LINE
8
default
6
CONTINUOUS
10
     -123.1921
20
     -107.2863
11
     -125.7462
21
     -109.4294
39
 0
62
  7
 0
LINE
8
default
6
CONTINUOUS
10
      125.7462
20
     -109.4294
11
      128.3018
21
     -111.5706
39
 0
62
  7
 0
LINE
8
default
6
CONTINUOUS
10
     -125.7462
20
     -109.4294
11
     -128.3018
21
     -111.5706
39
 0
62
  7
 0
LINE
8
default
6
CONTINUOUS
10
      128.3018
20
     -111.5706
11
      130.8590
21
     -113.7100
39
 0
62
  7
 0
LINE
8
default
6
CONTINUOUS
10
     -128.3018
20
     -111.5706
11
     -130.8590
21
     -113.7100
39
 0
62
  7
 0
LINE
8
default
6
CONTINUOUS
10
      130.8590
20
     -113.7100
11
      133.4178
21
     -115.8474
39
 0
62
  7
 0
LINE
8
default
6
CONTINUOUS
10
     -130.8590
20
     -113.7100
11
     -133.4178
21
     -115.8474
39
 0
62
  7
 0
LINE
8
default
6
CONTINUOUS
10
      133.4178
20
     -115.8474
11
      135.9781
21
     -117.9830
39
 0
62
  7
 0
LINE
8
default
6
CONTINUOUS
10
     -133.4178
20
     -115.8474
11
     -135.9781
21
     -117.9830
39
 0
62
  7
 0
LINE
8
default
6
CONTINUOUS
10
      135.9781
20
     -117.9830
11
      138.5400
21
     -120.1167
39
 0
62
  7
 0
LINE
8
default
6
CONTINUOUS
10
     -135.9781
20
     -117.9830
11
     -138.5400
21
     -120.1167
39
 0
62
  7
 0
LINE
8
default
6
CONTINUOUS
10
      138.5400
20
     -120.1167
11
      141.1034
21
     -122.2485
39
 0
62
  7
 0
LINE
8
default
6
CONTINUOUS
10
     -138.5400
20
     -120.1167
11
     -141.1034
21
     -122.2485
39
 0
62
  7
 0
LINE
8
default
6
CONTINUOUS
10
      141.1034
20
     -122.2485
11
      143.6685
21
     -124.3785
39
 0
62
  7
 0
LINE
8
default
6
CONTINUOUS
10
     -141.1034
20
     -122.2485
11
     -143.6685
21
     -124.3785
39
 0
62
  7
 0
LINE
8
default
6
CONTINUOUS
10
      143.6685
20
     -124.3785
11
      146.2351
21
     -126.5065
39
 0
62
  7
 0
LINE
8
default
6
CONTINUOUS
10
     -143.6685
20
     -124.3785
11
     -146.2351
21
     -126.5065
39
 0
62
  7
 0
LINE
8
default
6
CONTINUOUS
10
      146.2351
20
     -126.5065
11
      148.8032
21
     -128.6327
39
 0
62
  7
 0
LINE
8
default
6
CONTINUOUS
10
     -146.2351
20
     -126.5065
11
     -148.8032
21
     -128.6327
39
 0
62
  7
 0
LINE
8
default
6
CONTINUOUS
10
      148.8032
20
     -128.6327
11
      151.3729
21
     -130.7570
39
 0
62
  7
 0
LINE
8
default
6
CONTINUOUS
10
     -148.8032
20
     -128.6327
11
     -151.3729
21
     -130.7570
39
 0
62
  7
 0
LINE
8
default
6
CONTINUOUS
10
      151.3729
20
     -130.7570
11
      153.9442
21
     -132.8794
39
 0
62
  7
 0
LINE
8
default
6
CONTINUOUS
10
     -151.3729
20
     -130.7570
11
     -153.9442
21
     -132.8794
39
 0
62
  7
 0
LINE
8
default
6
CONTINUOUS
10
      153.9442
20
     -132.8794
11
      156.5171
21
     -134.9999
39
 0
62
  7
 0
LINE
8
default
6
CONTINUOUS
10
     -153.9442
20
     -132.8794
11
     -156.5171
21
     -134.9999
39
 0
62
  7
 0
LINE
8
default
6
CONTINUOUS
10
      156.5171
20
     -134.9999
11
      159.0914
21
     -137.1185
39
 0
62
  7
 0
LINE
8
default
6
CONTINUOUS
10
     -156.5171
20
     -134.9999
11
     -159.0914
21
     -137.1185
39
 0
62
  7
 0
LINE
8
default
6
CONTINUOUS
10
      159.0914
20
     -137.1185
11
      161.6674
21
     -139.2352
39
 0
62
  7
 0
LINE
8
default
6
CONTINUOUS
10
     -159.0914
20
     -137.1185
11
     -161.6674
21
     -139.2352
39
 0
62
  7
 0
LINE
8
default
6
CONTINUOUS
10
      161.6674
20
     -139.2352
11
      164.2449
21
     -141.3500
39
 0
62
  7
 0
LINE
8
default
6
CONTINUOUS
10
     -161.6674
20
     -139.2352
11
     -164.2449
21
     -141.3500
39
 0
62
  7
 0
LINE
8
default
6
CONTINUOUS
10
      164.2449
20
     -141.3500
11
      166.8240
21
     -143.4630
39
 0
62
  7
 0
LINE
8
default
6
CONTINUOUS
10
     -164.2449
20
     -141.3500
11
     -166.8240
21
     -143.4630
39
 0
62
  7
 0
LINE
8
default
6
CONTINUOUS
10
      166.8240
20
     -143.4630
11
      169.4046
21
     -145.5740
39
 0
62
  7
 0
LINE
8
default
6
CONTINUOUS
10
     -166.8240
20
     -143.4630
11
     -169.4046
21
     -145.5740
39
 0
62
  7
 0
LINE
8
default
6
CONTINUOUS
10
      169.4046
20
     -145.5740
11
      171.9867
21
     -147.6831
39
 0
62
  7
 0
LINE
8
default
6
CONTINUOUS
10
     -169.4046
20
     -145.5740
11
     -171.9867
21
     -147.6831
39
 0
62
  7
 0
LINE
8
default
6
CONTINUOUS
10
      171.9867
20
     -147.6831
11
      174.5704
21
     -149.7904
39
 0
62
  7
 0
LINE
8
default
6
CONTINUOUS
10
     -171.9867
20
     -147.6831
11
     -174.5704
21
     -149.7904
39
 0
62
  7
 0
LINE
8
default
6
CONTINUOUS
10
      174.5704
20
     -149.7904
11
      177.1557
21
     -151.8957
39
 0
62
  7
 0
LINE
8
default
6
CONTINUOUS
10
     -174.5704
20
     -149.7904
11
     -177.1557
21
     -151.8957
39
 0
62
  7
 0
LINE
8
default
6
CONTINUOUS
10
      177.1557
20
     -151.8957
11
      179.7425
21
     -153.9992
39
 0
62
  7
 0
LINE
8
default
6
CONTINUOUS
10
     -177.1557
20
     -151.8957
11
     -179.7425
21
     -153.9992
39
 0
62
  7
 0
LINE
8
default
6
CONTINUOUS
10
      179.7425
20
     -153.9992
11
      182.3308
21
     -156.1007
39
 0
62
  7
 0
LINE
8
default
6
CONTINUOUS
10
     -179.7425
20
     -153.9992
11
     -182.3308
21
     -156.1007
39
 0
62
  7
 0
LINE
8
default
6
CONTINUOUS
10
      182.3308
20
     -156.1007
11
      184.9207
21
     -158.2004
39
 0
62
  7
 0
LINE
8
default
6
CONTINUOUS
10
     -182.3308
20
     -156.1007
11
     -184.9207
21
     -158.2004
39
 0
62
  7
 0
LINE
8
default
6
CONTINUOUS
10
      184.9207
20
     -158.2004
11
      187.5121
21
     -160.2981
39
 0
62
  7
 0
LINE
8
default
6
CONTINUOUS
10
     -184.9207
20
     -158.2004
11
     -187.5121
21
     -160.2981
39
 0
62
  7
 0
LINE
8
default
6
CONTINUOUS
10
      187.5121
20
     -160.2981
11
      190.1051
21
     -162.3940
39
 0
62
  7
 0
LINE
8
default
6
CONTINUOUS
10
     -187.5121
20
     -160.2981
11
     -190.1051
21
     -162.3940
39
 0
62
  7
 0
LINE
8
default
6
CONTINUOUS
10
      190.1051
20
     -162.3940
11
      192.6996
21
     -164.4879
39
 0
62
  7
 0
LINE
8
default
6
CONTINUOUS
10
     -190.1051
20
     -162.3940
11
     -192.6996
21
     -164.4879
39
 0
62
  7
 0
LINE
8
default
6
CONTINUOUS
10
      192.6996
20
     -164.4879
11
      195.2956
21
     -166.5799
39
 0
62
  7
 0
LINE
8
default
6
CONTINUOUS
10
     -192.6996
20
     -164.4879
11
     -195.2956
21
     -166.5799
39
 0
62
  7
 0
LINE
8
default
6
CONTINUOUS
10
      195.2956
20
     -166.5799
11
      197.8932
21
     -168.6700
39
 0
62
  7
 0
LINE
8
default
6
CONTINUOUS
10
     -195.2956
20
     -166.5799
11
     -197.8932
21
     -168.6700
39
 0
62
  7
 0
LINE
8
default
6
CONTINUOUS
10
      197.8932
20
     -168.6700
11
      200.4923
21
     -170.7582
39
 0
62
  7
 0
LINE
8
default
6
CONTINUOUS
10
     -197.8932
20
     -168.6700
11
     -200.4923
21
     -170.7582
39
 0
62
  7
 0
LINE
8
default
6
CONTINUOUS
10
      200.4923
20
     -170.7582
11
      203.0930
21
     -172.8445
39
 0
62
  7
 0
LINE
8
default
6
CONTINUOUS
10
     -200.4923
20
     -170.7582
11
     -203.0930
21
     -172.8445
39
 0
62
  7
 0
LINE
8
default
6
CONTINUOUS
10
      203.0930
20
     -172.8445
11
      205.6951
21
     -174.9289
39
 0
62
  7
 0
LINE
8
default
6
CONTINUOUS
10
     -203.0930
20
     -172.8445
11
     -205.6951
21
     -174.9289
39
 0
62
  7
 0
LINE
8
default
6
CONTINUOUS
10
      205.6951
20
     -174.9289
11
      208.2989
21
     -177.0114
39
 0
62
  7
 0
LINE
8
default
6
CONTINUOUS
10
     -205.6951
20
     -174.9289
11
     -208.2989
21
     -177.0114
39
 0
62
  7
 0
LINE
8
default
6
CONTINUOUS
10
      208.2989
20
     -177.0114
11
      210.9041
21
     -179.0920
39
 0
62
  7
 0
LINE
8
default
6
CONTINUOUS
10
     -208.2989
20
     -177.0114
11
     -210.9041
21
     -179.0920
39
 0
62
  7
 0
LINE
8
default
6
CONTINUOUS
10
      210.9041
20
     -179.0920
11
      213.5109
21
     -181.1706
39
 0
62
  7
 0
LINE
8
default
6
CONTINUOUS
10
     -210.9041
20
     -179.0920
11
     -213.5109
21
     -181.1706
39
 0
62
  7
 0
LINE
8
default
6
CONTINUOUS
10
      213.5109
20
     -181.1706
11
      216.1191
21
     -183.2474
39
 0
62
  7
 0
LINE
8
default
6
CONTINUOUS
10
     -213.5109
20
     -181.1706
11
     -216.1191
21
     -183.2474
39
 0
62
  7
 0
LINE
8
default
6
CONTINUOUS
10
      216.1191
20
     -183.2474
11
      218.7290
21
     -185.3222
39
 0
62
  7
 0
LINE
8
default
6
CONTINUOUS
10
     -216.1191
20
     -183.2474
11
     -218.7290
21
     -185.3222
39
 0
62
  7
 0
LINE
8
default
6
CONTINUOUS
10
      218.7290
20
     -185.3222
11
      221.3403
21
     -187.3951
39
 0
62
  7
 0
LINE
8
default
6
CONTINUOUS
10
     -218.7290
20
     -185.3222
11
     -221.3403
21
     -187.3951
39
 0
62
  7
 0
LINE
8
default
6
CONTINUOUS
10
      221.3403
20
     -187.3951
11
      223.9532
21
     -189.4661
39
 0
62
  7
 0
LINE
8
default
6
CONTINUOUS
10
     -221.3403
20
     -187.3951
11
     -223.9532
21
     -189.4661
39
 0
62
  7
 0
LINE
8
default
6
CONTINUOUS
10
      223.9532
20
     -189.4661
11
      226.5675
21
     -191.5351
39
 0
62
  7
 0
LINE
8
default
6
CONTINUOUS
10
     -223.9532
20
     -189.4661
11
     -226.5675
21
     -191.5351
39
 0
62
  7
 0
LINE
8
default
6
CONTINUOUS
10
      226.5675
20
     -191.5351
11
      229.1834
21
     -193.6023
39
 0
62
  7
 0
LINE
8
default
6
CONTINUOUS
10
     -226.5675
20
     -191.5351
11
     -229.1834
21
     -193.6023
39
 0
62
  7
 0
LINE
8
default
6
CONTINUOUS
10
      229.1834
20
     -193.6023
11
      231.8009
21
     -195.6675
39
 0
62
  7
 0
LINE
8
default
6
CONTINUOUS
10
     -229.1834
20
     -193.6023
11
     -231.8009
21
     -195.6675
39
 0
62
  7
 0
LINE
8
default
6
CONTINUOUS
10
      231.8009
20
     -195.6675
11
      234.4198
21
     -197.7308
39
 0
62
  7
 0
LINE
8
default
6
CONTINUOUS
10
     -231.8009
20
     -195.6675
11
     -234.4198
21
     -197.7308
39
 0
62
  7
 0
LINE
8
default
6
CONTINUOUS
10
      234.4198
20
     -197.7308
11
      237.0402
21
     -199.7921
39
 0
62
  7
 0
LINE
8
default
6
CONTINUOUS
10
     -234.4198
20
     -197.7308
11
     -237.0402
21
     -199.7921
39
 0
62
  7
 0
LINE
8
default
6
CONTINUOUS
10
      237.0402
20
     -199.7921
11
      239.6622
21
     -201.8516
39
 0
62
  7
 0
LINE
8
default
6
CONTINUOUS
10
     -237.0402
20
     -199.7921
11
     -239.6622
21
     -201.8516
39
 0
62
  7
 0
LINE
8
default
6
CONTINUOUS
10
      239.6622
20
     -201.8516
11
      242.2857
21
     -203.9091
39
 0
62
  7
 0
LINE
8
default
6
CONTINUOUS
10
     -239.6622
20
     -201.8516
11
     -242.2857
21
     -203.9091
39
 0
62
  7
 0
LINE
8
default
6
CONTINUOUS
10
      242.2857
20
     -203.9091
11
      244.9107
21
     -205.9647
39
 0
62
  7
 0
LINE
8
default
6
CONTINUOUS
10
     -242.2857
20
     -203.9091
11
     -244.9107
21
     -205.9647
39
 0
62
  7
 0
LINE
8
default
6
CONTINUOUS
10
      244.9107
20
     -205.9647
11
      247.5372
21
     -208.0184
39
 0
62
  7
 0
LINE
8
default
6
CONTINUOUS
10
     -244.9107
20
     -205.9647
11
     -247.5372
21
     -208.0184
39
 0
62
  7
 0
LINE
8
default
6
CONTINUOUS
10
      247.5372
20
     -208.0184
11
      250.1652
21
     -210.0701
39
 0
62
  7
 0
LINE
8
default
6
CONTINUOUS
10
     -247.5372
20
     -208.0184
11
     -250.1652
21
     -210.0701
39
 0
62
  7
 0
LINE
8
default
6
CONTINUOUS
10
      250.1652
20
     -210.0701
11
      252.7947
21
     -212.1199
39
 0
62
  7
 0
LINE
8
default
6
CONTINUOUS
10
     -250.1652
20
     -210.0701
11
     -252.7947
21
     -212.1199
39
 0
62
  7
 0
LINE
8
default
6
CONTINUOUS
10
      252.7947
20
     -212.1199
11
      255.1455
21
     -213.9509
39
 0
62
  7
 0
LINE
8
default
6
CONTINUOUS
10
     -252.7947
20
     -212.1199
11
     -255.1455
21
     -213.9509
39
 0
62
  7
 0
LINE
8
default
6
CONTINUOUS
10
      255.1455
20
     -213.9509
11
      257.4965
21
     -215.7818
39
 0
62
  7
 0
LINE
8
default
6
CONTINUOUS
10
     -255.1455
20
     -213.9509
11
     -257.4965
21
     -215.7818
39
 0
62
  7
 0
LINE
8
default
6
CONTINUOUS
10
      257.4965
20
     -215.7818
11
      259.8477
21
     -217.6124
39
 0
62
  7
 0
LINE
8
default
6
CONTINUOUS
10
     -257.4965
20
     -215.7818
11
     -259.8477
21
     -217.6124
39
 0
62
  7
 0
LINE
8
default
6
CONTINUOUS
10
      259.8477
20
     -217.6124
11
      262.1991
21
     -219.4428
39
 0
62
  7
 0
LINE
8
default
6
CONTINUOUS
10
     -259.8477
20
     -217.6124
11
     -262.1991
21
     -219.4428
39
 0
62
  7
 0
LINE
8
default
6
CONTINUOUS
10
      262.1991
20
     -219.4428
11
      264.5505
21
     -221.2730
39
 0
62
  7
 0
LINE
8
default
6
CONTINUOUS
10
     -262.1991
20
     -219.4428
11
     -264.5505
21
     -221.2730
39
 0
62
  7
 0
LINE
8
default
6
CONTINUOUS
10
      264.5505
20
     -221.2730
11
      266.9022
21
     -223.1030
39
 0
62
  7
 0
LINE
8
default
6
CONTINUOUS
10
     -264.5505
20
     -221.2730
11
     -266.9022
21
     -223.1030
39
 0
62
  7
 0
LINE
8
default
6
CONTINUOUS
10
      266.9022
20
     -223.1030
11
      269.2540
21
     -224.9328
39
 0
62
  7
 0
LINE
8
default
6
CONTINUOUS
10
     -266.9022
20
     -223.1030
11
     -269.2540
21
     -224.9328
39
 0
62
  7
 0
LINE
8
default
6
CONTINUOUS
10
      269.2540
20
     -224.9328
11
      271.6060
21
     -226.7624
39
 0
62
  7
 0
LINE
8
default
6
CONTINUOUS
10
     -269.2540
20
     -224.9328
11
     -271.6060
21
     -226.7624
39
 0
62
  7
 0
LINE
8
default
6
CONTINUOUS
10
      271.6060
20
     -226.7624
11
      273.9581
21
     -228.5918
39
 0
62
  7
 0
LINE
8
default
6
CONTINUOUS
10
     -271.6060
20
     -226.7624
11
     -273.9581
21
     -228.5918
39
 0
62
  7
 0
LINE
8
default
6
CONTINUOUS
10
      273.9581
20
     -228.5918
11
      276.3104
21
     -230.4210
39
 0
62
  7
 0
LINE
8
default
6
CONTINUOUS
10
     -273.9581
20
     -228.5918
11
     -276.3104
21
     -230.4210
39
 0
62
  7
 0
LINE
8
default
6
CONTINUOUS
10
      276.3104
20
     -230.4210
11
      278.6629
21
     -232.2499
39
 0
62
  7
 0
LINE
8
default
6
CONTINUOUS
10
     -276.3104
20
     -230.4210
11
     -278.6629
21
     -232.2499
39
 0
62
  7
 0
LINE
8
default
6
CONTINUOUS
10
      278.6629
20
     -232.2499
11
      281.0155
21
     -234.0787
39
 0
62
  7
 0
LINE
8
default
6
CONTINUOUS
10
     -278.6629
20
     -232.2499
11
     -281.0155
21
     -234.0787
39
 0
62
  7
 0
LINE
8
default
6
CONTINUOUS
10
      281.0155
20
     -234.0787
11
      283.3683
21
     -235.9073
39
 0
62
  7
 0
LINE
8
default
6
CONTINUOUS
10
     -281.0155
20
     -234.0787
11
     -283.3683
21
     -235.9073
39
 0
62
  7
 0
LINE
8
default
6
CONTINUOUS
10
      283.3683
20
     -235.9073
11
      285.7212
21
     -237.7356
39
 0
62
  7
 0
LINE
8
default
6
CONTINUOUS
10
     -283.3683
20
     -235.9073
11
     -285.7212
21
     -237.7356
39
 0
62
  7
 0
LINE
8
default
6
CONTINUOUS
10
      285.7212
20
     -237.7356
11
      288.0743
21
     -239.5638
39
 0
62
  7
 0
LINE
8
default
6
CONTINUOUS
10
     -285.7212
20
     -237.7356
11
     -288.0743
21
     -239.5638
39
 0
62
  7
 0
LINE
8
default
6
CONTINUOUS
10
      288.0743
20
     -239.5638
11
      290.4276
21
     -241.3917
39
 0
62
  7
 0
LINE
8
default
6
CONTINUOUS
10
     -288.0743
20
     -239.5638
11
     -290.4276
21
     -241.3917
39
 0
62
  7
 0
LINE
8
default
6
CONTINUOUS
10
      290.4276
20
     -241.3917
11
      292.7810
21
     -243.2195
39
 0
62
  7
 0
LINE
8
default
6
CONTINUOUS
10
     -290.4276
20
     -241.3917
11
     -292.7810
21
     -243.2195
39
 0
62
  7
 0
LINE
8
default
6
CONTINUOUS
10
      292.7810
20
     -243.2195
11
      295.1346
21
     -245.0470
39
 0
62
  7
 0
LINE
8
default
6
CONTINUOUS
10
     -292.7810
20
     -243.2195
11
     -295.1346
21
     -245.0470
39
 0
62
  7
 0
LINE
8
default
6
CONTINUOUS
10
      295.1346
20
     -245.0470
11
      297.4883
21
     -246.8744
39
 0
62
  7
 0
LINE
8
default
6
CONTINUOUS
10
     -295.1346
20
     -245.0470
11
     -297.4883
21
     -246.8744
39
 0
62
  7
 0
LINE
8
default
6
CONTINUOUS
10
      297.4883
20
     -246.8744
11
      299.8422
21
     -248.7015
39
 0
62
  7
 0
LINE
8
default
6
CONTINUOUS
10
     -297.4883
20
     -246.8744
11
     -299.8422
21
     -248.7015
39
 0
62
  7
 0
LINE
8
default
6
CONTINUOUS
10
      299.8422
20
     -248.7015
11
      302.1963
21
     -250.5284
39
 0
62
  7
 0
LINE
8
default
6
CONTINUOUS
10
     -299.8422
20
     -248.7015
11
     -302.1963
21
     -250.5284
39
 0
62
  7
 0
LINE
8
default
6
CONTINUOUS
10
      302.1963
20
     -250.5284
11
      304.5505
21
     -252.3551
39
 0
62
  7
 0
LINE
8
default
6
CONTINUOUS
10
     -302.1963
20
     -250.5284
11
     -304.5505
21
     -252.3551
39
 0
62
  7
 0
LINE
8
default
6
CONTINUOUS
10
      304.5505
20
     -252.3551
11
      306.9048
21
     -254.1816
39
 0
62
  7
 0
LINE
8
default
6
CONTINUOUS
10
     -304.5505
20
     -252.3551
11
     -306.9048
21
     -254.1816
39
 0
62
  7
 0
LINE
8
default
6
CONTINUOUS
10
      306.9048
20
     -254.1816
11
      309.2594
21
     -256.0079
39
 0
62
  7
 0
LINE
8
default
6
CONTINUOUS
10
     -306.9048
20
     -254.1816
11
     -309.2594
21
     -256.0079
39
 0
62
  7
 0
LINE
8
default
6
CONTINUOUS
10
      309.2594
20
     -256.0079
11
      311.6141
21
     -257.8340
39
 0
62
  7
 0
LINE
8
default
6
CONTINUOUS
10
     -309.2594
20
     -256.0079
11
     -311.6141
21
     -257.8340
39
 0
62
  7
 0
LINE
8
default
6
CONTINUOUS
10
      311.6141
20
     -257.8340
11
      313.9689
21
     -259.6599
39
 0
62
  7
 0
LINE
8
default
6
CONTINUOUS
10
     -311.6141
20
     -257.8340
11
     -313.9689
21
     -259.6599
39
 0
62
  7
 0
LINE
8
default
6
CONTINUOUS
10
      313.9689
20
     -259.6599
11
      316.3240
21
     -261.4856
39
 0
62
  7
 0
LINE
8
default
6
CONTINUOUS
10
     -313.9689
20
     -259.6599
11
     -316.3240
21
     -261.4856
39
 0
62
  7
 0
LINE
8
default
6
CONTINUOUS
10
      316.3240
20
     -261.4856
11
      318.6791
21
     -263.3111
39
 0
62
  7
 0
LINE
8
default
6
CONTINUOUS
10
     -316.3240
20
     -261.4856
11
     -318.6791
21
     -263.3111
39
 0
62
  7
 0
LINE
8
default
6
CONTINUOUS
10
      318.6791
20
     -263.3111
11
      321.0345
21
     -265.1364
39
 0
62
  7
 0
LINE
8
default
6
CONTINUOUS
10
     -318.6791
20
     -263.3111
11
     -321.0345
21
     -265.1364
39
 0
62
  7
 0
LINE
8
default
6
CONTINUOUS
10
      321.0345
20
     -265.1364
11
      323.3900
21
     -266.9614
39
 0
62
  7
 0
LINE
8
default
6
CONTINUOUS
10
     -321.0345
20
     -265.1364
11
     -323.3900
21
     -266.9614
39
 0
62
  7
 0
LINE
8
default
6
CONTINUOUS
10
      323.3900
20
     -266.9614
11
      325.7456
21
     -268.7863
39
 0
62
  7
 0
LINE
8
default
6
CONTINUOUS
10
     -323.3900
20
     -266.9614
11
     -325.7456
21
     -268.7863
39
 0
62
  7
 0
LINE
8
default
6
CONTINUOUS
10
      325.7456
20
     -268.7863
11
      328.1014
21
     -270.6110
39
 0
62
  7
 0
LINE
8
default
6
CONTINUOUS
10
     -325.7456
20
     -268.7863
11
     -328.1014
21
     -270.6110
39
 0
62
  7
 0
LINE
8
default
6
CONTINUOUS
10
      328.1014
20
     -270.6110
11
      330.4574
21
     -272.4354
39
 0
62
  7
 0
LINE
8
default
6
CONTINUOUS
10
     -328.1014
20
     -270.6110
11
     -330.4574
21
     -272.4354
39
 0
62
  7
 0
LINE
8
default
6
CONTINUOUS
10
      330.4574
20
     -272.4354
11
      332.8136
21
     -274.2597
39
 0
62
  7
 0
LINE
8
default
6
CONTINUOUS
10
     -330.4574
20
     -272.4354
11
     -332.8136
21
     -274.2597
39
 0
62
  7
 0
LINE
8
default
6
CONTINUOUS
10
      332.8136
20
     -274.2597
11
      335.1699
21
     -276.0837
39
 0
62
  7
 0
LINE
8
default
6
CONTINUOUS
10
     -332.8136
20
     -274.2597
11
     -335.1699
21
     -276.0837
39
 0
62
  7
 0
LINE
8
default
6
CONTINUOUS
10
      335.1699
20
     -276.0837
11
      337.5263
21
     -277.9076
39
 0
62
  7
 0
LINE
8
default
6
CONTINUOUS
10
     -335.1699
20
     -276.0837
11
     -337.5263
21
     -277.9076
39
 0
62
  7
 0
LINE
8
default
6
CONTINUOUS
10
      337.5263
20
     -277.9076
11
      339.8829
21
     -279.7312
39
 0
62
  7
 0
LINE
8
default
6
CONTINUOUS
10
     -337.5263
20
     -277.9076
11
     -339.8829
21
     -279.7312
39
 0
62
  7
 0
LINE
8
default
6
CONTINUOUS
10
      339.8829
20
     -279.7312
11
      342.2397
21
     -281.5546
39
 0
62
  7
 0
LINE
8
default
6
CONTINUOUS
10
     -339.8829
20
     -279.7312
11
     -342.2397
21
     -281.5546
39
 0
62
  7
 0
LINE
8
default
6
CONTINUOUS
10
      342.2397
20
     -281.5546
11
      344.5966
21
     -283.3778
39
 0
62
  7
 0
LINE
8
default
6
CONTINUOUS
10
     -342.2397
20
     -281.5546
11
     -344.5966
21
     -283.3778
39
 0
62
  7
 0
LINE
8
default
6
CONTINUOUS
10
      344.5966
20
     -283.3778
11
      346.9537
21
     -285.2009
39
 0
62
  7
 0
LINE
8
default
6
CONTINUOUS
10
     -344.5966
20
     -283.3778
11
     -346.9537
21
     -285.2009
39
 0
62
  7
 0
LINE
8
default
6
CONTINUOUS
10
      346.9537
20
     -285.2009
11
      349.3110
21
     -287.0237
39
 0
62
  7
 0
LINE
8
default
6
CONTINUOUS
10
     -346.9537
20
     -285.2009
11
     -349.3110
21
     -287.0237
39
 0
62
  7
 0
LINE
8
default
6
CONTINUOUS
10
      349.3110
20
     -287.0237
11
      351.6684
21
     -288.8463
39
 0
62
  7
 0
LINE
8
default
6
CONTINUOUS
10
     -349.3110
20
     -287.0237
11
     -351.6684
21
     -288.8463
39
 0
62
  7
 0
LINE
8
default
6
CONTINUOUS
10
      351.6684
20
     -288.8463
11
      354.0260
21
     -290.6687
39
 0
62
  7
 0
LINE
8
default
6
CONTINUOUS
10
     -351.6684
20
     -288.8463
11
     -354.0260
21
     -290.6687
39
 0
62
  7
 0
LINE
8
default
6
CONTINUOUS
10
      354.0260
20
     -290.6687
11
      356.3837
21
     -292.4909
39
 0
62
  7
 0
LINE
8
default
6
CONTINUOUS
10
     -354.0260
20
     -290.6687
11
     -356.3837
21
     -292.4909
39
 0
62
  7
 0
LINE
8
default
6
CONTINUOUS
10
      356.3837
20
     -292.4909
11
      358.7416
21
     -294.3129
39
 0
62
  7
 0
LINE
8
default
6
CONTINUOUS
10
     -356.3837
20
     -292.4909
11
     -358.7416
21
     -294.3129
39
 0
62
  7
 0
LINE
8
default
6
CONTINUOUS
10
      358.7416
20
     -294.3129
11
      361.0997
21
     -296.1347
39
 0
62
  7
 0
LINE
8
default
6
CONTINUOUS
10
     -358.7416
20
     -294.3129
11
     -361.0997
21
     -296.1347
39
 0
62
  7
 0
LINE
8
default
6
CONTINUOUS
10
      361.0997
20
     -296.1347
11
      363.4579
21
     -297.9562
39
 0
62
  7
 0
LINE
8
default
6
CONTINUOUS
10
     -361.0997
20
     -296.1347
11
     -363.4579
21
     -297.9562
39
 0
62
  7
 0
LINE
8
default
6
CONTINUOUS
10
      363.4579
20
     -297.9562
11
      365.8163
21
     -299.7776
39
 0
62
  7
 0
LINE
8
default
6
CONTINUOUS
10
     -363.4579
20
     -297.9562
11
     -365.8163
21
     -299.7776
39
 0
62
  7
 0
LINE
8
default
6
CONTINUOUS
10
      365.8163
20
     -299.7776
11
      368.1748
21
     -301.5988
39
 0
62
  7
 0
LINE
8
default
6
CONTINUOUS
10
     -365.8163
20
     -299.7776
11
     -368.1748
21
     -301.5988
39
 0
62
  7
 0
LINE
8
default
6
CONTINUOUS
10
      368.1748
20
     -301.5988
11
      370.5335
21
     -303.4197
39
 0
62
  7
 0
LINE
8
default
6
CONTINUOUS
10
     -368.1748
20
     -301.5988
11
     -370.5335
21
     -303.4197
39
 0
62
  7
 0
LINE
8
default
6
CONTINUOUS
10
      370.5335
20
     -303.4197
11
      372.8924
21
     -305.2405
39
 0
62
  7
 0
LINE
8
default
6
CONTINUOUS
10
     -370.5335
20
     -303.4197
11
     -372.8924
21
     -305.2405
39
 0
62
  7
 0
LINE
8
default
6
CONTINUOUS
10
      372.8924
20
     -305.2405
11
      375.2514
21
     -307.0610
39
 0
62
  7
 0
LINE
8
default
6
CONTINUOUS
10
     -372.8924
20
     -305.2405
11
     -375.2514
21
     -307.0610
39
 0
62
  7
 0
LINE
8
default
6
CONTINUOUS
10
      375.2514
20
     -307.0610
11
      377.6106
21
     -308.8814
39
 0
62
  7
 0
LINE
8
default
6
CONTINUOUS
10
     -375.2514
20
     -307.0610
11
     -377.6106
21
     -308.8814
39
 0
62
  7
 0
LINE
8
default
6
CONTINUOUS
10
      377.6106
20
     -308.8814
11
      379.9699
21
     -310.7015
39
 0
62
  7
 0
LINE
8
default
6
CONTINUOUS
10
     -377.6106
20
     -308.8814
11
     -379.9699
21
     -310.7015
39
 0
62
  7
 0
LINE
8
default
6
CONTINUOUS
10
      379.9699
20
     -310.7015
11
      382.3294
21
     -312.5215
39
 0
62
  7
 0
LINE
8
default
6
CONTINUOUS
10
     -379.9699
20
     -310.7015
11
     -382.3294
21
     -312.5215
39
 0
62
  7
 0
LINE
8
default
6
CONTINUOUS
10
      382.3294
20
     -312.5215
11
      384.6891
21
     -314.3412
39
 0
62
  7
 0
LINE
8
default
6
CONTINUOUS
10
     -382.3294
20
     -312.5215
11
     -384.6891
21
     -314.3412
39
 0
62
  7
 0
LINE
8
default
6
CONTINUOUS
10
      384.6891
20
     -314.3412
11
      387.0489
21
     -316.1607
39
 0
62
  7
 0
LINE
8
default
6
CONTINUOUS
10
     -384.6891
20
     -314.3412
11
     -387.0489
21
     -316.1607
39
 0
62
  7
 0
LINE
8
default
6
CONTINUOUS
10
      387.0489
20
     -316.1607
11
      389.4089
21
     -317.9800
39
 0
62
  7
 0
LINE
8
default
6
CONTINUOUS
10
     -387.0489
20
     -316.1607
11
     -389.4089
21
     -317.9800
39
 0
62
  7
 0
LINE
8
default
6
CONTINUOUS
10
      389.4089
20
     -317.9800
11
      391.7690
21
     -319.7992
39
 0
62
  7
 0
LINE
8
default
6
CONTINUOUS
10
     -389.4089
20
     -317.9800
11
     -391.7690
21
     -319.7992
39
 0
62
  7
 0
LINE
8
default
6
CONTINUOUS
10
      391.7690
20
     -319.7992
11
      394.1293
21
     -321.6181
39
 0
62
  7
 0
LINE
8
default
6
CONTINUOUS
10
     -391.7690
20
     -319.7992
11
     -394.1293
21
     -321.6181
39
 0
62
  7
 0
LINE
8
default
6
CONTINUOUS
10
      394.1293
20
     -321.6181
11
      396.4898
21
     -323.4368
39
 0
62
  7
 0
LINE
8
default
6
CONTINUOUS
10
     -394.1293
20
     -321.6181
11
     -396.4898
21
     -323.4368
39
 0
62
  7
 0
LINE
8
default
6
CONTINUOUS
10
      396.4898
20
     -323.4368
11
      398.8504
21
     -325.2553
39
 0
62
  7
 0
LINE
8
default
6
CONTINUOUS
10
     -396.4898
20
     -323.4368
11
     -398.8504
21
     -325.2553
39
 0
62
  7
 0
LINE
8
default
6
CONTINUOUS
10
      398.8504
20
     -325.2553
11
      401.2112
21
     -327.0736
39
 0
62
  7
 0
LINE
8
default
6
CONTINUOUS
10
     -398.8504
20
     -325.2553
11
     -401.2112
21
     -327.0736
39
 0
62
  7
 0
LINE
8
default
6
CONTINUOUS
10
      401.2112
20
     -327.0736
11
      403.5721
21
     -328.8916
39
 0
62
  7
 0
LINE
8
default
6
CONTINUOUS
10
     -401.2112
20
     -327.0736
11
     -403.5721
21
     -328.8916
39
 0
62
  7
 0
LINE
8
default
6
CONTINUOUS
10
      403.5721
20
     -328.8916
11
      405.9332
21
     -330.7095
39
 0
62
  7
 0
LINE
8
default
6
CONTINUOUS
10
     -403.5721
20
     -328.8916
11
     -405.9332
21
     -330.7095
39
 0
62
  7
 0
LINE
8
default
6
CONTINUOUS
10
      405.9332
20
     -330.7095
11
      408.2945
21
     -332.5272
39
 0
62
  7
 0
LINE
8
default
6
CONTINUOUS
10
     -405.9332
20
     -330.7095
11
     -408.2945
21
     -332.5272
39
 0
62
  7
 0
LINE
8
default
6
CONTINUOUS
10
      408.2945
20
     -332.5272
11
      410.6559
21
     -334.3447
39
 0
62
  7
 0
LINE
8
default
6
CONTINUOUS
10
     -408.2945
20
     -332.5272
11
     -410.6559
21
     -334.3447
39
 0
62
  7
 0
LINE
8
default
6
CONTINUOUS
10
      410.6559
20
     -334.3447
11
      413.0175
21
     -336.1619
39
 0
62
  7
 0
LINE
8
default
6
CONTINUOUS
10
     -410.6559
20
     -334.3447
11
     -413.0175
21
     -336.1619
39
 0
62
  7
 0
LINE
8
default
6
CONTINUOUS
10
      413.0175
20
     -336.1619
11
      415.3792
21
     -337.9790
39
 0
62
  7
 0
LINE
8
default
6
CONTINUOUS
10
     -413.0175
20
     -336.1619
11
     -415.3792
21
     -337.9790
39
 0
62
  7
 0
LINE
8
default
6
CONTINUOUS
10
      415.3792
20
     -337.9790
11
      417.7411
21
     -339.7958
39
 0
62
  7
 0
LINE
8
default
6
CONTINUOUS
10
     -415.3792
20
     -337.9790
11
     -417.7411
21
     -339.7958
39
 0
62
  7
 0
LINE
8
default
6
CONTINUOUS
10
      417.7411
20
     -339.7958
11
      420.1032
21
     -341.6125
39
 0
62
  7
 0
LINE
8
default
6
CONTINUOUS
10
     -417.7411
20
     -339.7958
11
     -420.1032
21
     -341.6125
39
 0
62
  7
 0
LINE
8
default
6
CONTINUOUS
10
      420.1032
20
     -341.6125
11
      422.4654
21
     -343.4289
39
 0
62
  7
 0
LINE
8
default
6
CONTINUOUS
10
     -420.1032
20
     -341.6125
11
     -422.4654
21
     -343.4289
39
 0
62
  7
 0
LINE
8
default
6
CONTINUOUS
10
      422.4654
20
     -343.4289
11
      424.8278
21
     -345.2452
39
 0
62
  7
 0
LINE
8
default
6
CONTINUOUS
10
     -422.4654
20
     -343.4289
11
     -424.8278
21
     -345.2452
39
 0
62
  7
 0
LINE
8
default
6
CONTINUOUS
10
      424.8278
20
     -345.2452
11
      427.1903
21
     -347.0612
39
 0
62
  7
 0
LINE
8
default
6
CONTINUOUS
10
     -424.8278
20
     -345.2452
11
     -427.1903
21
     -347.0612
39
 0
62
  7
 0
LINE
8
default
6
CONTINUOUS
10
      427.1903
20
     -347.0612
11
      429.5530
21
     -348.8770
39
 0
62
  7
 0
LINE
8
default
6
CONTINUOUS
10
     -427.1903
20
     -347.0612
11
     -429.5530
21
     -348.8770
39
 0
62
  7
 0
LINE
8
default
6
CONTINUOUS
10
      429.5530
20
     -348.8770
11
      431.9158
21
     -350.6926
39
 0
62
  7
 0
LINE
8
default
6
CONTINUOUS
10
     -429.5530
20
     -348.8770
11
     -431.9158
21
     -350.6926
39
 0
62
  7
 0
LINE
8
default
6
CONTINUOUS
10
      431.9158
20
     -350.6926
11
      434.2789
21
     -352.5081
39
 0
62
  7
 0
LINE
8
default
6
CONTINUOUS
10
     -431.9158
20
     -350.6926
11
     -434.2789
21
     -352.5081
39
 0
62
  7
 0
LINE
8
default
6
CONTINUOUS
10
      434.2789
20
     -352.5081
11
      436.6420
21
     -354.3233
39
 0
62
  7
 0
LINE
8
default
6
CONTINUOUS
10
     -434.2789
20
     -352.5081
11
     -436.6420
21
     -354.3233
39
 0
62
  7
 0
LINE
8
default
6
CONTINUOUS
10
      436.6420
20
     -354.3233
11
      439.0054
21
     -356.1383
39
 0
62
  7
 0
LINE
8
default
6
CONTINUOUS
10
     -436.6420
20
     -354.3233
11
     -439.0054
21
     -356.1383
39
 0
62
  7
 0
LINE
8
default
6
CONTINUOUS
10
      439.0054
20
     -356.1383
11
      441.3689
21
     -357.9531
39
 0
62
  7
 0
LINE
8
default
6
CONTINUOUS
10
     -439.0054
20
     -356.1383
11
     -441.3689
21
     -357.9531
39
 0
62
  7
 0
LINE
8
default
6
CONTINUOUS
10
      441.3689
20
     -357.9531
11
      443.7325
21
     -359.7677
39
 0
62
  7
 0
LINE
8
default
6
CONTINUOUS
10
     -441.3689
20
     -357.9531
11
     -443.7325
21
     -359.7677
39
 0
62
  7
 0
LINE
8
default
6
CONTINUOUS
10
      443.7325
20
     -359.7677
11
      446.0964
21
     -361.5821
39
 0
62
  7
 0
LINE
8
default
6
CONTINUOUS
10
     -443.7325
20
     -359.7677
11
     -446.0964
21
     -361.5821
39
 0
62
  7
 0
LINE
8
default
6
CONTINUOUS
10
      446.0964
20
     -361.5821
11
      448.4603
21
     -363.3962
39
 0
62
  7
 0
LINE
8
default
6
CONTINUOUS
10
     -446.0964
20
     -361.5821
11
     -448.4603
21
     -363.3962
39
 0
62
  7
 0
LINE
8
default
6
CONTINUOUS
10
      448.4603
20
     -363.3962
11
      450.8245
21
     -365.2102
39
 0
62
  7
 0
LINE
8
default
6
CONTINUOUS
10
     -448.4603
20
     -363.3962
11
     -450.8245
21
     -365.2102
39
 0
62
  7
 0
LINE
8
default
6
CONTINUOUS
10
      450.8245
20
     -365.2102
11
      453.1888
21
     -367.0240
39
 0
62
  7
 0
LINE
8
default
6
CONTINUOUS
10
     -450.8245
20
     -365.2102
11
     -453.1888
21
     -367.0240
39
 0
62
  7
 0
LINE
8
default
6
CONTINUOUS
10
      453.1888
20
     -367.0240
11
      455.5532
21
     -368.8376
39
 0
62
  7
 0
LINE
8
default
6
CONTINUOUS
10
     -453.1888
20
     -367.0240
11
     -455.5532
21
     -368.8376
39
 0
62
  7
 0
LINE
8
default
6
CONTINUOUS
10
      455.5532
20
     -368.8376
11
      457.9179
21
     -370.6509
39
 0
62
  7
 0
LINE
8
default
6
CONTINUOUS
10
     -455.5532
20
     -368.8376
11
     -457.9179
21
     -370.6509
39
 0
62
  7
 0
LINE
8
default
6
CONTINUOUS
10
      457.9179
20
     -370.6509
11
      460.2826
21
     -372.4641
39
 0
62
  7
 0
LINE
8
default
6
CONTINUOUS
10
     -457.9179
20
     -370.6509
11
     -460.2826
21
     -372.4641
39
 0
62
  7
 0
LINE
8
default
6
CONTINUOUS
10
      460.2826
20
     -372.4641
11
      462.6476
21
     -374.2770
39
 0
62
  7
 0
LINE
8
default
6
CONTINUOUS
10
     -460.2826
20
     -372.4641
11
     -462.6476
21
     -374.2770
39
 0
62
  7
 0
LINE
8
default
6
CONTINUOUS
10
      462.6476
20
     -374.2770
11
      465.0127
21
     -376.0898
39
 0
62
  7
 0
LINE
8
default
6
CONTINUOUS
10
     -462.6476
20
     -374.2770
11
     -465.0127
21
     -376.0898
39
 0
62
  7
 0
LINE
8
default
6
CONTINUOUS
10
      465.0127
20
     -376.0898
11
      467.3779
21
     -377.9023
39
 0
62
  7
 0
LINE
8
default
6
CONTINUOUS
10
     -465.0127
20
     -376.0898
11
     -467.3779
21
     -377.9023
39
 0
62
  7
 0
LINE
8
default
6
CONTINUOUS
10
      467.3779
20
     -377.9023
11
      469.7434
21
     -379.7146
39
 0
62
  7
 0
LINE
8
default
6
CONTINUOUS
10
     -467.3779
20
     -377.9023
11
     -469.7434
21
     -379.7146
39
 0
62
  7
 0
LINE
8
default
6
CONTINUOUS
10
      469.7434
20
     -379.7146
11
      472.1089
21
     -381.5268
39
 0
62
  7
 0
LINE
8
default
6
CONTINUOUS
10
     -469.7434
20
     -379.7146
11
     -472.1089
21
     -381.5268
39
 0
62
  7
 0
LINE
8
default
6
CONTINUOUS
10
      472.1089
20
     -381.5268
11
      474.4747
21
     -383.3387
39
 0
62
  7
 0
LINE
8
default
6
CONTINUOUS
10
     -472.1089
20
     -381.5268
11
     -474.4747
21
     -383.3387
39
 0
62
  7
 0
LINE
8
default
6
CONTINUOUS
10
      474.4747
20
     -383.3387
11
      476.8406
21
     -385.1504
39
 0
62
  7
 0
LINE
8
default
6
CONTINUOUS
10
     -474.4747
20
     -383.3387
11
     -476.8406
21
     -385.1504
39
 0
62
  7
 0
LINE
8
default
6
CONTINUOUS
10
      476.8406
20
     -385.1504
11
      479.2066
21
     -386.9619
39
 0
62
  7
 0
LINE
8
default
6
CONTINUOUS
10
     -476.8406
20
     -385.1504
11
     -479.2066
21
     -386.9619
39
 0
62
  7
 0
LINE
8
default
6
CONTINUOUS
10
      479.2066
20
     -386.9619
11
      481.5729
21
     -388.7732
39
 0
62
  7
 0
LINE
8
default
6
CONTINUOUS
10
     -479.2066
20
     -386.9619
11
     -481.5729
21
     -388.7732
39
 0
62
  7
 0
LINE
8
default
6
CONTINUOUS
10
      481.5729
20
     -388.7732
11
      483.9392
21
     -390.5843
39
 0
62
  7
 0
LINE
8
default
6
CONTINUOUS
10
     -481.5729
20
     -388.7732
11
     -483.9392
21
     -390.5843
39
 0
62
  7
 0
LINE
8
default
6
CONTINUOUS
10
      483.9392
20
     -390.5843
11
      486.2451
21
     -392.3488
39
 0
62
  7
 0
LINE
8
default
6
CONTINUOUS
10
     -483.9392
20
     -390.5843
11
     -486.2451
21
     -392.3488
39
 0
62
  7
 0
LINE
8
default
6
CONTINUOUS
10
        0.0000
20
       -0.0000
11
        0.0000
21
     -426.0000
39
 0
62
  7
 0
LINE
8
default
6
CONTINUOUS
10
      252.7373
20
     -212.0752
11
        0.0000
21
     -200.0000
39
 0
62
  7
 0
LINE
8
default
6
CONTINUOUS
10
     -252.7373
20
     -212.0752
11
       -0.0000
21
     -200.0000
39
 0
62
  7
 0
LINE
8
default
6
CONTINUOUS
10
        0.0000
20
     -340.0000
11
       50.0000
21
     -330.0000
39
 0
62
  5
 0
LINE
8
default
6
CONTINUOUS
10
       -0.0000
20
     -340.0000
11
      -50.0000
21
     -330.0000
39
 0
62
  5
 0
LINE
8
default
6
CONTINUOUS
10
       50.0000
20
     -330.0000
11
      100.0000
21
     -325.0000
39
 0
62
  5
 0
LINE
8
default
6
CONTINUOUS
10
      -50.0000
20
     -330.0000
11
     -100.0000
21
     -325.0000
39
 0
62
  5
 0
LINE
8
default
6
CONTINUOUS
10
      100.0000
20
     -325.0000
11
      200.0000
21
     -340.0000
39
 0
62
  5
 0
LINE
8
default
6
CONTINUOUS
10
     -100.0000
20
     -325.0000
11
     -200.0000
21
     -340.0000
39
 0
62
  5
 0
LINE
8
default
6
CONTINUOUS
10
      200.0000
20
     -340.0000
11
      300.0000
21
     -370.0000
39
 0
62
  5
 0
LINE
8
default
6
CONTINUOUS
10
     -200.0000
20
     -340.0000
11
     -300.0000
21
     -370.0000
39
 0
62
  5
 0
LINE
8
default
6
CONTINUOUS
10
      300.0000
20
     -370.0000
11
      380.0000
21
     -395.0000
39
 0
62
  5
 0
LINE
8
default
6
CONTINUOUS
10
     -300.0000
20
     -370.0000
11
     -380.0000
21
     -395.0000
39
 0
62
  5
 0
LINE
8
default
6
CONTINUOUS
10
      380.0000
20
     -395.0000
11
      435.0000
21
     -410.0000
39
 0
62
  5
 0
LINE
8
default
6
CONTINUOUS
10
     -380.0000
20
     -395.0000
11
     -435.0000
21
     -410.0000
39
 0
62
  5
 0
LINE
8
default
6
CONTINUOUS
10
      435.0000
20
     -410.0000
11
      475.0000
21
     -410.0000
39
 0
62
  5
 0
LINE
8
default
6
CONTINUOUS
10
     -435.0000
20
     -410.0000
11
     -475.0000
21
     -410.0000
39
 0
62
  5
 0
LINE
8
default
6
CONTINUOUS
10
      475.0000
20
     -410.0000
11
      486.2451
21
     -392.3488
39
 0
62
  5
 0
LINE
8
default
6
CONTINUOUS
10
     -475.0000
20
     -410.0000
11
     -486.2451
21
     -392.3488
39
 0
62
  5
 0
LINE
8
default
6
CONTINUOUS
10
      100.0000
20
     -325.0000
11
      100.0000
21
      -87.6784
39
 0
62
 30
 0
LINE
8
default
6
CONTINUOUS
10
     -100.0000
20
     -325.0000
11
     -100.0000
21
      -87.6784
39
 0
62
 30
 0
LINE
8
default
6
CONTINUOUS
10
      200.0000
20
     -340.0000
11
      200.0000
21
     -170.3627
39
 0
62
 30
 0
LINE
8
default
6
CONTINUOUS
10
     -200.0000
20
     -340.0000
11
     -200.0000
21
     -170.3627
39
 0
62
 30
 0
LINE
8
default
6
CONTINUOUS
10
      300.0000
20
     -370.0000
11
      300.0000
21
     -248.8239
39
 0
62
 30
 0
LINE
8
default
6
CONTINUOUS
10
     -300.0000
20
     -370.0000
11
     -300.0000
21
     -248.8239
39
 0
62
 30
 0
LINE
8
default
6
CONTINUOUS
10
      380.0000
20
     -395.0000
11
      372.0931
21
     -304.6235
39
 0
62
 30
 0
LINE
8
default
6
CONTINUOUS
10
     -380.0000
20
     -395.0000
11
     -372.0931
21
     -304.6235
39
 0
62
 30
 0
LINE
8
default
6
CONTINUOUS
10
      435.0000
20
     -410.0000
11
      420.5342
21
     -341.9440
39
 0
62
 30
 0
LINE
8
default
6
CONTINUOUS
10
     -435.0000
20
     -410.0000
11
     -420.5342
21
     -341.9440
39
 0
62
 30
 0
LINE
8
default
6
CONTINUOUS
10
      475.0000
20
     -410.0000
11
      463.6401
21
     -375.0377
39
 0
62
 30
 0
LINE
8
default
6
CONTINUOUS
10
     -475.0000
20
     -410.0000
11
     -463.6401
21
     -375.0377
39
 0
62
 30
 0
LINE
8
default
6
CONTINUOUS
10
      446.5579
20
     -361.9362
11
      410.0292
21
     -409.5351
39
 0
62
  3
 0
LINE
8
default
6
CONTINUOUS
10
     -446.5579
20
     -361.9362
11
     -410.0292
21
     -409.5351
39
 0
62
  3
 0
LINE
8
default
6
CONTINUOUS
10
      248.7947
20
     -209.0002
11
      257.4688
21
     -197.8898
39
 0
62
  6
 0
LINE
8
default
6
CONTINUOUS
10
       74.9494
20
      -66.1980
11
      257.4688
21
     -197.8898
39
 0
62
  9
 0
LINE
8
default
6
CONTINUOUS
10
      406.9153
20
     -331.4655
11
      257.4688
21
     -197.8898
39
 0
62
  9
 0
LINE
8
default
6
CONTINUOUS
10
     -248.7947
20
     -209.0002
11
     -257.4688
21
     -197.8898
39
 0
62
  6
 0
LINE
8
default
6
CONTINUOUS
10
      -74.9494
20
      -66.1980
11
     -257.4688
21
     -197.8898
39
 0
62
  9
 0
LINE
8
default
6
CONTINUOUS
10
     -406.9153
20
     -331.4655
11
     -257.4688
21
     -197.8898
39
 0
62
  9
 0
LINE
8
default
6
CONTINUOUS
10
       -5.0000
20
     -210.0000
11
        5.0000
21
     -210.0000
39
 0
62
  1
 0
LINE
8
default
6
CONTINUOUS
10
       -5.0000
20
     -215.0000
11
        5.0000
21
     -215.0000
39
 0
62
  4
 0
LINE
8
default
6
CONTINUOUS
10
       -5.0000
20
     -375.0000
11
        5.0000
21
     -375.0000
39
 0
62
  3
 0
TEXT
5
10A38
8
0
6
CONTINUOUS
62
  7
10
     -335.14
20
       -0.00
30
        0.00
40
        8.00
 1
LEHG-0.11                                         
50
        0.00
0
TEXT
5
10A38
8
0
6
CONTINUOUS
62
  7
10
     -335.14
20
      -14.00
30
        0.00
40
        8.00
 1
Laboratori d'envol                                
50
        0.00
0
TEXT
5
10A38
8
0
6
CONTINUOUS
62
  7
10
     -335.14
20
      -28.00
30
        0.00
40
        8.00
 1
gnu_1978_Style                                    
50
        0.00
0
TEXT
5
10A38
8
0
6
CONTINUOUS
62
  7
10
     -335.14
20
      -42.00
30
        0.00
40
        8.00
 1
Angle 100.0 deg                                   
50
        0.00
0
TEXT
5
10A38
8
0
6
CONTINUOUS
62
  7
10
     -335.14
20
      -56.00
30
        0.00
40
        8.00
 1
Span  9.72 m                                      
50
        0.00
0
TEXT
5
10A38
8
0
6
CONTINUOUS
62
  7
10
     -335.14
20
      -70.00
30
        0.00
40
        8.00
 1
AR    6.10                                        
50
        0.00
0
TEXT
5
10A38
8
0
6
CONTINUOUS
62
  7
10
     -335.14
20
      -84.00
30
        0.00
40
        8.00
 1
Area 15.50 m2                                     
50
        0.00
0
ENDSEC
0
EOF
