0
SECTION
2
HEADER
9
$EXTMAX
10
    -900.000
20
      90.000
9
$EXTMIN
10
    5000.000
20
   -3000.000
0
ENDSEC
0
SECTION
2
ENTITIES
0
LINE
8
default
6
CONTINUOUS
10
   0.000
20
   0.000
30
   0.000
11
   1.000
21
   2.000
31
   3.000
39
 0
62
 1
 0
LINE
8
default
6
CONTINUOUS
10
  20.000
20
 286.520
30
   0.300
11
  20.013
21
 284.460
31
  -0.138
39
 0
62
 5
 0
LINE
8
default
6
CONTINUOUS
10
 -20.000
20
 286.520
30
   0.300
11
 -20.013
21
 284.460
31
  -0.138
39
 0
62
 5
 0
LINE
8
default
6
CONTINUOUS
10
  20.013
20
 284.460
30
  -0.138
11
  20.035
21
 280.761
31
  -0.917
39
 0
62
 5
 0
LINE
8
default
6
CONTINUOUS
10
 -20.013
20
 284.460
30
  -0.138
11
 -20.035
21
 280.761
31
  -0.917
39
 0
62
 5
 0
LINE
8
default
6
CONTINUOUS
10
  20.035
20
 280.761
30
  -0.917
11
  20.063
21
 276.071
31
  -1.885
39
 0
62
 5
 0
LINE
8
default
6
CONTINUOUS
10
 -20.035
20
 280.761
30
  -0.917
11
 -20.063
21
 276.071
31
  -1.885
39
 0
62
 5
 0
LINE
8
default
6
CONTINUOUS
10
  20.063
20
 276.071
30
  -1.885
11
  20.095
21
 270.638
31
  -2.982
39
 0
62
 5
 0
LINE
8
default
6
CONTINUOUS
10
 -20.063
20
 276.071
30
  -1.885
11
 -20.095
21
 270.638
31
  -2.982
39
 0
62
 5
 0
LINE
8
default
6
CONTINUOUS
10
  20.095
20
 270.638
30
  -2.982
11
  20.129
21
 264.610
31
  -4.171
39
 0
62
 5
 0
LINE
8
default
6
CONTINUOUS
10
 -20.095
20
 270.638
30
  -2.982
11
 -20.129
21
 264.610
31
  -4.171
39
 0
62
 5
 0
LINE
8
default
6
CONTINUOUS
10
  20.129
20
 264.610
30
  -4.171
11
  20.165
21
 258.094
31
  -5.425
39
 0
62
 5
 0
LINE
8
default
6
CONTINUOUS
10
 -20.129
20
 264.610
30
  -4.171
11
 -20.165
21
 258.094
31
  -5.425
39
 0
62
 5
 0
LINE
8
default
6
CONTINUOUS
10
  20.165
20
 258.094
30
  -5.425
11
  20.203
21
 251.172
31
  -6.723
39
 0
62
 5
 0
LINE
8
default
6
CONTINUOUS
10
 -20.165
20
 258.094
30
  -5.425
11
 -20.203
21
 251.172
31
  -6.723
39
 0
62
 5
 0
LINE
8
default
6
CONTINUOUS
10
  20.203
20
 251.172
30
  -6.723
11
  20.241
21
 243.912
31
  -8.051
39
 0
62
 5
 0
LINE
8
default
6
CONTINUOUS
10
 -20.203
20
 251.172
30
  -6.723
11
 -20.241
21
 243.912
31
  -8.051
39
 0
62
 5
 0
LINE
8
default
6
CONTINUOUS
10
  20.241
20
 243.912
30
  -8.051
11
  20.280
21
 236.368
31
  -9.398
39
 0
62
 5
 0
LINE
8
default
6
CONTINUOUS
10
 -20.241
20
 243.912
30
  -8.051
11
 -20.280
21
 236.368
31
  -9.398
39
 0
62
 5
 0
LINE
8
default
6
CONTINUOUS
10
  20.280
20
 236.368
30
  -9.398
11
  20.319
21
 228.589
31
 -10.752
39
 0
62
 5
 0
LINE
8
default
6
CONTINUOUS
10
 -20.280
20
 236.368
30
  -9.398
11
 -20.319
21
 228.589
31
 -10.752
39
 0
62
 5
 0
LINE
8
default
6
CONTINUOUS
10
  20.319
20
 228.589
30
 -10.752
11
  20.358
21
 220.618
31
 -12.107
39
 0
62
 5
 0
LINE
8
default
6
CONTINUOUS
10
 -20.319
20
 228.589
30
 -10.752
11
 -20.358
21
 220.618
31
 -12.107
39
 0
62
 5
 0
LINE
8
default
6
CONTINUOUS
10
  20.358
20
 220.618
30
 -12.107
11
  20.397
21
 212.492
31
 -13.456
39
 0
62
 5
 0
LINE
8
default
6
CONTINUOUS
10
 -20.358
20
 220.618
30
 -12.107
11
 -20.397
21
 212.492
31
 -13.456
39
 0
62
 5
 0
LINE
8
default
6
CONTINUOUS
10
  20.397
20
 212.492
30
 -13.456
11
  20.435
21
 204.246
31
 -14.788
39
 0
62
 5
 0
LINE
8
default
6
CONTINUOUS
10
 -20.397
20
 212.492
30
 -13.456
11
 -20.435
21
 204.246
31
 -14.788
39
 0
62
 5
 0
LINE
8
default
6
CONTINUOUS
10
  20.435
20
 204.246
30
 -14.788
11
  20.473
21
 195.911
31
 -16.102
39
 0
62
 5
 0
LINE
8
default
6
CONTINUOUS
10
 -20.435
20
 204.246
30
 -14.788
11
 -20.473
21
 195.911
31
 -16.102
39
 0
62
 5
 0
LINE
8
default
6
CONTINUOUS
10
  20.473
20
 195.911
30
 -16.102
11
  20.511
21
 187.516
31
 -17.391
39
 0
62
 5
 0
LINE
8
default
6
CONTINUOUS
10
 -20.473
20
 195.911
30
 -16.102
11
 -20.511
21
 187.516
31
 -17.391
39
 0
62
 5
 0
LINE
8
default
6
CONTINUOUS
10
  20.511
20
 187.516
30
 -17.391
11
  20.547
21
 179.089
31
 -18.651
39
 0
62
 5
 0
LINE
8
default
6
CONTINUOUS
10
 -20.511
20
 187.516
30
 -17.391
11
 -20.547
21
 179.089
31
 -18.651
39
 0
62
 5
 0
LINE
8
default
6
CONTINUOUS
10
  20.547
20
 179.089
30
 -18.651
11
  20.582
21
 170.651
31
 -19.883
39
 0
62
 5
 0
LINE
8
default
6
CONTINUOUS
10
 -20.547
20
 179.089
30
 -18.651
11
 -20.582
21
 170.651
31
 -19.883
39
 0
62
 5
 0
LINE
8
default
6
CONTINUOUS
10
  20.582
20
 170.651
30
 -19.883
11
  20.617
21
 162.230
31
 -21.074
39
 0
62
 5
 0
LINE
8
default
6
CONTINUOUS
10
 -20.582
20
 170.651
30
 -19.883
11
 -20.617
21
 162.230
31
 -21.074
39
 0
62
 5
 0
LINE
8
default
6
CONTINUOUS
10
  20.617
20
 162.230
30
 -21.074
11
  20.650
21
 153.847
31
 -22.223
39
 0
62
 5
 0
LINE
8
default
6
CONTINUOUS
10
 -20.617
20
 162.230
30
 -21.074
11
 -20.650
21
 153.847
31
 -22.223
39
 0
62
 5
 0
LINE
8
default
6
CONTINUOUS
10
  20.650
20
 153.847
30
 -22.223
11
  20.682
21
 145.523
31
 -23.325
39
 0
62
 5
 0
LINE
8
default
6
CONTINUOUS
10
 -20.650
20
 153.847
30
 -22.223
11
 -20.682
21
 145.523
31
 -23.325
39
 0
62
 5
 0
LINE
8
default
6
CONTINUOUS
10
  20.682
20
 145.523
30
 -23.325
11
  20.712
21
 137.277
31
 -24.379
39
 0
62
 5
 0
LINE
8
default
6
CONTINUOUS
10
 -20.682
20
 145.523
30
 -23.325
11
 -20.712
21
 137.277
31
 -24.379
39
 0
62
 5
 0
LINE
8
default
6
CONTINUOUS
10
  20.712
20
 137.277
30
 -24.379
11
  20.741
21
 129.126
31
 -25.382
39
 0
62
 5
 0
LINE
8
default
6
CONTINUOUS
10
 -20.712
20
 137.277
30
 -24.379
11
 -20.741
21
 129.126
31
 -25.382
39
 0
62
 5
 0
LINE
8
default
6
CONTINUOUS
10
  20.741
20
 129.126
30
 -25.382
11
  20.768
21
 121.095
31
 -26.324
39
 0
62
 5
 0
LINE
8
default
6
CONTINUOUS
10
 -20.741
20
 129.126
30
 -25.382
11
 -20.768
21
 121.095
31
 -26.324
39
 0
62
 5
 0
LINE
8
default
6
CONTINUOUS
10
  20.768
20
 121.095
30
 -26.324
11
  20.794
21
 113.193
31
 -27.200
39
 0
62
 5
 0
LINE
8
default
6
CONTINUOUS
10
 -20.768
20
 121.095
30
 -26.324
11
 -20.794
21
 113.193
31
 -27.200
39
 0
62
 5
 0
LINE
8
default
6
CONTINUOUS
10
  20.794
20
 113.193
30
 -27.200
11
  20.817
21
 105.442
31
 -28.008
39
 0
62
 5
 0
LINE
8
default
6
CONTINUOUS
10
 -20.794
20
 113.193
30
 -27.200
11
 -20.817
21
 105.442
31
 -28.008
39
 0
62
 5
 0
LINE
8
default
6
CONTINUOUS
10
  20.817
20
 105.442
30
 -28.008
11
  20.838
21
  97.858
31
 -28.741
39
 0
62
 5
 0
LINE
8
default
6
CONTINUOUS
10
 -20.817
20
 105.442
30
 -28.008
11
 -20.838
21
  97.858
31
 -28.741
39
 0
62
 5
 0
LINE
8
default
6
CONTINUOUS
10
  20.838
20
  97.858
30
 -28.741
11
  20.857
21
  90.457
31
 -29.397
39
 0
62
 5
 0
LINE
8
default
6
CONTINUOUS
10
 -20.838
20
  97.858
30
 -28.741
11
 -20.857
21
  90.457
31
 -29.397
39
 0
62
 5
 0
LINE
8
default
6
CONTINUOUS
10
  20.857
20
  90.457
30
 -29.397
11
  20.873
21
  83.251
31
 -29.964
39
 0
62
 5
 0
LINE
8
default
6
CONTINUOUS
10
 -20.857
20
  90.457
30
 -29.397
11
 -20.873
21
  83.251
31
 -29.964
39
 0
62
 5
 0
LINE
8
default
6
CONTINUOUS
10
  20.873
20
  83.251
30
 -29.964
11
  20.887
21
  76.254
31
 -30.437
39
 0
62
 5
 0
LINE
8
default
6
CONTINUOUS
10
 -20.873
20
  83.251
30
 -29.964
11
 -20.887
21
  76.254
31
 -30.437
39
 0
62
 5
 0
LINE
8
default
6
CONTINUOUS
10
  20.887
20
  76.254
30
 -30.437
11
  20.898
21
  69.484
31
 -30.812
39
 0
62
 5
 0
LINE
8
default
6
CONTINUOUS
10
 -20.887
20
  76.254
30
 -30.437
11
 -20.898
21
  69.484
31
 -30.812
39
 0
62
 5
 0
LINE
8
default
6
CONTINUOUS
10
  20.898
20
  69.484
30
 -30.812
11
  20.905
21
  62.951
31
 -31.052
39
 0
62
 5
 0
LINE
8
default
6
CONTINUOUS
10
 -20.898
20
  69.484
30
 -30.812
11
 -20.905
21
  62.951
31
 -31.052
39
 0
62
 5
 0
LINE
8
default
6
CONTINUOUS
10
  20.905
20
  62.951
30
 -31.052
11
  20.907
21
  56.674
31
 -31.121
39
 0
62
 5
 0
LINE
8
default
6
CONTINUOUS
10
 -20.905
20
  62.951
30
 -31.052
11
 -20.907
21
  56.674
31
 -31.121
39
 0
62
 5
 0
LINE
8
default
6
CONTINUOUS
10
  20.907
20
  56.674
30
 -31.121
11
  20.903
21
  50.660
31
 -30.981
39
 0
62
 5
 0
LINE
8
default
6
CONTINUOUS
10
 -20.907
20
  56.674
30
 -31.121
11
 -20.903
21
  50.660
31
 -30.981
39
 0
62
 5
 0
LINE
8
default
6
CONTINUOUS
10
  20.903
20
  50.660
30
 -30.981
11
  20.892
21
  44.926
31
 -30.603
39
 0
62
 5
 0
LINE
8
default
6
CONTINUOUS
10
 -20.903
20
  50.660
30
 -30.981
11
 -20.892
21
  44.926
31
 -30.603
39
 0
62
 5
 0
LINE
8
default
6
CONTINUOUS
10
  20.892
20
  44.926
30
 -30.603
11
  20.873
21
  39.480
31
 -29.967
39
 0
62
 5
 0
LINE
8
default
6
CONTINUOUS
10
 -20.892
20
  44.926
30
 -30.603
11
 -20.873
21
  39.480
31
 -29.967
39
 0
62
 5
 0
LINE
8
default
6
CONTINUOUS
10
  20.873
20
  39.480
30
 -29.967
11
  20.847
21
  34.337
31
 -29.056
39
 0
62
 5
 0
LINE
8
default
6
CONTINUOUS
10
 -20.873
20
  39.480
30
 -29.967
11
 -20.847
21
  34.337
31
 -29.056
39
 0
62
 5
 0
LINE
8
default
6
CONTINUOUS
10
  20.847
20
  34.337
30
 -29.056
11
  20.812
21
  29.506
31
 -27.853
39
 0
62
 5
 0
LINE
8
default
6
CONTINUOUS
10
 -20.847
20
  34.337
30
 -29.056
11
 -20.812
21
  29.506
31
 -27.853
39
 0
62
 5
 0
LINE
8
default
6
CONTINUOUS
10
  20.812
20
  29.506
30
 -27.853
11
  20.769
21
  25.002
31
 -26.364
39
 0
62
 5
 0
LINE
8
default
6
CONTINUOUS
10
 -20.812
20
  29.506
30
 -27.853
11
 -20.769
21
  25.002
31
 -26.364
39
 0
62
 5
 0
LINE
8
default
6
CONTINUOUS
10
  20.769
20
  25.002
30
 -26.364
11
  20.719
21
  20.836
31
 -24.600
39
 0
62
 5
 0
LINE
8
default
6
CONTINUOUS
10
 -20.769
20
  25.002
30
 -26.364
11
 -20.719
21
  20.836
31
 -24.600
39
 0
62
 5
 0
LINE
8
default
6
CONTINUOUS
10
  20.719
20
  20.836
30
 -24.600
11
  20.661
21
  17.014
31
 -22.595
39
 0
62
 5
 0
LINE
8
default
6
CONTINUOUS
10
 -20.719
20
  20.836
30
 -24.600
11
 -20.661
21
  17.014
31
 -22.595
39
 0
62
 5
 0
LINE
8
default
6
CONTINUOUS
10
  20.661
20
  17.014
30
 -22.595
11
  20.597
21
  13.555
31
 -20.390
39
 0
62
 5
 0
LINE
8
default
6
CONTINUOUS
10
 -20.661
20
  17.014
30
 -22.595
11
 -20.597
21
  13.555
31
 -20.390
39
 0
62
 5
 0
LINE
8
default
6
CONTINUOUS
10
  20.597
20
  13.555
30
 -20.390
11
  20.529
21
  10.464
31
 -18.024
39
 0
62
 5
 0
LINE
8
default
6
CONTINUOUS
10
 -20.597
20
  13.555
30
 -20.390
11
 -20.529
21
  10.464
31
 -18.024
39
 0
62
 5
 0
LINE
8
default
6
CONTINUOUS
10
  20.529
20
  10.464
30
 -18.024
11
  20.457
21
   7.750
31
 -15.552
39
 0
62
 5
 0
LINE
8
default
6
CONTINUOUS
10
 -20.529
20
  10.464
30
 -18.024
11
 -20.457
21
   7.750
31
 -15.552
39
 0
62
 5
 0
LINE
8
default
6
CONTINUOUS
10
  20.457
20
   7.750
30
 -15.552
11
  20.384
21
   5.427
31
 -13.009
39
 0
62
 5
 0
LINE
8
default
6
CONTINUOUS
10
 -20.457
20
   7.750
30
 -15.552
11
 -20.384
21
   5.427
31
 -13.009
39
 0
62
 5
 0
LINE
8
default
6
CONTINUOUS
10
  20.384
20
   5.427
30
 -13.009
11
  20.309
21
   3.501
31
 -10.411
39
 0
62
 5
 0
LINE
8
default
6
CONTINUOUS
10
 -20.384
20
   5.427
30
 -13.009
11
 -20.309
21
   3.501
31
 -10.411
39
 0
62
 5
 0
LINE
8
default
6
CONTINUOUS
10
  20.309
20
   3.501
30
 -10.411
11
  20.237
21
   1.988
31
  -7.903
39
 0
62
 5
 0
LINE
8
default
6
CONTINUOUS
10
 -20.309
20
   3.501
30
 -10.411
11
 -20.237
21
   1.988
31
  -7.903
39
 0
62
 5
 0
LINE
8
default
6
CONTINUOUS
10
  20.237
20
   1.988
30
  -7.903
11
  20.155
21
   0.894
31
  -5.061
39
 0
62
 5
 0
LINE
8
default
6
CONTINUOUS
10
 -20.237
20
   1.988
30
  -7.903
11
 -20.155
21
   0.894
31
  -5.061
39
 0
62
 5
 0
LINE
8
default
6
CONTINUOUS
10
  20.155
20
   0.894
30
  -5.061
11
  20.084
21
   0.229
31
  -2.604
39
 0
62
 5
 0
LINE
8
default
6
CONTINUOUS
10
 -20.155
20
   0.894
30
  -5.061
11
 -20.084
21
   0.229
31
  -2.604
39
 0
62
 5
 0
LINE
8
default
6
CONTINUOUS
10
  20.084
20
   0.229
30
  -2.604
11
  20.000
21
   0.000
31
   0.300
39
 0
62
 5
 0
LINE
8
default
6
CONTINUOUS
10
 -20.084
20
   0.229
30
  -2.604
11
 -20.000
21
   0.000
31
   0.300
39
 0
62
 5
 0
LINE
8
default
6
CONTINUOUS
10
  20.000
20
   0.000
30
   0.300
11
  19.947
21
   0.223
31
   2.127
39
 0
62
 5
 0
LINE
8
default
6
CONTINUOUS
10
 -20.000
20
   0.000
30
   0.300
11
 -19.947
21
   0.223
31
   2.127
39
 0
62
 5
 0
LINE
8
default
6
CONTINUOUS
10
  19.947
20
   0.223
30
   2.127
11
  19.896
21
   0.885
31
   3.897
39
 0
62
 5
 0
LINE
8
default
6
CONTINUOUS
10
 -19.947
20
   0.223
30
   2.127
11
 -19.896
21
   0.885
31
   3.897
39
 0
62
 5
 0
LINE
8
default
6
CONTINUOUS
10
  19.896
20
   0.885
30
   3.897
11
  19.853
21
   1.974
31
   5.392
39
 0
62
 5
 0
LINE
8
default
6
CONTINUOUS
10
 -19.896
20
   0.885
30
   3.897
11
 -19.853
21
   1.974
31
   5.392
39
 0
62
 5
 0
LINE
8
default
6
CONTINUOUS
10
  19.853
20
   1.974
30
   5.392
11
  19.806
21
   3.438
31
   7.006
39
 0
62
 5
 0
LINE
8
default
6
CONTINUOUS
10
 -19.853
20
   1.974
30
   5.392
11
 -19.806
21
   3.438
31
   7.006
39
 0
62
 5
 0
LINE
8
default
6
CONTINUOUS
10
  19.806
20
   3.438
30
   7.006
11
  19.805
21
   3.484
31
   7.056
39
 0
62
 1
 0
LINE
8
default
6
CONTINUOUS
10
 -19.806
20
   3.438
30
   7.006
11
 -19.805
21
   3.484
31
   7.056
39
 0
62
 1
 0
LINE
8
default
6
CONTINUOUS
10
  19.805
20
   3.484
30
   7.056
11
  19.764
21
   5.404
31
   8.471
39
 0
62
 1
 0
LINE
8
default
6
CONTINUOUS
10
 -19.805
20
   3.484
30
   7.056
11
 -19.764
21
   5.404
31
   8.471
39
 0
62
 1
 0
LINE
8
default
6
CONTINUOUS
10
  19.764
20
   5.404
30
   8.471
11
  19.721
21
   7.722
31
   9.975
39
 0
62
 1
 0
LINE
8
default
6
CONTINUOUS
10
 -19.764
20
   5.404
30
   8.471
11
 -19.721
21
   7.722
31
   9.975
39
 0
62
 1
 0
LINE
8
default
6
CONTINUOUS
10
  19.721
20
   7.722
30
   9.975
11
  19.680
21
  10.432
31
  11.375
39
 0
62
 1
 0
LINE
8
default
6
CONTINUOUS
10
 -19.721
20
   7.722
30
   9.975
11
 -19.680
21
  10.432
31
  11.375
39
 0
62
 1
 0
LINE
8
default
6
CONTINUOUS
10
  19.680
20
  10.432
30
  11.375
11
  19.641
21
  13.521
31
  12.733
39
 0
62
 1
 0
LINE
8
default
6
CONTINUOUS
10
 -19.680
20
  10.432
30
  11.375
11
 -19.641
21
  13.521
31
  12.733
39
 0
62
 1
 0
LINE
8
default
6
CONTINUOUS
10
  19.641
20
  13.521
30
  12.733
11
  19.617
21
  15.759
31
  13.574
39
 0
62
 1
 0
LINE
8
default
6
CONTINUOUS
10
 -19.641
20
  13.521
30
  12.733
11
 -19.617
21
  15.759
31
  13.574
39
 0
62
 1
 0
LINE
8
default
6
CONTINUOUS
10
  19.617
20
  15.759
30
  13.574
11
  19.604
21
  16.979
31
  14.033
39
 0
62
 3
 0
LINE
8
default
6
CONTINUOUS
10
 -19.617
20
  15.759
30
  13.574
11
 -19.604
21
  16.979
31
  14.033
39
 0
62
 3
 0
LINE
8
default
6
CONTINUOUS
10
  19.604
20
  16.979
30
  14.033
11
  19.569
21
  20.796
31
  15.250
39
 0
62
 3
 0
LINE
8
default
6
CONTINUOUS
10
 -19.604
20
  16.979
30
  14.033
11
 -19.569
21
  20.796
31
  15.250
39
 0
62
 3
 0
LINE
8
default
6
CONTINUOUS
10
  19.569
20
  20.796
30
  15.250
11
  19.536
21
  24.959
31
  16.370
39
 0
62
 3
 0
LINE
8
default
6
CONTINUOUS
10
 -19.569
20
  20.796
30
  15.250
11
 -19.536
21
  24.959
31
  16.370
39
 0
62
 3
 0
LINE
8
default
6
CONTINUOUS
10
  19.536
20
  24.959
30
  16.370
11
  19.507
21
  29.463
31
  17.375
39
 0
62
 3
 0
LINE
8
default
6
CONTINUOUS
10
 -19.536
20
  24.959
30
  16.370
11
 -19.507
21
  29.463
31
  17.375
39
 0
62
 3
 0
LINE
8
default
6
CONTINUOUS
10
  19.507
20
  29.463
30
  17.375
11
  19.482
21
  34.288
31
  18.252
39
 0
62
 3
 0
LINE
8
default
6
CONTINUOUS
10
 -19.507
20
  29.463
30
  17.375
11
 -19.482
21
  34.288
31
  18.252
39
 0
62
 3
 0
LINE
8
default
6
CONTINUOUS
10
  19.482
20
  34.288
30
  18.252
11
  19.461
21
  39.431
31
  18.993
39
 0
62
 3
 0
LINE
8
default
6
CONTINUOUS
10
 -19.482
20
  34.288
30
  18.252
11
 -19.461
21
  39.431
31
  18.993
39
 0
62
 3
 0
LINE
8
default
6
CONTINUOUS
10
  19.461
20
  39.431
30
  18.993
11
  19.443
21
  44.875
31
  19.586
39
 0
62
 3
 0
LINE
8
default
6
CONTINUOUS
10
 -19.461
20
  39.431
30
  18.993
11
 -19.443
21
  44.875
31
  19.586
39
 0
62
 3
 0
LINE
8
default
6
CONTINUOUS
10
  19.443
20
  44.875
30
  19.586
11
  19.431
21
  50.611
31
  20.033
39
 0
62
 3
 0
LINE
8
default
6
CONTINUOUS
10
 -19.443
20
  44.875
30
  19.586
11
 -19.431
21
  50.611
31
  20.033
39
 0
62
 3
 0
LINE
8
default
6
CONTINUOUS
10
  19.431
20
  50.611
30
  20.033
11
  19.422
21
  56.622
31
  20.334
39
 0
62
 3
 0
LINE
8
default
6
CONTINUOUS
10
 -19.431
20
  50.611
30
  20.033
11
 -19.422
21
  56.622
31
  20.334
39
 0
62
 3
 0
LINE
8
default
6
CONTINUOUS
10
  19.422
20
  56.622
30
  20.334
11
  19.417
21
  62.903
31
  20.488
39
 0
62
 3
 0
LINE
8
default
6
CONTINUOUS
10
 -19.422
20
  56.622
30
  20.334
11
 -19.417
21
  62.903
31
  20.488
39
 0
62
 3
 0
LINE
8
default
6
CONTINUOUS
10
  19.417
20
  62.903
30
  20.488
11
  19.417
21
  69.432
31
  20.511
39
 0
62
 3
 0
LINE
8
default
6
CONTINUOUS
10
 -19.417
20
  62.903
30
  20.488
11
 -19.417
21
  69.432
31
  20.511
39
 0
62
 3
 0
LINE
8
default
6
CONTINUOUS
10
  19.417
20
  69.432
30
  20.511
11
  19.420
21
  76.203
31
  20.411
39
 0
62
 3
 0
LINE
8
default
6
CONTINUOUS
10
 -19.417
20
  69.432
30
  20.511
11
 -19.420
21
  76.203
31
  20.411
39
 0
62
 3
 0
LINE
8
default
6
CONTINUOUS
10
  19.420
20
  76.203
30
  20.411
11
  19.426
21
  83.197
31
  20.191
39
 0
62
 3
 0
LINE
8
default
6
CONTINUOUS
10
 -19.420
20
  76.203
30
  20.411
11
 -19.426
21
  83.197
31
  20.191
39
 0
62
 3
 0
LINE
8
default
6
CONTINUOUS
10
  19.426
20
  83.197
30
  20.191
11
  19.435
21
  90.406
31
  19.861
39
 0
62
 3
 0
LINE
8
default
6
CONTINUOUS
10
 -19.426
20
  83.197
30
  20.191
11
 -19.435
21
  90.406
31
  19.861
39
 0
62
 3
 0
LINE
8
default
6
CONTINUOUS
10
  19.435
20
  90.406
30
  19.861
11
  19.448
21
  97.809
31
  19.432
39
 0
62
 3
 0
LINE
8
default
6
CONTINUOUS
10
 -19.435
20
  90.406
30
  19.861
11
 -19.448
21
  97.809
31
  19.432
39
 0
62
 3
 0
LINE
8
default
6
CONTINUOUS
10
  19.448
20
  97.809
30
  19.432
11
  19.463
21
 105.394
31
  18.905
39
 0
62
 3
 0
LINE
8
default
6
CONTINUOUS
10
 -19.448
20
  97.809
30
  19.432
11
 -19.463
21
 105.394
31
  18.905
39
 0
62
 3
 0
LINE
8
default
6
CONTINUOUS
10
  19.463
20
 105.394
30
  18.905
11
  19.481
21
 113.147
31
  18.297
39
 0
62
 3
 0
LINE
8
default
6
CONTINUOUS
10
 -19.463
20
 105.394
30
  18.905
11
 -19.481
21
 113.147
31
  18.297
39
 0
62
 3
 0
LINE
8
default
6
CONTINUOUS
10
  19.481
20
 113.147
30
  18.297
11
  19.500
21
 121.049
31
  17.610
39
 0
62
 3
 0
LINE
8
default
6
CONTINUOUS
10
 -19.481
20
 113.147
30
  18.297
11
 -19.500
21
 121.049
31
  17.610
39
 0
62
 3
 0
LINE
8
default
6
CONTINUOUS
10
  19.500
20
 121.049
30
  17.610
11
  19.522
21
 129.083
31
  16.857
39
 0
62
 3
 0
LINE
8
default
6
CONTINUOUS
10
 -19.500
20
 121.049
30
  17.610
11
 -19.522
21
 129.083
31
  16.857
39
 0
62
 3
 0
LINE
8
default
6
CONTINUOUS
10
  19.522
20
 129.083
30
  16.857
11
  19.545
21
 137.234
31
  16.055
39
 0
62
 3
 0
LINE
8
default
6
CONTINUOUS
10
 -19.522
20
 129.083
30
  16.857
11
 -19.545
21
 137.234
31
  16.055
39
 0
62
 3
 0
LINE
8
default
6
CONTINUOUS
10
  19.545
20
 137.234
30
  16.055
11
  19.570
21
 145.481
31
  15.201
39
 0
62
 3
 0
LINE
8
default
6
CONTINUOUS
10
 -19.545
20
 137.234
30
  16.055
11
 -19.570
21
 145.481
31
  15.201
39
 0
62
 3
 0
LINE
8
default
6
CONTINUOUS
10
  19.570
20
 145.481
30
  15.201
11
  19.596
21
 153.810
31
  14.285
39
 0
62
 3
 0
LINE
8
default
6
CONTINUOUS
10
 -19.570
20
 145.481
30
  15.201
11
 -19.596
21
 153.810
31
  14.285
39
 0
62
 3
 0
LINE
8
default
6
CONTINUOUS
10
  19.596
20
 153.810
30
  14.285
11
  19.624
21
 162.193
31
  13.314
39
 0
62
 3
 0
LINE
8
default
6
CONTINUOUS
10
 -19.596
20
 153.810
30
  14.285
11
 -19.624
21
 162.193
31
  13.314
39
 0
62
 3
 0
LINE
8
default
6
CONTINUOUS
10
  19.624
20
 162.193
30
  13.314
11
  19.654
21
 170.617
31
  12.306
39
 0
62
 3
 0
LINE
8
default
6
CONTINUOUS
10
 -19.624
20
 162.193
30
  13.314
11
 -19.654
21
 170.617
31
  12.306
39
 0
62
 3
 0
LINE
8
default
6
CONTINUOUS
10
  19.654
20
 170.617
30
  12.306
11
  19.683
21
 179.055
31
  11.275
39
 0
62
 3
 0
LINE
8
default
6
CONTINUOUS
10
 -19.654
20
 170.617
30
  12.306
11
 -19.683
21
 179.055
31
  11.275
39
 0
62
 3
 0
LINE
8
default
6
CONTINUOUS
10
  19.683
20
 179.055
30
  11.275
11
  19.713
21
 187.484
31
  10.238
39
 0
62
 3
 0
LINE
8
default
6
CONTINUOUS
10
 -19.683
20
 179.055
30
  11.275
11
 -19.713
21
 187.484
31
  10.238
39
 0
62
 3
 0
LINE
8
default
6
CONTINUOUS
10
  19.713
20
 187.484
30
  10.238
11
  19.743
21
 195.882
31
   9.213
39
 0
62
 3
 0
LINE
8
default
6
CONTINUOUS
10
 -19.713
20
 187.484
30
  10.238
11
 -19.743
21
 195.882
31
   9.213
39
 0
62
 3
 0
LINE
8
default
6
CONTINUOUS
10
  19.743
20
 195.882
30
   9.213
11
  19.772
21
 204.220
31
   8.216
39
 0
62
 3
 0
LINE
8
default
6
CONTINUOUS
10
 -19.743
20
 195.882
30
   9.213
11
 -19.772
21
 204.220
31
   8.216
39
 0
62
 3
 0
LINE
8
default
6
CONTINUOUS
10
  19.772
20
 204.220
30
   8.216
11
  19.799
21
 212.466
31
   7.265
39
 0
62
 3
 0
LINE
8
default
6
CONTINUOUS
10
 -19.772
20
 204.220
30
   8.216
11
 -19.799
21
 212.466
31
   7.265
39
 0
62
 3
 0
LINE
8
default
6
CONTINUOUS
10
  19.799
20
 212.466
30
   7.265
11
  19.825
21
 220.595
31
   6.372
39
 0
62
 3
 0
LINE
8
default
6
CONTINUOUS
10
 -19.799
20
 212.466
30
   7.265
11
 -19.825
21
 220.595
31
   6.372
39
 0
62
 3
 0
LINE
8
default
6
CONTINUOUS
10
  19.825
20
 220.595
30
   6.372
11
  19.849
21
 228.568
31
   5.544
39
 0
62
 3
 0
LINE
8
default
6
CONTINUOUS
10
 -19.825
20
 220.595
30
   6.372
11
 -19.849
21
 228.568
31
   5.544
39
 0
62
 3
 0
LINE
8
default
6
CONTINUOUS
10
  19.849
20
 228.568
30
   5.544
11
  19.871
21
 236.350
31
   4.782
39
 0
62
 3
 0
LINE
8
default
6
CONTINUOUS
10
 -19.849
20
 228.568
30
   5.544
11
 -19.871
21
 236.350
31
   4.782
39
 0
62
 3
 0
LINE
8
default
6
CONTINUOUS
10
  19.871
20
 236.350
30
   4.782
11
  19.891
21
 243.897
31
   4.086
39
 0
62
 3
 0
LINE
8
default
6
CONTINUOUS
10
 -19.871
20
 236.350
30
   4.782
11
 -19.891
21
 243.897
31
   4.086
39
 0
62
 3
 0
LINE
8
default
6
CONTINUOUS
10
  19.891
20
 243.897
30
   4.086
11
  19.909
21
 251.161
31
   3.442
39
 0
62
 3
 0
LINE
8
default
6
CONTINUOUS
10
 -19.891
20
 243.897
30
   4.086
11
 -19.909
21
 251.161
31
   3.442
39
 0
62
 3
 0
LINE
8
default
6
CONTINUOUS
10
  19.909
20
 251.161
30
   3.442
11
  19.927
21
 258.083
31
   2.840
39
 0
62
 3
 0
LINE
8
default
6
CONTINUOUS
10
 -19.909
20
 251.161
30
   3.442
11
 -19.927
21
 258.083
31
   2.840
39
 0
62
 3
 0
LINE
8
default
6
CONTINUOUS
10
  19.927
20
 258.083
30
   2.840
11
  19.943
21
 264.601
31
   2.279
39
 0
62
 3
 0
LINE
8
default
6
CONTINUOUS
10
 -19.927
20
 258.083
30
   2.840
11
 -19.943
21
 264.601
31
   2.279
39
 0
62
 3
 0
LINE
8
default
6
CONTINUOUS
10
  19.943
20
 264.601
30
   2.279
11
  19.958
21
 270.632
31
   1.758
39
 0
62
 3
 0
LINE
8
default
6
CONTINUOUS
10
 -19.943
20
 264.601
30
   2.279
11
 -19.958
21
 270.632
31
   1.758
39
 0
62
 3
 0
LINE
8
default
6
CONTINUOUS
10
  19.958
20
 270.632
30
   1.758
11
  19.972
21
 276.068
31
   1.277
39
 0
62
 3
 0
LINE
8
default
6
CONTINUOUS
10
 -19.958
20
 270.632
30
   1.758
11
 -19.972
21
 276.068
31
   1.277
39
 0
62
 3
 0
LINE
8
default
6
CONTINUOUS
10
  19.972
20
 276.068
30
   1.277
11
  19.984
21
 280.758
31
   0.847
39
 0
62
 3
 0
LINE
8
default
6
CONTINUOUS
10
 -19.972
20
 276.068
30
   1.277
11
 -19.984
21
 280.758
31
   0.847
39
 0
62
 3
 0
LINE
8
default
6
CONTINUOUS
10
  19.984
20
 280.758
30
   0.847
11
  19.994
21
 284.457
31
   0.498
39
 0
62
 3
 0
LINE
8
default
6
CONTINUOUS
10
 -19.984
20
 280.758
30
   0.847
11
 -19.994
21
 284.457
31
   0.498
39
 0
62
 3
 0
LINE
8
default
6
CONTINUOUS
10
  19.994
20
 284.457
30
   0.498
11
  20.000
21
 286.520
31
   0.300
39
 0
62
 3
 0
LINE
8
default
6
CONTINUOUS
10
 -19.994
20
 284.457
30
   0.498
11
 -20.000
21
 286.520
31
   0.300
39
 0
62
 3
 0
LINE
8
default
6
CONTINUOUS
10
  59.934
20
 286.040
30
   2.615
11
  59.970
21
 283.991
31
   2.180
39
 0
62
 5
 0
LINE
8
default
6
CONTINUOUS
10
 -59.934
20
 286.040
30
   2.615
11
 -59.970
21
 283.991
31
   2.180
39
 0
62
 5
 0
LINE
8
default
6
CONTINUOUS
10
  59.970
20
 283.991
30
   2.180
11
  60.035
21
 280.311
31
   1.406
39
 0
62
 5
 0
LINE
8
default
6
CONTINUOUS
10
 -59.970
20
 283.991
30
   2.180
11
 -60.035
21
 280.311
31
   1.406
39
 0
62
 5
 0
LINE
8
default
6
CONTINUOUS
10
  60.035
20
 280.311
30
   1.406
11
  60.116
21
 275.644
31
   0.444
39
 0
62
 5
 0
LINE
8
default
6
CONTINUOUS
10
 -60.035
20
 280.311
30
   1.406
11
 -60.116
21
 275.644
31
   0.444
39
 0
62
 5
 0
LINE
8
default
6
CONTINUOUS
10
  60.116
20
 275.644
30
   0.444
11
  60.207
21
 270.240
31
  -0.646
39
 0
62
 5
 0
LINE
8
default
6
CONTINUOUS
10
 -60.116
20
 275.644
30
   0.444
11
 -60.207
21
 270.240
31
  -0.646
39
 0
62
 5
 0
LINE
8
default
6
CONTINUOUS
10
  60.207
20
 270.240
30
  -0.646
11
  60.306
21
 264.242
31
  -1.828
39
 0
62
 5
 0
LINE
8
default
6
CONTINUOUS
10
 -60.207
20
 270.240
30
  -0.646
11
 -60.306
21
 264.242
31
  -1.828
39
 0
62
 5
 0
LINE
8
default
6
CONTINUOUS
10
  60.306
20
 264.242
30
  -1.828
11
  60.410
21
 257.760
31
  -3.075
39
 0
62
 5
 0
LINE
8
default
6
CONTINUOUS
10
 -60.306
20
 264.242
30
  -1.828
11
 -60.410
21
 257.760
31
  -3.075
39
 0
62
 5
 0
LINE
8
default
6
CONTINUOUS
10
  60.410
20
 257.760
30
  -3.075
11
  60.518
21
 250.874
31
  -4.364
39
 0
62
 5
 0
LINE
8
default
6
CONTINUOUS
10
 -60.410
20
 257.760
30
  -3.075
11
 -60.518
21
 250.874
31
  -4.364
39
 0
62
 5
 0
LINE
8
default
6
CONTINUOUS
10
  60.518
20
 250.874
30
  -4.364
11
  60.629
21
 243.651
31
  -5.685
39
 0
62
 5
 0
LINE
8
default
6
CONTINUOUS
10
 -60.518
20
 250.874
30
  -4.364
11
 -60.629
21
 243.651
31
  -5.685
39
 0
62
 5
 0
LINE
8
default
6
CONTINUOUS
10
  60.629
20
 243.651
30
  -5.685
11
  60.741
21
 236.145
31
  -7.023
39
 0
62
 5
 0
LINE
8
default
6
CONTINUOUS
10
 -60.629
20
 243.651
30
  -5.685
11
 -60.741
21
 236.145
31
  -7.023
39
 0
62
 5
 0
LINE
8
default
6
CONTINUOUS
10
  60.741
20
 236.145
30
  -7.023
11
  60.853
21
 228.406
31
  -8.370
39
 0
62
 5
 0
LINE
8
default
6
CONTINUOUS
10
 -60.741
20
 236.145
30
  -7.023
11
 -60.853
21
 228.406
31
  -8.370
39
 0
62
 5
 0
LINE
8
default
6
CONTINUOUS
10
  60.853
20
 228.406
30
  -8.370
11
  60.966
21
 220.476
31
  -9.717
39
 0
62
 5
 0
LINE
8
default
6
CONTINUOUS
10
 -60.853
20
 228.406
30
  -8.370
11
 -60.966
21
 220.476
31
  -9.717
39
 0
62
 5
 0
LINE
8
default
6
CONTINUOUS
10
  60.966
20
 220.476
30
  -9.717
11
  61.079
21
 212.392
31
 -11.058
39
 0
62
 5
 0
LINE
8
default
6
CONTINUOUS
10
 -60.966
20
 220.476
30
  -9.717
11
 -61.079
21
 212.392
31
 -11.058
39
 0
62
 5
 0
LINE
8
default
6
CONTINUOUS
10
  61.079
20
 212.392
30
 -11.058
11
  61.189
21
 204.188
31
 -12.382
39
 0
62
 5
 0
LINE
8
default
6
CONTINUOUS
10
 -61.079
20
 212.392
30
 -11.058
11
 -61.189
21
 204.188
31
 -12.382
39
 0
62
 5
 0
LINE
8
default
6
CONTINUOUS
10
  61.189
20
 204.188
30
 -12.382
11
  61.299
21
 195.896
31
 -13.689
39
 0
62
 5
 0
LINE
8
default
6
CONTINUOUS
10
 -61.189
20
 204.188
30
 -12.382
11
 -61.299
21
 195.896
31
 -13.689
39
 0
62
 5
 0
LINE
8
default
6
CONTINUOUS
10
  61.299
20
 195.896
30
 -13.689
11
  61.406
21
 187.544
31
 -14.971
39
 0
62
 5
 0
LINE
8
default
6
CONTINUOUS
10
 -61.299
20
 195.896
30
 -13.689
11
 -61.406
21
 187.544
31
 -14.971
39
 0
62
 5
 0
LINE
8
default
6
CONTINUOUS
10
  61.406
20
 187.544
30
 -14.971
11
  61.511
21
 179.161
31
 -16.224
39
 0
62
 5
 0
LINE
8
default
6
CONTINUOUS
10
 -61.406
20
 187.544
30
 -14.971
11
 -61.511
21
 179.161
31
 -16.224
39
 0
62
 5
 0
LINE
8
default
6
CONTINUOUS
10
  61.511
20
 179.161
30
 -16.224
11
  61.614
21
 170.766
31
 -17.449
39
 0
62
 5
 0
LINE
8
default
6
CONTINUOUS
10
 -61.511
20
 179.161
30
 -16.224
11
 -61.614
21
 170.766
31
 -17.449
39
 0
62
 5
 0
LINE
8
default
6
CONTINUOUS
10
  61.614
20
 170.766
30
 -17.449
11
  61.713
21
 162.388
31
 -18.634
39
 0
62
 5
 0
LINE
8
default
6
CONTINUOUS
10
 -61.614
20
 170.766
30
 -17.449
11
 -61.713
21
 162.388
31
 -18.634
39
 0
62
 5
 0
LINE
8
default
6
CONTINUOUS
10
  61.713
20
 162.388
30
 -18.634
11
  61.808
21
 154.047
31
 -19.777
39
 0
62
 5
 0
LINE
8
default
6
CONTINUOUS
10
 -61.713
20
 162.388
30
 -18.634
11
 -61.808
21
 154.047
31
 -19.777
39
 0
62
 5
 0
LINE
8
default
6
CONTINUOUS
10
  61.808
20
 154.047
30
 -19.777
11
  61.900
21
 145.766
31
 -20.874
39
 0
62
 5
 0
LINE
8
default
6
CONTINUOUS
10
 -61.808
20
 154.047
30
 -19.777
11
 -61.900
21
 145.766
31
 -20.874
39
 0
62
 5
 0
LINE
8
default
6
CONTINUOUS
10
  61.900
20
 145.766
30
 -20.874
11
  61.988
21
 137.562
31
 -21.922
39
 0
62
 5
 0
LINE
8
default
6
CONTINUOUS
10
 -61.900
20
 145.766
30
 -20.874
11
 -61.988
21
 137.562
31
 -21.922
39
 0
62
 5
 0
LINE
8
default
6
CONTINUOUS
10
  61.988
20
 137.562
30
 -21.922
11
  62.072
21
 129.453
31
 -22.920
39
 0
62
 5
 0
LINE
8
default
6
CONTINUOUS
10
 -61.988
20
 137.562
30
 -21.922
11
 -62.072
21
 129.453
31
 -22.920
39
 0
62
 5
 0
LINE
8
default
6
CONTINUOUS
10
  62.072
20
 129.453
30
 -22.920
11
  62.150
21
 121.463
31
 -23.858
39
 0
62
 5
 0
LINE
8
default
6
CONTINUOUS
10
 -62.072
20
 129.453
30
 -22.920
11
 -62.150
21
 121.463
31
 -23.858
39
 0
62
 5
 0
LINE
8
default
6
CONTINUOUS
10
  62.150
20
 121.463
30
 -23.858
11
  62.223
21
 113.601
31
 -24.730
39
 0
62
 5
 0
LINE
8
default
6
CONTINUOUS
10
 -62.150
20
 121.463
30
 -23.858
11
 -62.223
21
 113.601
31
 -24.730
39
 0
62
 5
 0
LINE
8
default
6
CONTINUOUS
10
  62.223
20
 113.601
30
 -24.730
11
  62.291
21
 105.890
31
 -25.534
39
 0
62
 5
 0
LINE
8
default
6
CONTINUOUS
10
 -62.223
20
 113.601
30
 -24.730
11
 -62.291
21
 105.890
31
 -25.534
39
 0
62
 5
 0
LINE
8
default
6
CONTINUOUS
10
  62.291
20
 105.890
30
 -25.534
11
  62.352
21
  98.344
31
 -26.264
39
 0
62
 5
 0
LINE
8
default
6
CONTINUOUS
10
 -62.291
20
 105.890
30
 -25.534
11
 -62.352
21
  98.344
31
 -26.264
39
 0
62
 5
 0
LINE
8
default
6
CONTINUOUS
10
  62.352
20
  98.344
30
 -26.264
11
  62.406
21
  90.981
31
 -26.918
39
 0
62
 5
 0
LINE
8
default
6
CONTINUOUS
10
 -62.352
20
  98.344
30
 -26.264
11
 -62.406
21
  90.981
31
 -26.918
39
 0
62
 5
 0
LINE
8
default
6
CONTINUOUS
10
  62.406
20
  90.981
30
 -26.918
11
  62.454
21
  83.812
31
 -27.483
39
 0
62
 5
 0
LINE
8
default
6
CONTINUOUS
10
 -62.406
20
  90.981
30
 -26.918
11
 -62.454
21
  83.812
31
 -27.483
39
 0
62
 5
 0
LINE
8
default
6
CONTINUOUS
10
  62.454
20
  83.812
30
 -27.483
11
  62.493
21
  76.851
31
 -27.955
39
 0
62
 5
 0
LINE
8
default
6
CONTINUOUS
10
 -62.454
20
  83.812
30
 -27.483
11
 -62.493
21
  76.851
31
 -27.955
39
 0
62
 5
 0
LINE
8
default
6
CONTINUOUS
10
  62.493
20
  76.851
30
 -27.955
11
  62.525
21
  70.115
31
 -28.329
39
 0
62
 5
 0
LINE
8
default
6
CONTINUOUS
10
 -62.493
20
  76.851
30
 -27.955
11
 -62.525
21
  70.115
31
 -28.329
39
 0
62
 5
 0
LINE
8
default
6
CONTINUOUS
10
  62.525
20
  70.115
30
 -28.329
11
  62.545
21
  63.615
31
 -28.571
39
 0
62
 5
 0
LINE
8
default
6
CONTINUOUS
10
 -62.525
20
  70.115
30
 -28.329
11
 -62.545
21
  63.615
31
 -28.571
39
 0
62
 5
 0
LINE
8
default
6
CONTINUOUS
10
  62.545
20
  63.615
30
 -28.571
11
  62.551
21
  57.369
31
 -28.641
39
 0
62
 5
 0
LINE
8
default
6
CONTINUOUS
10
 -62.545
20
  63.615
30
 -28.571
11
 -62.551
21
  57.369
31
 -28.641
39
 0
62
 5
 0
LINE
8
default
6
CONTINUOUS
10
  62.551
20
  57.369
30
 -28.641
11
  62.539
21
  51.386
31
 -28.504
39
 0
62
 5
 0
LINE
8
default
6
CONTINUOUS
10
 -62.551
20
  57.369
30
 -28.641
11
 -62.539
21
  51.386
31
 -28.504
39
 0
62
 5
 0
LINE
8
default
6
CONTINUOUS
10
  62.539
20
  51.386
30
 -28.504
11
  62.508
21
  45.681
31
 -28.132
39
 0
62
 5
 0
LINE
8
default
6
CONTINUOUS
10
 -62.539
20
  51.386
30
 -28.504
11
 -62.508
21
  45.681
31
 -28.132
39
 0
62
 5
 0
LINE
8
default
6
CONTINUOUS
10
  62.508
20
  45.681
30
 -28.132
11
  62.455
21
  40.262
31
 -27.503
39
 0
62
 5
 0
LINE
8
default
6
CONTINUOUS
10
 -62.508
20
  45.681
30
 -28.132
11
 -62.455
21
  40.262
31
 -27.503
39
 0
62
 5
 0
LINE
8
default
6
CONTINUOUS
10
  62.455
20
  40.262
30
 -27.503
11
  62.380
21
  35.144
31
 -26.602
39
 0
62
 5
 0
LINE
8
default
6
CONTINUOUS
10
 -62.455
20
  40.262
30
 -27.503
11
 -62.380
21
  35.144
31
 -26.602
39
 0
62
 5
 0
LINE
8
default
6
CONTINUOUS
10
  62.380
20
  35.144
30
 -26.602
11
  62.280
21
  30.338
31
 -25.411
39
 0
62
 5
 0
LINE
8
default
6
CONTINUOUS
10
 -62.380
20
  35.144
30
 -26.602
11
 -62.280
21
  30.338
31
 -25.411
39
 0
62
 5
 0
LINE
8
default
6
CONTINUOUS
10
  62.280
20
  30.338
30
 -25.411
11
  62.157
21
  25.856
31
 -23.935
39
 0
62
 5
 0
LINE
8
default
6
CONTINUOUS
10
 -62.280
20
  30.338
30
 -25.411
11
 -62.157
21
  25.856
31
 -23.935
39
 0
62
 5
 0
LINE
8
default
6
CONTINUOUS
10
  62.157
20
  25.856
30
 -23.935
11
  62.010
21
  21.710
31
 -22.187
39
 0
62
 5
 0
LINE
8
default
6
CONTINUOUS
10
 -62.157
20
  25.856
30
 -23.935
11
 -62.010
21
  21.710
31
 -22.187
39
 0
62
 5
 0
LINE
8
default
6
CONTINUOUS
10
  62.010
20
  21.710
30
 -22.187
11
  61.844
21
  17.907
31
 -20.200
39
 0
62
 5
 0
LINE
8
default
6
CONTINUOUS
10
 -62.010
20
  21.710
30
 -22.187
11
 -61.844
21
  17.907
31
 -20.200
39
 0
62
 5
 0
LINE
8
default
6
CONTINUOUS
10
  61.844
20
  17.907
30
 -20.200
11
  61.661
21
  14.465
31
 -18.014
39
 0
62
 5
 0
LINE
8
default
6
CONTINUOUS
10
 -61.844
20
  17.907
30
 -20.200
11
 -61.661
21
  14.465
31
 -18.014
39
 0
62
 5
 0
LINE
8
default
6
CONTINUOUS
10
  61.661
20
  14.465
30
 -18.014
11
  61.465
21
  11.388
31
 -15.669
39
 0
62
 5
 0
LINE
8
default
6
CONTINUOUS
10
 -61.661
20
  14.465
30
 -18.014
11
 -61.465
21
  11.388
31
 -15.669
39
 0
62
 5
 0
LINE
8
default
6
CONTINUOUS
10
  61.465
20
  11.388
30
 -15.669
11
  61.259
21
   8.687
31
 -13.218
39
 0
62
 5
 0
LINE
8
default
6
CONTINUOUS
10
 -61.465
20
  11.388
30
 -15.669
11
 -61.259
21
   8.687
31
 -13.218
39
 0
62
 5
 0
LINE
8
default
6
CONTINUOUS
10
  61.259
20
   8.687
30
 -13.218
11
  61.048
21
   6.374
31
 -10.697
39
 0
62
 5
 0
LINE
8
default
6
CONTINUOUS
10
 -61.259
20
   8.687
30
 -13.218
11
 -61.048
21
   6.374
31
 -10.697
39
 0
62
 5
 0
LINE
8
default
6
CONTINUOUS
10
  61.048
20
   6.374
30
 -10.697
11
  60.833
21
   4.458
31
  -8.121
39
 0
62
 5
 0
LINE
8
default
6
CONTINUOUS
10
 -61.048
20
   6.374
30
 -10.697
11
 -60.833
21
   4.458
31
  -8.121
39
 0
62
 5
 0
LINE
8
default
6
CONTINUOUS
10
  60.833
20
   4.458
30
  -8.121
11
  60.624
21
   2.952
31
  -5.633
39
 0
62
 5
 0
LINE
8
default
6
CONTINUOUS
10
 -60.833
20
   4.458
30
  -8.121
11
 -60.624
21
   2.952
31
  -5.633
39
 0
62
 5
 0
LINE
8
default
6
CONTINUOUS
10
  60.624
20
   2.952
30
  -5.633
11
  60.388
21
   1.862
31
  -2.815
39
 0
62
 5
 0
LINE
8
default
6
CONTINUOUS
10
 -60.624
20
   2.952
30
  -5.633
11
 -60.388
21
   1.862
31
  -2.815
39
 0
62
 5
 0
LINE
8
default
6
CONTINUOUS
10
  60.388
20
   1.862
30
  -2.815
11
  60.184
21
   1.199
31
  -0.378
39
 0
62
 5
 0
LINE
8
default
6
CONTINUOUS
10
 -60.388
20
   1.862
30
  -2.815
11
 -60.184
21
   1.199
31
  -0.378
39
 0
62
 5
 0
LINE
8
default
6
CONTINUOUS
10
  60.184
20
   1.199
30
  -0.378
11
  59.943
21
   0.970
31
   2.502
39
 0
62
 5
 0
LINE
8
default
6
CONTINUOUS
10
 -60.184
20
   1.199
30
  -0.378
11
 -59.943
21
   0.970
31
   2.502
39
 0
62
 5
 0
LINE
8
default
6
CONTINUOUS
10
  59.943
20
   0.970
30
   2.502
11
  59.791
21
   1.192
31
   4.315
39
 0
62
 5
 0
LINE
8
default
6
CONTINUOUS
10
 -59.943
20
   0.970
30
   2.502
11
 -59.791
21
   1.192
31
   4.315
39
 0
62
 5
 0
LINE
8
default
6
CONTINUOUS
10
  59.791
20
   1.192
30
   4.315
11
  59.644
21
   1.849
31
   6.071
39
 0
62
 5
 0
LINE
8
default
6
CONTINUOUS
10
 -59.791
20
   1.192
30
   4.315
11
 -59.644
21
   1.849
31
   6.071
39
 0
62
 5
 0
LINE
8
default
6
CONTINUOUS
10
  59.644
20
   1.849
30
   6.071
11
  59.520
21
   2.932
31
   7.554
39
 0
62
 5
 0
LINE
8
default
6
CONTINUOUS
10
 -59.644
20
   1.849
30
   6.071
11
 -59.520
21
   2.932
31
   7.554
39
 0
62
 5
 0
LINE
8
default
6
CONTINUOUS
10
  59.520
20
   2.932
30
   7.554
11
  59.386
21
   4.388
31
   9.155
39
 0
62
 5
 0
LINE
8
default
6
CONTINUOUS
10
 -59.520
20
   2.932
30
   7.554
11
 -59.386
21
   4.388
31
   9.155
39
 0
62
 5
 0
LINE
8
default
6
CONTINUOUS
10
  59.386
20
   4.388
30
   9.155
11
  59.382
21
   4.434
31
   9.205
39
 0
62
 1
 0
LINE
8
default
6
CONTINUOUS
10
 -59.386
20
   4.388
30
   9.155
11
 -59.382
21
   4.434
31
   9.205
39
 0
62
 1
 0
LINE
8
default
6
CONTINUOUS
10
  59.382
20
   4.434
30
   9.205
11
  59.264
21
   6.343
31
  10.609
39
 0
62
 1
 0
LINE
8
default
6
CONTINUOUS
10
 -59.382
20
   4.434
30
   9.205
11
 -59.264
21
   6.343
31
  10.609
39
 0
62
 1
 0
LINE
8
default
6
CONTINUOUS
10
  59.264
20
   6.343
30
  10.609
11
  59.139
21
   8.649
31
  12.101
39
 0
62
 1
 0
LINE
8
default
6
CONTINUOUS
10
 -59.264
20
   6.343
30
  10.609
11
 -59.139
21
   8.649
31
  12.101
39
 0
62
 1
 0
LINE
8
default
6
CONTINUOUS
10
  59.139
20
   8.649
30
  12.101
11
  59.023
21
  11.345
31
  13.492
39
 0
62
 1
 0
LINE
8
default
6
CONTINUOUS
10
 -59.139
20
   8.649
30
  12.101
11
 -59.023
21
  11.345
31
  13.492
39
 0
62
 1
 0
LINE
8
default
6
CONTINUOUS
10
  59.023
20
  11.345
30
  13.492
11
  58.910
21
  14.418
31
  14.839
39
 0
62
 1
 0
LINE
8
default
6
CONTINUOUS
10
 -59.023
20
  11.345
30
  13.492
11
 -58.910
21
  14.418
31
  14.839
39
 0
62
 1
 0
LINE
8
default
6
CONTINUOUS
10
  58.910
20
  14.418
30
  14.839
11
  58.840
21
  16.644
31
  15.675
39
 0
62
 1
 0
LINE
8
default
6
CONTINUOUS
10
 -58.910
20
  14.418
30
  14.839
11
 -58.840
21
  16.644
31
  15.675
39
 0
62
 1
 0
LINE
8
default
6
CONTINUOUS
10
  58.840
20
  16.644
30
  15.675
11
  58.802
21
  17.858
31
  16.131
39
 0
62
 3
 0
LINE
8
default
6
CONTINUOUS
10
 -58.840
20
  16.644
30
  15.675
11
 -58.802
21
  17.858
31
  16.131
39
 0
62
 3
 0
LINE
8
default
6
CONTINUOUS
10
  58.802
20
  17.858
30
  16.131
11
  58.701
21
  21.654
31
  17.339
39
 0
62
 3
 0
LINE
8
default
6
CONTINUOUS
10
 -58.802
20
  17.858
30
  16.131
11
 -58.701
21
  21.654
31
  17.339
39
 0
62
 3
 0
LINE
8
default
6
CONTINUOUS
10
  58.701
20
  21.654
30
  17.339
11
  58.608
21
  25.796
31
  18.452
39
 0
62
 3
 0
LINE
8
default
6
CONTINUOUS
10
 -58.701
20
  21.654
30
  17.339
11
 -58.608
21
  25.796
31
  18.452
39
 0
62
 3
 0
LINE
8
default
6
CONTINUOUS
10
  58.608
20
  25.796
30
  18.452
11
  58.524
21
  30.277
31
  19.451
39
 0
62
 3
 0
LINE
8
default
6
CONTINUOUS
10
 -58.608
20
  25.796
30
  18.452
11
 -58.524
21
  30.277
31
  19.451
39
 0
62
 3
 0
LINE
8
default
6
CONTINUOUS
10
  58.524
20
  30.277
30
  19.451
11
  58.451
21
  35.077
31
  20.322
39
 0
62
 3
 0
LINE
8
default
6
CONTINUOUS
10
 -58.524
20
  30.277
30
  19.451
11
 -58.451
21
  35.077
31
  20.322
39
 0
62
 3
 0
LINE
8
default
6
CONTINUOUS
10
  58.451
20
  35.077
30
  20.322
11
  58.389
21
  40.194
31
  21.060
39
 0
62
 3
 0
LINE
8
default
6
CONTINUOUS
10
 -58.451
20
  35.077
30
  20.322
11
 -58.389
21
  40.194
31
  21.060
39
 0
62
 3
 0
LINE
8
default
6
CONTINUOUS
10
  58.389
20
  40.194
30
  21.060
11
  58.340
21
  45.610
31
  21.650
39
 0
62
 3
 0
LINE
8
default
6
CONTINUOUS
10
 -58.389
20
  40.194
30
  21.060
11
 -58.340
21
  45.610
31
  21.650
39
 0
62
 3
 0
LINE
8
default
6
CONTINUOUS
10
  58.340
20
  45.610
30
  21.650
11
  58.303
21
  51.317
31
  22.095
39
 0
62
 3
 0
LINE
8
default
6
CONTINUOUS
10
 -58.340
20
  45.610
30
  21.650
11
 -58.303
21
  51.317
31
  22.095
39
 0
62
 3
 0
LINE
8
default
6
CONTINUOUS
10
  58.303
20
  51.317
30
  22.095
11
  58.278
21
  57.298
31
  22.396
39
 0
62
 3
 0
LINE
8
default
6
CONTINUOUS
10
 -58.303
20
  51.317
30
  22.095
11
 -58.278
21
  57.298
31
  22.396
39
 0
62
 3
 0
LINE
8
default
6
CONTINUOUS
10
  58.278
20
  57.298
30
  22.396
11
  58.264
21
  63.546
31
  22.552
39
 0
62
 3
 0
LINE
8
default
6
CONTINUOUS
10
 -58.278
20
  57.298
30
  22.396
11
 -58.264
21
  63.546
31
  22.552
39
 0
62
 3
 0
LINE
8
default
6
CONTINUOUS
10
  58.264
20
  63.546
30
  22.552
11
  58.262
21
  70.043
31
  22.577
39
 0
62
 3
 0
LINE
8
default
6
CONTINUOUS
10
 -58.264
20
  63.546
30
  22.552
11
 -58.262
21
  70.043
31
  22.577
39
 0
62
 3
 0
LINE
8
default
6
CONTINUOUS
10
  58.262
20
  70.043
30
  22.577
11
  58.270
21
  76.779
31
  22.480
39
 0
62
 3
 0
LINE
8
default
6
CONTINUOUS
10
 -58.262
20
  70.043
30
  22.577
11
 -58.270
21
  76.779
31
  22.480
39
 0
62
 3
 0
LINE
8
default
6
CONTINUOUS
10
  58.270
20
  76.779
30
  22.480
11
  58.289
21
  83.738
31
  22.264
39
 0
62
 3
 0
LINE
8
default
6
CONTINUOUS
10
 -58.270
20
  76.779
30
  22.480
11
 -58.289
21
  83.738
31
  22.264
39
 0
62
 3
 0
LINE
8
default
6
CONTINUOUS
10
  58.289
20
  83.738
30
  22.264
11
  58.316
21
  90.910
31
  21.940
39
 0
62
 3
 0
LINE
8
default
6
CONTINUOUS
10
 -58.289
20
  83.738
30
  22.264
11
 -58.316
21
  90.910
31
  21.940
39
 0
62
 3
 0
LINE
8
default
6
CONTINUOUS
10
  58.316
20
  90.910
30
  21.940
11
  58.351
21
  98.277
31
  21.517
39
 0
62
 3
 0
LINE
8
default
6
CONTINUOUS
10
 -58.316
20
  90.910
30
  21.940
11
 -58.351
21
  98.277
31
  21.517
39
 0
62
 3
 0
LINE
8
default
6
CONTINUOUS
10
  58.351
20
  98.277
30
  21.517
11
  58.395
21
 105.823
31
  20.997
39
 0
62
 3
 0
LINE
8
default
6
CONTINUOUS
10
 -58.351
20
  98.277
30
  21.517
11
 -58.395
21
 105.823
31
  20.997
39
 0
62
 3
 0
LINE
8
default
6
CONTINUOUS
10
  58.395
20
 105.823
30
  20.997
11
  58.445
21
 113.537
31
  20.398
39
 0
62
 3
 0
LINE
8
default
6
CONTINUOUS
10
 -58.395
20
 105.823
30
  20.997
11
 -58.445
21
 113.537
31
  20.398
39
 0
62
 3
 0
LINE
8
default
6
CONTINUOUS
10
  58.445
20
 113.537
30
  20.398
11
  58.502
21
 121.400
31
  19.720
39
 0
62
 3
 0
LINE
8
default
6
CONTINUOUS
10
 -58.445
20
 113.537
30
  20.398
11
 -58.502
21
 121.400
31
  19.720
39
 0
62
 3
 0
LINE
8
default
6
CONTINUOUS
10
  58.502
20
 121.400
30
  19.720
11
  58.564
21
 129.393
31
  18.976
39
 0
62
 3
 0
LINE
8
default
6
CONTINUOUS
10
 -58.502
20
 121.400
30
  19.720
11
 -58.564
21
 129.393
31
  18.976
39
 0
62
 3
 0
LINE
8
default
6
CONTINUOUS
10
  58.564
20
 129.393
30
  18.976
11
  58.630
21
 137.504
31
  18.183
39
 0
62
 3
 0
LINE
8
default
6
CONTINUOUS
10
 -58.564
20
 129.393
30
  18.976
11
 -58.630
21
 137.504
31
  18.183
39
 0
62
 3
 0
LINE
8
default
6
CONTINUOUS
10
  58.630
20
 137.504
30
  18.183
11
  58.701
21
 145.708
31
  17.340
39
 0
62
 3
 0
LINE
8
default
6
CONTINUOUS
10
 -58.630
20
 137.504
30
  18.183
11
 -58.701
21
 145.708
31
  17.340
39
 0
62
 3
 0
LINE
8
default
6
CONTINUOUS
10
  58.701
20
 145.708
30
  17.340
11
  58.777
21
 153.996
31
  16.434
39
 0
62
 3
 0
LINE
8
default
6
CONTINUOUS
10
 -58.701
20
 145.708
30
  17.340
11
 -58.777
21
 153.996
31
  16.434
39
 0
62
 3
 0
LINE
8
default
6
CONTINUOUS
10
  58.777
20
 153.996
30
  16.434
11
  58.857
21
 162.337
31
  15.475
39
 0
62
 3
 0
LINE
8
default
6
CONTINUOUS
10
 -58.777
20
 153.996
30
  16.434
11
 -58.857
21
 162.337
31
  15.475
39
 0
62
 3
 0
LINE
8
default
6
CONTINUOUS
10
  58.857
20
 162.337
30
  15.475
11
  58.940
21
 170.719
31
  14.478
39
 0
62
 3
 0
LINE
8
default
6
CONTINUOUS
10
 -58.857
20
 162.337
30
  15.475
11
 -58.940
21
 170.719
31
  14.478
39
 0
62
 3
 0
LINE
8
default
6
CONTINUOUS
10
  58.940
20
 170.719
30
  14.478
11
  59.026
21
 179.114
31
  13.459
39
 0
62
 3
 0
LINE
8
default
6
CONTINUOUS
10
 -58.940
20
 170.719
30
  14.478
11
 -59.026
21
 179.114
31
  13.459
39
 0
62
 3
 0
LINE
8
default
6
CONTINUOUS
10
  59.026
20
 179.114
30
  13.459
11
  59.112
21
 187.502
31
  12.434
39
 0
62
 3
 0
LINE
8
default
6
CONTINUOUS
10
 -59.026
20
 179.114
30
  13.459
11
 -59.112
21
 187.502
31
  12.434
39
 0
62
 3
 0
LINE
8
default
6
CONTINUOUS
10
  59.112
20
 187.502
30
  12.434
11
  59.197
21
 195.857
31
  11.420
39
 0
62
 3
 0
LINE
8
default
6
CONTINUOUS
10
 -59.112
20
 187.502
30
  12.434
11
 -59.197
21
 195.857
31
  11.420
39
 0
62
 3
 0
LINE
8
default
6
CONTINUOUS
10
  59.197
20
 195.857
30
  11.420
11
  59.279
21
 204.153
31
  10.435
39
 0
62
 3
 0
LINE
8
default
6
CONTINUOUS
10
 -59.197
20
 195.857
30
  11.420
11
 -59.279
21
 204.153
31
  10.435
39
 0
62
 3
 0
LINE
8
default
6
CONTINUOUS
10
  59.279
20
 204.153
30
  10.435
11
  59.358
21
 212.358
31
   9.495
39
 0
62
 3
 0
LINE
8
default
6
CONTINUOUS
10
 -59.279
20
 204.153
30
  10.435
11
 -59.358
21
 212.358
31
   9.495
39
 0
62
 3
 0
LINE
8
default
6
CONTINUOUS
10
  59.358
20
 212.358
30
   9.495
11
  59.432
21
 220.446
31
   8.612
39
 0
62
 3
 0
LINE
8
default
6
CONTINUOUS
10
 -59.358
20
 212.358
30
   9.495
11
 -59.432
21
 220.446
31
   8.612
39
 0
62
 3
 0
LINE
8
default
6
CONTINUOUS
10
  59.432
20
 220.446
30
   8.612
11
  59.500
21
 228.380
31
   7.794
39
 0
62
 3
 0
LINE
8
default
6
CONTINUOUS
10
 -59.432
20
 220.446
30
   8.612
11
 -59.500
21
 228.380
31
   7.794
39
 0
62
 3
 0
LINE
8
default
6
CONTINUOUS
10
  59.500
20
 228.380
30
   7.794
11
  59.563
21
 236.122
31
   7.041
39
 0
62
 3
 0
LINE
8
default
6
CONTINUOUS
10
 -59.500
20
 228.380
30
   7.794
11
 -59.563
21
 236.122
31
   7.041
39
 0
62
 3
 0
LINE
8
default
6
CONTINUOUS
10
  59.563
20
 236.122
30
   7.041
11
  59.621
21
 243.631
31
   6.354
39
 0
62
 3
 0
LINE
8
default
6
CONTINUOUS
10
 -59.563
20
 236.122
30
   7.041
11
 -59.621
21
 243.631
31
   6.354
39
 0
62
 3
 0
LINE
8
default
6
CONTINUOUS
10
  59.621
20
 243.631
30
   6.354
11
  59.674
21
 250.858
31
   5.718
39
 0
62
 3
 0
LINE
8
default
6
CONTINUOUS
10
 -59.621
20
 243.631
30
   6.354
11
 -59.674
21
 250.858
31
   5.718
39
 0
62
 3
 0
LINE
8
default
6
CONTINUOUS
10
  59.674
20
 250.858
30
   5.718
11
  59.724
21
 257.746
31
   5.124
39
 0
62
 3
 0
LINE
8
default
6
CONTINUOUS
10
 -59.674
20
 250.858
30
   5.718
11
 -59.724
21
 257.746
31
   5.124
39
 0
62
 3
 0
LINE
8
default
6
CONTINUOUS
10
  59.724
20
 257.746
30
   5.124
11
  59.770
21
 264.231
31
   4.570
39
 0
62
 3
 0
LINE
8
default
6
CONTINUOUS
10
 -59.724
20
 257.746
30
   5.124
11
 -59.770
21
 264.231
31
   4.570
39
 0
62
 3
 0
LINE
8
default
6
CONTINUOUS
10
  59.770
20
 264.231
30
   4.570
11
  59.813
21
 270.232
31
   4.055
39
 0
62
 3
 0
LINE
8
default
6
CONTINUOUS
10
 -59.770
20
 264.231
30
   4.570
11
 -59.813
21
 270.232
31
   4.055
39
 0
62
 3
 0
LINE
8
default
6
CONTINUOUS
10
  59.813
20
 270.232
30
   4.055
11
  59.853
21
 275.640
31
   3.580
39
 0
62
 3
 0
LINE
8
default
6
CONTINUOUS
10
 -59.813
20
 270.232
30
   4.055
11
 -59.853
21
 275.640
31
   3.580
39
 0
62
 3
 0
LINE
8
default
6
CONTINUOUS
10
  59.853
20
 275.640
30
   3.580
11
  59.888
21
 280.307
31
   3.156
39
 0
62
 3
 0
LINE
8
default
6
CONTINUOUS
10
 -59.853
20
 275.640
30
   3.580
11
 -59.888
21
 280.307
31
   3.156
39
 0
62
 3
 0
LINE
8
default
6
CONTINUOUS
10
  59.888
20
 280.307
30
   3.156
11
  59.917
21
 283.987
31
   2.810
39
 0
62
 3
 0
LINE
8
default
6
CONTINUOUS
10
 -59.888
20
 280.307
30
   3.156
11
 -59.917
21
 283.987
31
   2.810
39
 0
62
 3
 0
LINE
8
default
6
CONTINUOUS
10
  59.917
20
 283.987
30
   2.810
11
  59.934
21
 286.040
31
   2.615
39
 0
62
 3
 0
LINE
8
default
6
CONTINUOUS
10
 -59.917
20
 283.987
30
   2.810
11
 -59.934
21
 286.040
31
   2.615
39
 0
62
 3
 0
LINE
8
default
6
CONTINUOUS
10
  99.649
20
 285.080
30
   7.305
11
  99.711
21
 283.051
31
   6.876
39
 0
62
 5
 0
LINE
8
default
6
CONTINUOUS
10
 -99.649
20
 285.080
30
   7.305
11
 -99.711
21
 283.051
31
   6.876
39
 0
62
 5
 0
LINE
8
default
6
CONTINUOUS
10
  99.711
20
 283.051
30
   6.876
11
  99.822
21
 279.407
31
   6.112
39
 0
62
 5
 0
LINE
8
default
6
CONTINUOUS
10
 -99.711
20
 283.051
30
   6.876
11
 -99.822
21
 279.407
31
   6.112
39
 0
62
 5
 0
LINE
8
default
6
CONTINUOUS
10
  99.822
20
 279.407
30
   6.112
11
  99.961
21
 274.787
31
   5.162
39
 0
62
 5
 0
LINE
8
default
6
CONTINUOUS
10
 -99.822
20
 279.407
30
   6.112
11
 -99.961
21
 274.787
31
   5.162
39
 0
62
 5
 0
LINE
8
default
6
CONTINUOUS
10
  99.961
20
 274.787
30
   5.162
11
 100.117
21
 269.436
31
   4.086
39
 0
62
 5
 0
LINE
8
default
6
CONTINUOUS
10
 -99.961
20
 274.787
30
   5.162
11
-100.117
21
 269.436
31
   4.086
39
 0
62
 5
 0
LINE
8
default
6
CONTINUOUS
10
 100.117
20
 269.436
30
   4.086
11
 100.287
21
 263.497
31
   2.920
39
 0
62
 5
 0
LINE
8
default
6
CONTINUOUS
10
-100.117
20
 269.436
30
   4.086
11
-100.287
21
 263.497
31
   2.920
39
 0
62
 5
 0
LINE
8
default
6
CONTINUOUS
10
 100.287
20
 263.497
30
   2.920
11
 100.466
21
 257.079
31
   1.689
39
 0
62
 5
 0
LINE
8
default
6
CONTINUOUS
10
-100.287
20
 263.497
30
   2.920
11
-100.466
21
 257.079
31
   1.689
39
 0
62
 5
 0
LINE
8
default
6
CONTINUOUS
10
 100.466
20
 257.079
30
   1.689
11
 100.652
21
 250.261
31
   0.416
39
 0
62
 5
 0
LINE
8
default
6
CONTINUOUS
10
-100.466
20
 257.079
30
   1.689
11
-100.652
21
 250.261
31
   0.416
39
 0
62
 5
 0
LINE
8
default
6
CONTINUOUS
10
 100.652
20
 250.261
30
   0.416
11
 100.841
21
 243.109
31
  -0.889
39
 0
62
 5
 0
LINE
8
default
6
CONTINUOUS
10
-100.652
20
 250.261
30
   0.416
11
-100.841
21
 243.109
31
  -0.889
39
 0
62
 5
 0
LINE
8
default
6
CONTINUOUS
10
 100.841
20
 243.109
30
  -0.889
11
 101.034
21
 235.677
31
  -2.210
39
 0
62
 5
 0
LINE
8
default
6
CONTINUOUS
10
-100.841
20
 243.109
30
  -0.889
11
-101.034
21
 235.677
31
  -2.210
39
 0
62
 5
 0
LINE
8
default
6
CONTINUOUS
10
 101.034
20
 235.677
30
  -2.210
11
 101.227
21
 228.014
31
  -3.540
39
 0
62
 5
 0
LINE
8
default
6
CONTINUOUS
10
-101.034
20
 235.677
30
  -2.210
11
-101.227
21
 228.014
31
  -3.540
39
 0
62
 5
 0
LINE
8
default
6
CONTINUOUS
10
 101.227
20
 228.014
30
  -3.540
11
 101.421
21
 220.162
31
  -4.871
39
 0
62
 5
 0
LINE
8
default
6
CONTINUOUS
10
-101.227
20
 228.014
30
  -3.540
11
-101.421
21
 220.162
31
  -4.871
39
 0
62
 5
 0
LINE
8
default
6
CONTINUOUS
10
 101.421
20
 220.162
30
  -4.871
11
 101.614
21
 212.158
31
  -6.196
39
 0
62
 5
 0
LINE
8
default
6
CONTINUOUS
10
-101.421
20
 220.162
30
  -4.871
11
-101.614
21
 212.158
31
  -6.196
39
 0
62
 5
 0
LINE
8
default
6
CONTINUOUS
10
 101.614
20
 212.158
30
  -6.196
11
 101.804
21
 204.035
31
  -7.504
39
 0
62
 5
 0
LINE
8
default
6
CONTINUOUS
10
-101.614
20
 212.158
30
  -6.196
11
-101.804
21
 204.035
31
  -7.504
39
 0
62
 5
 0
LINE
8
default
6
CONTINUOUS
10
 101.804
20
 204.035
30
  -7.504
11
 101.992
21
 195.824
31
  -8.795
39
 0
62
 5
 0
LINE
8
default
6
CONTINUOUS
10
-101.804
20
 204.035
30
  -7.504
11
-101.992
21
 195.824
31
  -8.795
39
 0
62
 5
 0
LINE
8
default
6
CONTINUOUS
10
 101.992
20
 195.824
30
  -8.795
11
 102.177
21
 187.554
31
 -10.062
39
 0
62
 5
 0
LINE
8
default
6
CONTINUOUS
10
-101.992
20
 195.824
30
  -8.795
11
-102.177
21
 187.554
31
 -10.062
39
 0
62
 5
 0
LINE
8
default
6
CONTINUOUS
10
 102.177
20
 187.554
30
 -10.062
11
 102.357
21
 179.253
31
 -11.301
39
 0
62
 5
 0
LINE
8
default
6
CONTINUOUS
10
-102.177
20
 187.554
30
 -10.062
11
-102.357
21
 179.253
31
 -11.301
39
 0
62
 5
 0
LINE
8
default
6
CONTINUOUS
10
 102.357
20
 179.253
30
 -11.301
11
 102.533
21
 170.941
31
 -12.511
39
 0
62
 5
 0
LINE
8
default
6
CONTINUOUS
10
-102.357
20
 179.253
30
 -11.301
11
-102.533
21
 170.941
31
 -12.511
39
 0
62
 5
 0
LINE
8
default
6
CONTINUOUS
10
 102.533
20
 170.941
30
 -12.511
11
 102.704
21
 162.645
31
 -13.683
39
 0
62
 5
 0
LINE
8
default
6
CONTINUOUS
10
-102.533
20
 170.941
30
 -12.511
11
-102.704
21
 162.645
31
 -13.683
39
 0
62
 5
 0
LINE
8
default
6
CONTINUOUS
10
 102.704
20
 162.645
30
 -13.683
11
 102.868
21
 154.387
31
 -14.813
39
 0
62
 5
 0
LINE
8
default
6
CONTINUOUS
10
-102.704
20
 162.645
30
 -13.683
11
-102.868
21
 154.387
31
 -14.813
39
 0
62
 5
 0
LINE
8
default
6
CONTINUOUS
10
 102.868
20
 154.387
30
 -14.813
11
 103.026
21
 146.187
31
 -15.898
39
 0
62
 5
 0
LINE
8
default
6
CONTINUOUS
10
-102.868
20
 154.387
30
 -14.813
11
-103.026
21
 146.187
31
 -15.898
39
 0
62
 5
 0
LINE
8
default
6
CONTINUOUS
10
 103.026
20
 146.187
30
 -15.898
11
 103.177
21
 138.064
31
 -16.935
39
 0
62
 5
 0
LINE
8
default
6
CONTINUOUS
10
-103.026
20
 146.187
30
 -15.898
11
-103.177
21
 138.064
31
 -16.935
39
 0
62
 5
 0
LINE
8
default
6
CONTINUOUS
10
 103.177
20
 138.064
30
 -16.935
11
 103.321
21
 130.033
31
 -17.922
39
 0
62
 5
 0
LINE
8
default
6
CONTINUOUS
10
-103.177
20
 138.064
30
 -16.935
11
-103.321
21
 130.033
31
 -17.922
39
 0
62
 5
 0
LINE
8
default
6
CONTINUOUS
10
 103.321
20
 130.033
30
 -17.922
11
 103.456
21
 122.122
31
 -18.850
39
 0
62
 5
 0
LINE
8
default
6
CONTINUOUS
10
-103.321
20
 130.033
30
 -17.922
11
-103.456
21
 122.122
31
 -18.850
39
 0
62
 5
 0
LINE
8
default
6
CONTINUOUS
10
 103.456
20
 122.122
30
 -18.850
11
 103.582
21
 114.337
31
 -19.714
39
 0
62
 5
 0
LINE
8
default
6
CONTINUOUS
10
-103.456
20
 122.122
30
 -18.850
11
-103.582
21
 114.337
31
 -19.714
39
 0
62
 5
 0
LINE
8
default
6
CONTINUOUS
10
 103.582
20
 114.337
30
 -19.714
11
 103.698
21
 106.701
31
 -20.510
39
 0
62
 5
 0
LINE
8
default
6
CONTINUOUS
10
-103.582
20
 114.337
30
 -19.714
11
-103.698
21
 106.701
31
 -20.510
39
 0
62
 5
 0
LINE
8
default
6
CONTINUOUS
10
 103.698
20
 106.701
30
 -20.510
11
 103.803
21
  99.230
31
 -21.234
39
 0
62
 5
 0
LINE
8
default
6
CONTINUOUS
10
-103.698
20
 106.701
30
 -20.510
11
-103.803
21
  99.230
31
 -21.234
39
 0
62
 5
 0
LINE
8
default
6
CONTINUOUS
10
 103.803
20
  99.230
30
 -21.234
11
 103.897
21
  91.939
31
 -21.882
39
 0
62
 5
 0
LINE
8
default
6
CONTINUOUS
10
-103.803
20
  99.230
30
 -21.234
11
-103.897
21
  91.939
31
 -21.882
39
 0
62
 5
 0
LINE
8
default
6
CONTINUOUS
10
 103.897
20
  91.939
30
 -21.882
11
 103.979
21
  84.840
31
 -22.443
39
 0
62
 5
 0
LINE
8
default
6
CONTINUOUS
10
-103.897
20
  91.939
30
 -21.882
11
-103.979
21
  84.840
31
 -22.443
39
 0
62
 5
 0
LINE
8
default
6
CONTINUOUS
10
 103.979
20
  84.840
30
 -22.443
11
 104.047
21
  77.946
31
 -22.912
39
 0
62
 5
 0
LINE
8
default
6
CONTINUOUS
10
-103.979
20
  84.840
30
 -22.443
11
-104.047
21
  77.946
31
 -22.912
39
 0
62
 5
 0
LINE
8
default
6
CONTINUOUS
10
 104.047
20
  77.946
30
 -22.912
11
 104.102
21
  71.276
31
 -23.286
39
 0
62
 5
 0
LINE
8
default
6
CONTINUOUS
10
-104.047
20
  77.946
30
 -22.912
11
-104.102
21
  71.276
31
 -23.286
39
 0
62
 5
 0
LINE
8
default
6
CONTINUOUS
10
 104.102
20
  71.276
30
 -23.286
11
 104.137
21
  64.840
31
 -23.528
39
 0
62
 5
 0
LINE
8
default
6
CONTINUOUS
10
-104.102
20
  71.276
30
 -23.286
11
-104.137
21
  64.840
31
 -23.528
39
 0
62
 5
 0
LINE
8
default
6
CONTINUOUS
10
 104.137
20
  64.840
30
 -23.528
11
 104.148
21
  58.655
31
 -23.602
39
 0
62
 5
 0
LINE
8
default
6
CONTINUOUS
10
-104.137
20
  64.840
30
 -23.528
11
-104.148
21
  58.655
31
 -23.602
39
 0
62
 5
 0
LINE
8
default
6
CONTINUOUS
10
 104.148
20
  58.655
30
 -23.602
11
 104.129
21
  52.729
31
 -23.472
39
 0
62
 5
 0
LINE
8
default
6
CONTINUOUS
10
-104.148
20
  58.655
30
 -23.602
11
-104.129
21
  52.729
31
 -23.472
39
 0
62
 5
 0
LINE
8
default
6
CONTINUOUS
10
 104.129
20
  52.729
30
 -23.472
11
 104.076
21
  47.080
31
 -23.110
39
 0
62
 5
 0
LINE
8
default
6
CONTINUOUS
10
-104.129
20
  52.729
30
 -23.472
11
-104.076
21
  47.080
31
 -23.110
39
 0
62
 5
 0
LINE
8
default
6
CONTINUOUS
10
 104.076
20
  47.080
30
 -23.110
11
 103.987
21
  41.713
31
 -22.495
39
 0
62
 5
 0
LINE
8
default
6
CONTINUOUS
10
-104.076
20
  47.080
30
 -23.110
11
-103.987
21
  41.713
31
 -22.495
39
 0
62
 5
 0
LINE
8
default
6
CONTINUOUS
10
 103.987
20
  41.713
30
 -22.495
11
 103.858
21
  36.644
31
 -21.613
39
 0
62
 5
 0
LINE
8
default
6
CONTINUOUS
10
-103.987
20
  41.713
30
 -22.495
11
-103.858
21
  36.644
31
 -21.613
39
 0
62
 5
 0
LINE
8
default
6
CONTINUOUS
10
 103.858
20
  36.644
30
 -21.613
11
 103.688
21
  31.883
31
 -20.445
39
 0
62
 5
 0
LINE
8
default
6
CONTINUOUS
10
-103.858
20
  36.644
30
 -21.613
11
-103.688
21
  31.883
31
 -20.445
39
 0
62
 5
 0
LINE
8
default
6
CONTINUOUS
10
 103.688
20
  31.883
30
 -20.445
11
 103.477
21
  27.444
31
 -18.998
39
 0
62
 5
 0
LINE
8
default
6
CONTINUOUS
10
-103.688
20
  31.883
30
 -20.445
11
-103.477
21
  27.444
31
 -18.998
39
 0
62
 5
 0
LINE
8
default
6
CONTINUOUS
10
 103.477
20
  27.444
30
 -18.998
11
 103.228
21
  23.337
31
 -17.281
39
 0
62
 5
 0
LINE
8
default
6
CONTINUOUS
10
-103.477
20
  27.444
30
 -18.998
11
-103.228
21
  23.337
31
 -17.281
39
 0
62
 5
 0
LINE
8
default
6
CONTINUOUS
10
 103.228
20
  23.337
30
 -17.281
11
 102.944
21
  19.569
31
 -15.330
39
 0
62
 5
 0
LINE
8
default
6
CONTINUOUS
10
-103.228
20
  23.337
30
 -17.281
11
-102.944
21
  19.569
31
 -15.330
39
 0
62
 5
 0
LINE
8
default
6
CONTINUOUS
10
 102.944
20
  19.569
30
 -15.330
11
 102.631
21
  16.159
31
 -13.183
39
 0
62
 5
 0
LINE
8
default
6
CONTINUOUS
10
-102.944
20
  19.569
30
 -15.330
11
-102.631
21
  16.159
31
 -13.183
39
 0
62
 5
 0
LINE
8
default
6
CONTINUOUS
10
 102.631
20
  16.159
30
 -13.183
11
 102.296
21
  13.111
31
 -10.879
39
 0
62
 5
 0
LINE
8
default
6
CONTINUOUS
10
-102.631
20
  16.159
30
 -13.183
11
-102.296
21
  13.111
31
 -10.879
39
 0
62
 5
 0
LINE
8
default
6
CONTINUOUS
10
 102.296
20
  13.111
30
 -10.879
11
 101.945
21
  10.434
31
  -8.471
39
 0
62
 5
 0
LINE
8
default
6
CONTINUOUS
10
-102.296
20
  13.111
30
 -10.879
11
-101.945
21
  10.434
31
  -8.471
39
 0
62
 5
 0
LINE
8
default
6
CONTINUOUS
10
 101.945
20
  10.434
30
  -8.471
11
 101.584
21
   8.142
31
  -5.993
39
 0
62
 5
 0
LINE
8
default
6
CONTINUOUS
10
-101.945
20
  10.434
30
  -8.471
11
-101.584
21
   8.142
31
  -5.993
39
 0
62
 5
 0
LINE
8
default
6
CONTINUOUS
10
 101.584
20
   8.142
30
  -5.993
11
 101.216
21
   6.242
31
  -3.462
39
 0
62
 5
 0
LINE
8
default
6
CONTINUOUS
10
-101.584
20
   8.142
30
  -5.993
11
-101.216
21
   6.242
31
  -3.462
39
 0
62
 5
 0
LINE
8
default
6
CONTINUOUS
10
 101.216
20
   6.242
30
  -3.462
11
 100.860
21
   4.749
31
  -1.016
39
 0
62
 5
 0
LINE
8
default
6
CONTINUOUS
10
-101.216
20
   6.242
30
  -3.462
11
-100.860
21
   4.749
31
  -1.016
39
 0
62
 5
 0
LINE
8
default
6
CONTINUOUS
10
 100.860
20
   4.749
30
  -1.016
11
 100.457
21
   3.667
31
   1.754
39
 0
62
 5
 0
LINE
8
default
6
CONTINUOUS
10
-100.860
20
   4.749
30
  -1.016
11
-100.457
21
   3.667
31
   1.754
39
 0
62
 5
 0
LINE
8
default
6
CONTINUOUS
10
 100.457
20
   3.667
30
   1.754
11
 100.108
21
   3.009
31
   4.150
39
 0
62
 5
 0
LINE
8
default
6
CONTINUOUS
10
-100.457
20
   3.667
30
   1.754
11
-100.108
21
   3.009
31
   4.150
39
 0
62
 5
 0
LINE
8
default
6
CONTINUOUS
10
 100.108
20
   3.009
30
   4.150
11
  99.696
21
   2.780
31
   6.982
39
 0
62
 5
 0
LINE
8
default
6
CONTINUOUS
10
-100.108
20
   3.009
30
   4.150
11
 -99.696
21
   2.780
31
   6.982
39
 0
62
 5
 0
LINE
8
default
6
CONTINUOUS
10
  99.696
20
   2.780
30
   6.982
11
  99.436
21
   2.998
31
   8.765
39
 0
62
 5
 0
LINE
8
default
6
CONTINUOUS
10
 -99.696
20
   2.780
30
   6.982
11
 -99.436
21
   2.998
31
   8.765
39
 0
62
 5
 0
LINE
8
default
6
CONTINUOUS
10
  99.436
20
   2.998
30
   8.765
11
  99.185
21
   3.648
31
  10.492
39
 0
62
 5
 0
LINE
8
default
6
CONTINUOUS
10
 -99.436
20
   2.998
30
   8.765
11
 -99.185
21
   3.648
31
  10.492
39
 0
62
 5
 0
LINE
8
default
6
CONTINUOUS
10
  99.185
20
   3.648
30
  10.492
11
  98.972
21
   4.719
31
  11.951
39
 0
62
 5
 0
LINE
8
default
6
CONTINUOUS
10
 -99.185
20
   3.648
30
  10.492
11
 -98.972
21
   4.719
31
  11.951
39
 0
62
 5
 0
LINE
8
default
6
CONTINUOUS
10
  98.972
20
   4.719
30
  11.951
11
  98.743
21
   6.160
31
  13.527
39
 0
62
 5
 0
LINE
8
default
6
CONTINUOUS
10
 -98.972
20
   4.719
30
  11.951
11
 -98.743
21
   6.160
31
  13.527
39
 0
62
 5
 0
LINE
8
default
6
CONTINUOUS
10
  98.743
20
   6.160
30
  13.527
11
  98.736
21
   6.205
31
  13.576
39
 0
62
 1
 0
LINE
8
default
6
CONTINUOUS
10
 -98.743
20
   6.160
30
  13.527
11
 -98.736
21
   6.205
31
  13.576
39
 0
62
 1
 0
LINE
8
default
6
CONTINUOUS
10
  98.736
20
   6.205
30
  13.576
11
  98.535
21
   8.095
31
  14.958
39
 0
62
 1
 0
LINE
8
default
6
CONTINUOUS
10
 -98.736
20
   6.205
30
  13.576
11
 -98.535
21
   8.095
31
  14.958
39
 0
62
 1
 0
LINE
8
default
6
CONTINUOUS
10
  98.535
20
   8.095
30
  14.958
11
  98.321
21
  10.377
31
  16.428
39
 0
62
 1
 0
LINE
8
default
6
CONTINUOUS
10
 -98.535
20
   8.095
30
  14.958
11
 -98.321
21
  10.377
31
  16.428
39
 0
62
 1
 0
LINE
8
default
6
CONTINUOUS
10
  98.321
20
  10.377
30
  16.428
11
  98.121
21
  13.046
31
  17.797
39
 0
62
 1
 0
LINE
8
default
6
CONTINUOUS
10
 -98.321
20
  10.377
30
  16.428
11
 -98.121
21
  13.046
31
  17.797
39
 0
62
 1
 0
LINE
8
default
6
CONTINUOUS
10
  98.121
20
  13.046
30
  17.797
11
  97.928
21
  16.088
31
  19.124
39
 0
62
 1
 0
LINE
8
default
6
CONTINUOUS
10
 -98.121
20
  13.046
30
  17.797
11
 -97.928
21
  16.088
31
  19.124
39
 0
62
 1
 0
LINE
8
default
6
CONTINUOUS
10
  97.928
20
  16.088
30
  19.124
11
  97.808
21
  18.291
31
  19.948
39
 0
62
 1
 0
LINE
8
default
6
CONTINUOUS
10
 -97.928
20
  16.088
30
  19.124
11
 -97.808
21
  18.291
31
  19.948
39
 0
62
 1
 0
LINE
8
default
6
CONTINUOUS
10
  97.808
20
  18.291
30
  19.948
11
  97.743
21
  19.493
31
  20.397
39
 0
62
 3
 0
LINE
8
default
6
CONTINUOUS
10
 -97.808
20
  18.291
30
  19.948
11
 -97.743
21
  19.493
31
  20.397
39
 0
62
 3
 0
LINE
8
default
6
CONTINUOUS
10
  97.743
20
  19.493
30
  20.397
11
  97.570
21
  23.252
31
  21.588
39
 0
62
 3
 0
LINE
8
default
6
CONTINUOUS
10
 -97.743
20
  19.493
30
  20.397
11
 -97.570
21
  23.252
31
  21.588
39
 0
62
 3
 0
LINE
8
default
6
CONTINUOUS
10
  97.570
20
  23.252
30
  21.588
11
  97.410
21
  27.353
31
  22.685
39
 0
62
 3
 0
LINE
8
default
6
CONTINUOUS
10
 -97.570
20
  23.252
30
  21.588
11
 -97.410
21
  27.353
31
  22.685
39
 0
62
 3
 0
LINE
8
default
6
CONTINUOUS
10
  97.410
20
  27.353
30
  22.685
11
  97.266
21
  31.789
31
  23.671
39
 0
62
 3
 0
LINE
8
default
6
CONTINUOUS
10
 -97.410
20
  27.353
30
  22.685
11
 -97.266
21
  31.789
31
  23.671
39
 0
62
 3
 0
LINE
8
default
6
CONTINUOUS
10
  97.266
20
  31.789
30
  23.671
11
  97.141
21
  36.542
31
  24.531
39
 0
62
 3
 0
LINE
8
default
6
CONTINUOUS
10
 -97.266
20
  31.789
30
  23.671
11
 -97.141
21
  36.542
31
  24.531
39
 0
62
 3
 0
LINE
8
default
6
CONTINUOUS
10
  97.141
20
  36.542
30
  24.531
11
  97.035
21
  41.609
31
  25.260
39
 0
62
 3
 0
LINE
8
default
6
CONTINUOUS
10
 -97.141
20
  36.542
30
  24.531
11
 -97.035
21
  41.609
31
  25.260
39
 0
62
 3
 0
LINE
8
default
6
CONTINUOUS
10
  97.035
20
  41.609
30
  25.260
11
  96.950
21
  46.972
31
  25.845
39
 0
62
 3
 0
LINE
8
default
6
CONTINUOUS
10
 -97.035
20
  41.609
30
  25.260
11
 -96.950
21
  46.972
31
  25.845
39
 0
62
 3
 0
LINE
8
default
6
CONTINUOUS
10
  96.950
20
  46.972
30
  25.845
11
  96.886
21
  52.623
31
  26.287
39
 0
62
 3
 0
LINE
8
default
6
CONTINUOUS
10
 -96.950
20
  46.972
30
  25.845
11
 -96.886
21
  52.623
31
  26.287
39
 0
62
 3
 0
LINE
8
default
6
CONTINUOUS
10
  96.886
20
  52.623
30
  26.287
11
  96.842
21
  58.545
31
  26.587
39
 0
62
 3
 0
LINE
8
default
6
CONTINUOUS
10
 -96.886
20
  52.623
30
  26.287
11
 -96.842
21
  58.545
31
  26.587
39
 0
62
 3
 0
LINE
8
default
6
CONTINUOUS
10
  96.842
20
  58.545
30
  26.587
11
  96.819
21
  64.733
31
  26.745
39
 0
62
 3
 0
LINE
8
default
6
CONTINUOUS
10
 -96.842
20
  58.545
30
  26.587
11
 -96.819
21
  64.733
31
  26.745
39
 0
62
 3
 0
LINE
8
default
6
CONTINUOUS
10
  96.819
20
  64.733
30
  26.745
11
  96.815
21
  71.167
31
  26.775
39
 0
62
 3
 0
LINE
8
default
6
CONTINUOUS
10
 -96.819
20
  64.733
30
  26.745
11
 -96.815
21
  71.167
31
  26.775
39
 0
62
 3
 0
LINE
8
default
6
CONTINUOUS
10
  96.815
20
  71.167
30
  26.775
11
  96.828
21
  77.838
31
  26.685
39
 0
62
 3
 0
LINE
8
default
6
CONTINUOUS
10
 -96.815
20
  71.167
30
  26.775
11
 -96.828
21
  77.838
31
  26.685
39
 0
62
 3
 0
LINE
8
default
6
CONTINUOUS
10
  96.828
20
  77.838
30
  26.685
11
  96.858
21
  84.729
31
  26.477
39
 0
62
 3
 0
LINE
8
default
6
CONTINUOUS
10
 -96.828
20
  77.838
30
  26.685
11
 -96.858
21
  84.729
31
  26.477
39
 0
62
 3
 0
LINE
8
default
6
CONTINUOUS
10
  96.858
20
  84.729
30
  26.477
11
  96.903
21
  91.832
31
  26.164
39
 0
62
 3
 0
LINE
8
default
6
CONTINUOUS
10
 -96.858
20
  84.729
30
  26.477
11
 -96.903
21
  91.832
31
  26.164
39
 0
62
 3
 0
LINE
8
default
6
CONTINUOUS
10
  96.903
20
  91.832
30
  26.164
11
  96.963
21
  99.127
31
  25.754
39
 0
62
 3
 0
LINE
8
default
6
CONTINUOUS
10
 -96.903
20
  91.832
30
  26.164
11
 -96.963
21
  99.127
31
  25.754
39
 0
62
 3
 0
LINE
8
default
6
CONTINUOUS
10
  96.963
20
  99.127
30
  25.754
11
  97.037
21
 106.600
31
  25.248
39
 0
62
 3
 0
LINE
8
default
6
CONTINUOUS
10
 -96.963
20
  99.127
30
  25.754
11
 -97.037
21
 106.600
31
  25.248
39
 0
62
 3
 0
LINE
8
default
6
CONTINUOUS
10
  97.037
20
 106.600
30
  25.248
11
  97.122
21
 114.240
31
  24.665
39
 0
62
 3
 0
LINE
8
default
6
CONTINUOUS
10
 -97.037
20
 106.600
30
  25.248
11
 -97.122
21
 114.240
31
  24.665
39
 0
62
 3
 0
LINE
8
default
6
CONTINUOUS
10
  97.122
20
 114.240
30
  24.665
11
  97.218
21
 122.026
31
  24.003
39
 0
62
 3
 0
LINE
8
default
6
CONTINUOUS
10
 -97.122
20
 114.240
30
  24.665
11
 -97.218
21
 122.026
31
  24.003
39
 0
62
 3
 0
LINE
8
default
6
CONTINUOUS
10
  97.218
20
 122.026
30
  24.003
11
  97.324
21
 129.943
31
  23.277
39
 0
62
 3
 0
LINE
8
default
6
CONTINUOUS
10
 -97.218
20
 122.026
30
  24.003
11
 -97.324
21
 129.943
31
  23.277
39
 0
62
 3
 0
LINE
8
default
6
CONTINUOUS
10
  97.324
20
 129.943
30
  23.277
11
  97.436
21
 137.975
31
  22.504
39
 0
62
 3
 0
LINE
8
default
6
CONTINUOUS
10
 -97.324
20
 129.943
30
  23.277
11
 -97.436
21
 137.975
31
  22.504
39
 0
62
 3
 0
LINE
8
default
6
CONTINUOUS
10
  97.436
20
 137.975
30
  22.504
11
  97.556
21
 146.101
31
  21.681
39
 0
62
 3
 0
LINE
8
default
6
CONTINUOUS
10
 -97.436
20
 137.975
30
  22.504
11
 -97.556
21
 146.101
31
  21.681
39
 0
62
 3
 0
LINE
8
default
6
CONTINUOUS
10
  97.556
20
 146.101
30
  21.681
11
  97.685
21
 154.308
31
  20.797
39
 0
62
 3
 0
LINE
8
default
6
CONTINUOUS
10
 -97.556
20
 146.101
30
  21.681
11
 -97.685
21
 154.308
31
  20.797
39
 0
62
 3
 0
LINE
8
default
6
CONTINUOUS
10
  97.685
20
 154.308
30
  20.797
11
  97.821
21
 162.569
31
  19.859
39
 0
62
 3
 0
LINE
8
default
6
CONTINUOUS
10
 -97.685
20
 154.308
30
  20.797
11
 -97.821
21
 162.569
31
  19.859
39
 0
62
 3
 0
LINE
8
default
6
CONTINUOUS
10
  97.821
20
 162.569
30
  19.859
11
  97.963
21
 170.870
31
  18.885
39
 0
62
 3
 0
LINE
8
default
6
CONTINUOUS
10
 -97.821
20
 162.569
30
  19.859
11
 -97.963
21
 170.870
31
  18.885
39
 0
62
 3
 0
LINE
8
default
6
CONTINUOUS
10
  97.963
20
 170.870
30
  18.885
11
  98.108
21
 179.185
31
  17.889
39
 0
62
 3
 0
LINE
8
default
6
CONTINUOUS
10
 -97.963
20
 170.870
30
  18.885
11
 -98.108
21
 179.185
31
  17.889
39
 0
62
 3
 0
LINE
8
default
6
CONTINUOUS
10
  98.108
20
 179.185
30
  17.889
11
  98.254
21
 187.492
31
  16.887
39
 0
62
 3
 0
LINE
8
default
6
CONTINUOUS
10
 -98.108
20
 179.185
30
  17.889
11
 -98.254
21
 187.492
31
  16.887
39
 0
62
 3
 0
LINE
8
default
6
CONTINUOUS
10
  98.254
20
 187.492
30
  16.887
11
  98.398
21
 195.767
31
  15.897
39
 0
62
 3
 0
LINE
8
default
6
CONTINUOUS
10
 -98.254
20
 187.492
30
  16.887
11
 -98.398
21
 195.767
31
  15.897
39
 0
62
 3
 0
LINE
8
default
6
CONTINUOUS
10
  98.398
20
 195.767
30
  15.897
11
  98.538
21
 203.983
31
  14.934
39
 0
62
 3
 0
LINE
8
default
6
CONTINUOUS
10
 -98.398
20
 195.767
30
  15.897
11
 -98.538
21
 203.983
31
  14.934
39
 0
62
 3
 0
LINE
8
default
6
CONTINUOUS
10
  98.538
20
 203.983
30
  14.934
11
  98.672
21
 212.109
31
  14.016
39
 0
62
 3
 0
LINE
8
default
6
CONTINUOUS
10
 -98.538
20
 203.983
30
  14.934
11
 -98.672
21
 212.109
31
  14.016
39
 0
62
 3
 0
LINE
8
default
6
CONTINUOUS
10
  98.672
20
 212.109
30
  14.016
11
  98.797
21
 220.119
31
  13.153
39
 0
62
 3
 0
LINE
8
default
6
CONTINUOUS
10
 -98.672
20
 212.109
30
  14.016
11
 -98.797
21
 220.119
31
  13.153
39
 0
62
 3
 0
LINE
8
default
6
CONTINUOUS
10
  98.797
20
 220.119
30
  13.153
11
  98.914
21
 227.976
31
  12.355
39
 0
62
 3
 0
LINE
8
default
6
CONTINUOUS
10
 -98.797
20
 220.119
30
  13.153
11
 -98.914
21
 227.976
31
  12.355
39
 0
62
 3
 0
LINE
8
default
6
CONTINUOUS
10
  98.914
20
 227.976
30
  12.355
11
  99.020
21
 235.644
31
  11.621
39
 0
62
 3
 0
LINE
8
default
6
CONTINUOUS
10
 -98.914
20
 227.976
30
  12.355
11
 -99.020
21
 235.644
31
  11.621
39
 0
62
 3
 0
LINE
8
default
6
CONTINUOUS
10
  99.020
20
 235.644
30
  11.621
11
  99.118
21
 243.081
31
  10.950
39
 0
62
 3
 0
LINE
8
default
6
CONTINUOUS
10
 -99.020
20
 235.644
30
  11.621
11
 -99.118
21
 243.081
31
  10.950
39
 0
62
 3
 0
LINE
8
default
6
CONTINUOUS
10
  99.118
20
 243.081
30
  10.950
11
  99.208
21
 250.238
31
  10.330
39
 0
62
 3
 0
LINE
8
default
6
CONTINUOUS
10
 -99.118
20
 243.081
30
  10.950
11
 -99.208
21
 250.238
31
  10.330
39
 0
62
 3
 0
LINE
8
default
6
CONTINUOUS
10
  99.208
20
 250.238
30
  10.330
11
  99.293
21
 257.059
31
   9.751
39
 0
62
 3
 0
LINE
8
default
6
CONTINUOUS
10
 -99.208
20
 250.238
30
  10.330
11
 -99.293
21
 257.059
31
   9.751
39
 0
62
 3
 0
LINE
8
default
6
CONTINUOUS
10
  99.293
20
 257.059
30
   9.751
11
  99.371
21
 263.482
31
   9.211
39
 0
62
 3
 0
LINE
8
default
6
CONTINUOUS
10
 -99.293
20
 257.059
30
   9.751
11
 -99.371
21
 263.482
31
   9.211
39
 0
62
 3
 0
LINE
8
default
6
CONTINUOUS
10
  99.371
20
 263.482
30
   9.211
11
  99.444
21
 269.425
31
   8.709
39
 0
62
 3
 0
LINE
8
default
6
CONTINUOUS
10
 -99.371
20
 263.482
30
   9.211
11
 -99.444
21
 269.425
31
   8.709
39
 0
62
 3
 0
LINE
8
default
6
CONTINUOUS
10
  99.444
20
 269.425
30
   8.709
11
  99.512
21
 274.780
31
   8.246
39
 0
62
 3
 0
LINE
8
default
6
CONTINUOUS
10
 -99.444
20
 269.425
30
   8.709
11
 -99.512
21
 274.780
31
   8.246
39
 0
62
 3
 0
LINE
8
default
6
CONTINUOUS
10
  99.512
20
 274.780
30
   8.246
11
  99.572
21
 279.402
31
   7.833
39
 0
62
 3
 0
LINE
8
default
6
CONTINUOUS
10
 -99.512
20
 274.780
30
   8.246
11
 -99.572
21
 279.402
31
   7.833
39
 0
62
 3
 0
LINE
8
default
6
CONTINUOUS
10
  99.572
20
 279.402
30
   7.833
11
  99.621
21
 283.047
31
   7.496
39
 0
62
 3
 0
LINE
8
default
6
CONTINUOUS
10
 -99.572
20
 279.402
30
   7.833
11
 -99.621
21
 283.047
31
   7.496
39
 0
62
 3
 0
LINE
8
default
6
CONTINUOUS
10
  99.621
20
 283.047
30
   7.496
11
  99.649
21
 285.080
31
   7.305
39
 0
62
 3
 0
LINE
8
default
6
CONTINUOUS
10
 -99.621
20
 283.047
30
   7.496
11
 -99.649
21
 285.080
31
   7.305
39
 0
62
 3
 0
LINE
8
default
6
CONTINUOUS
10
 138.974
20
 283.609
30
  14.481
11
 139.060
21
 281.611
31
  14.060
39
 0
62
 5
 0
LINE
8
default
6
CONTINUOUS
10
-138.974
20
 283.609
30
  14.481
11
-139.060
21
 281.611
31
  14.060
39
 0
62
 5
 0
LINE
8
default
6
CONTINUOUS
10
 139.060
20
 281.611
30
  14.060
11
 139.214
21
 278.023
31
  13.311
39
 0
62
 5
 0
LINE
8
default
6
CONTINUOUS
10
-139.060
20
 281.611
30
  14.060
11
-139.214
21
 278.023
31
  13.311
39
 0
62
 5
 0
LINE
8
default
6
CONTINUOUS
10
 139.214
20
 278.023
30
  13.311
11
 139.404
21
 273.474
31
  12.380
39
 0
62
 5
 0
LINE
8
default
6
CONTINUOUS
10
-139.214
20
 278.023
30
  13.311
11
-139.404
21
 273.474
31
  12.380
39
 0
62
 5
 0
LINE
8
default
6
CONTINUOUS
10
 139.404
20
 273.474
30
  12.380
11
 139.621
21
 268.204
31
  11.324
39
 0
62
 5
 0
LINE
8
default
6
CONTINUOUS
10
-139.404
20
 273.474
30
  12.380
11
-139.621
21
 268.204
31
  11.324
39
 0
62
 5
 0
LINE
8
default
6
CONTINUOUS
10
 139.621
20
 268.204
30
  11.324
11
 139.855
21
 262.356
31
  10.181
39
 0
62
 5
 0
LINE
8
default
6
CONTINUOUS
10
-139.621
20
 268.204
30
  11.324
11
-139.855
21
 262.356
31
  10.181
39
 0
62
 5
 0
LINE
8
default
6
CONTINUOUS
10
 139.855
20
 262.356
30
  10.181
11
 140.102
21
 256.036
31
   8.973
39
 0
62
 5
 0
LINE
8
default
6
CONTINUOUS
10
-139.855
20
 262.356
30
  10.181
11
-140.102
21
 256.036
31
   8.973
39
 0
62
 5
 0
LINE
8
default
6
CONTINUOUS
10
 140.102
20
 256.036
30
   8.973
11
 140.358
21
 249.321
31
   7.724
39
 0
62
 5
 0
LINE
8
default
6
CONTINUOUS
10
-140.102
20
 256.036
30
   8.973
11
-140.358
21
 249.321
31
   7.724
39
 0
62
 5
 0
LINE
8
default
6
CONTINUOUS
10
 140.358
20
 249.321
30
   7.724
11
 140.621
21
 242.278
31
   6.444
39
 0
62
 5
 0
LINE
8
default
6
CONTINUOUS
10
-140.358
20
 249.321
30
   7.724
11
-140.621
21
 242.278
31
   6.444
39
 0
62
 5
 0
LINE
8
default
6
CONTINUOUS
10
 140.621
20
 242.278
30
   6.444
11
 140.886
21
 234.960
31
   5.147
39
 0
62
 5
 0
LINE
8
default
6
CONTINUOUS
10
-140.621
20
 242.278
30
   6.444
11
-140.886
21
 234.960
31
   5.147
39
 0
62
 5
 0
LINE
8
default
6
CONTINUOUS
10
 140.886
20
 234.960
30
   5.147
11
 141.154
21
 227.414
31
   3.842
39
 0
62
 5
 0
LINE
8
default
6
CONTINUOUS
10
-140.886
20
 234.960
30
   5.147
11
-141.154
21
 227.414
31
   3.842
39
 0
62
 5
 0
LINE
8
default
6
CONTINUOUS
10
 141.154
20
 227.414
30
   3.842
11
 141.422
21
 219.681
31
   2.536
39
 0
62
 5
 0
LINE
8
default
6
CONTINUOUS
10
-141.154
20
 227.414
30
   3.842
11
-141.422
21
 219.681
31
   2.536
39
 0
62
 5
 0
LINE
8
default
6
CONTINUOUS
10
 141.422
20
 219.681
30
   2.536
11
 141.688
21
 211.798
31
   1.235
39
 0
62
 5
 0
LINE
8
default
6
CONTINUOUS
10
-141.422
20
 219.681
30
   2.536
11
-141.688
21
 211.798
31
   1.235
39
 0
62
 5
 0
LINE
8
default
6
CONTINUOUS
10
 141.688
20
 211.798
30
   1.235
11
 141.952
21
 203.799
31
  -0.050
39
 0
62
 5
 0
LINE
8
default
6
CONTINUOUS
10
-141.688
20
 211.798
30
   1.235
11
-141.952
21
 203.799
31
  -0.050
39
 0
62
 5
 0
LINE
8
default
6
CONTINUOUS
10
 141.952
20
 203.799
30
  -0.050
11
 142.212
21
 195.713
31
  -1.319
39
 0
62
 5
 0
LINE
8
default
6
CONTINUOUS
10
-141.952
20
 203.799
30
  -0.050
11
-142.212
21
 195.713
31
  -1.319
39
 0
62
 5
 0
LINE
8
default
6
CONTINUOUS
10
 142.212
20
 195.713
30
  -1.319
11
 142.467
21
 187.569
31
  -2.563
39
 0
62
 5
 0
LINE
8
default
6
CONTINUOUS
10
-142.212
20
 195.713
30
  -1.319
11
-142.467
21
 187.569
31
  -2.563
39
 0
62
 5
 0
LINE
8
default
6
CONTINUOUS
10
 142.467
20
 187.569
30
  -2.563
11
 142.716
21
 179.394
31
  -3.780
39
 0
62
 5
 0
LINE
8
default
6
CONTINUOUS
10
-142.467
20
 187.569
30
  -2.563
11
-142.716
21
 179.394
31
  -3.780
39
 0
62
 5
 0
LINE
8
default
6
CONTINUOUS
10
 142.716
20
 179.394
30
  -3.780
11
 142.960
21
 171.208
31
  -4.970
39
 0
62
 5
 0
LINE
8
default
6
CONTINUOUS
10
-142.716
20
 179.394
30
  -3.780
11
-142.960
21
 171.208
31
  -4.970
39
 0
62
 5
 0
LINE
8
default
6
CONTINUOUS
10
 142.960
20
 171.208
30
  -4.970
11
 143.196
21
 163.038
31
  -6.122
39
 0
62
 5
 0
LINE
8
default
6
CONTINUOUS
10
-142.960
20
 171.208
30
  -4.970
11
-143.196
21
 163.038
31
  -6.122
39
 0
62
 5
 0
LINE
8
default
6
CONTINUOUS
10
 143.196
20
 163.038
30
  -6.122
11
 143.423
21
 154.905
31
  -7.233
39
 0
62
 5
 0
LINE
8
default
6
CONTINUOUS
10
-143.196
20
 163.038
30
  -6.122
11
-143.423
21
 154.905
31
  -7.233
39
 0
62
 5
 0
LINE
8
default
6
CONTINUOUS
10
 143.423
20
 154.905
30
  -7.233
11
 143.642
21
 146.830
31
  -8.300
39
 0
62
 5
 0
LINE
8
default
6
CONTINUOUS
10
-143.423
20
 154.905
30
  -7.233
11
-143.642
21
 146.830
31
  -8.300
39
 0
62
 5
 0
LINE
8
default
6
CONTINUOUS
10
 143.642
20
 146.830
30
  -8.300
11
 143.851
21
 138.830
31
  -9.320
39
 0
62
 5
 0
LINE
8
default
6
CONTINUOUS
10
-143.642
20
 146.830
30
  -8.300
11
-143.851
21
 138.830
31
  -9.320
39
 0
62
 5
 0
LINE
8
default
6
CONTINUOUS
10
 143.851
20
 138.830
30
  -9.320
11
 144.050
21
 130.921
31
 -10.292
39
 0
62
 5
 0
LINE
8
default
6
CONTINUOUS
10
-143.851
20
 138.830
30
  -9.320
11
-144.050
21
 130.921
31
 -10.292
39
 0
62
 5
 0
LINE
8
default
6
CONTINUOUS
10
 144.050
20
 130.921
30
 -10.292
11
 144.238
21
 123.129
31
 -11.206
39
 0
62
 5
 0
LINE
8
default
6
CONTINUOUS
10
-144.050
20
 130.921
30
 -10.292
11
-144.238
21
 123.129
31
 -11.206
39
 0
62
 5
 0
LINE
8
default
6
CONTINUOUS
10
 144.238
20
 123.129
30
 -11.206
11
 144.412
21
 115.462
31
 -12.057
39
 0
62
 5
 0
LINE
8
default
6
CONTINUOUS
10
-144.238
20
 123.129
30
 -11.206
11
-144.412
21
 115.462
31
 -12.057
39
 0
62
 5
 0
LINE
8
default
6
CONTINUOUS
10
 144.412
20
 115.462
30
 -12.057
11
 144.573
21
 107.943
31
 -12.842
39
 0
62
 5
 0
LINE
8
default
6
CONTINUOUS
10
-144.412
20
 115.462
30
 -12.057
11
-144.573
21
 107.943
31
 -12.842
39
 0
62
 5
 0
LINE
8
default
6
CONTINUOUS
10
 144.573
20
 107.943
30
 -12.842
11
 144.719
21
 100.584
31
 -13.556
39
 0
62
 5
 0
LINE
8
default
6
CONTINUOUS
10
-144.573
20
 107.943
30
 -12.842
11
-144.719
21
 100.584
31
 -13.556
39
 0
62
 5
 0
LINE
8
default
6
CONTINUOUS
10
 144.719
20
 100.584
30
 -13.556
11
 144.850
21
  93.403
31
 -14.196
39
 0
62
 5
 0
LINE
8
default
6
CONTINUOUS
10
-144.719
20
 100.584
30
 -13.556
11
-144.850
21
  93.403
31
 -14.196
39
 0
62
 5
 0
LINE
8
default
6
CONTINUOUS
10
 144.850
20
  93.403
30
 -14.196
11
 144.964
21
  86.411
31
 -14.751
39
 0
62
 5
 0
LINE
8
default
6
CONTINUOUS
10
-144.850
20
  93.403
30
 -14.196
11
-144.964
21
  86.411
31
 -14.751
39
 0
62
 5
 0
LINE
8
default
6
CONTINUOUS
10
 144.964
20
  86.411
30
 -14.751
11
 145.059
21
  79.622
31
 -15.216
39
 0
62
 5
 0
LINE
8
default
6
CONTINUOUS
10
-144.964
20
  86.411
30
 -14.751
11
-145.059
21
  79.622
31
 -15.216
39
 0
62
 5
 0
LINE
8
default
6
CONTINUOUS
10
 145.059
20
  79.622
30
 -15.216
11
 145.136
21
  73.052
31
 -15.588
39
 0
62
 5
 0
LINE
8
default
6
CONTINUOUS
10
-145.059
20
  79.622
30
 -15.216
11
-145.136
21
  73.052
31
 -15.588
39
 0
62
 5
 0
LINE
8
default
6
CONTINUOUS
10
 145.136
20
  73.052
30
 -15.588
11
 145.185
21
  66.713
31
 -15.831
39
 0
62
 5
 0
LINE
8
default
6
CONTINUOUS
10
-145.136
20
  73.052
30
 -15.588
11
-145.185
21
  66.713
31
 -15.831
39
 0
62
 5
 0
LINE
8
default
6
CONTINUOUS
10
 145.185
20
  66.713
30
 -15.831
11
 145.202
21
  60.621
31
 -15.910
39
 0
62
 5
 0
LINE
8
default
6
CONTINUOUS
10
-145.185
20
  66.713
30
 -15.831
11
-145.202
21
  60.621
31
 -15.910
39
 0
62
 5
 0
LINE
8
default
6
CONTINUOUS
10
 145.202
20
  60.621
30
 -15.910
11
 145.177
21
  54.784
31
 -15.790
39
 0
62
 5
 0
LINE
8
default
6
CONTINUOUS
10
-145.202
20
  60.621
30
 -15.910
11
-145.177
21
  54.784
31
 -15.790
39
 0
62
 5
 0
LINE
8
default
6
CONTINUOUS
10
 145.177
20
  54.784
30
 -15.790
11
 145.106
21
  49.220
31
 -15.443
39
 0
62
 5
 0
LINE
8
default
6
CONTINUOUS
10
-145.177
20
  54.784
30
 -15.790
11
-145.106
21
  49.220
31
 -15.443
39
 0
62
 5
 0
LINE
8
default
6
CONTINUOUS
10
 145.106
20
  49.220
30
 -15.443
11
 144.984
21
  43.932
31
 -14.851
39
 0
62
 5
 0
LINE
8
default
6
CONTINUOUS
10
-145.106
20
  49.220
30
 -15.443
11
-144.984
21
  43.932
31
 -14.851
39
 0
62
 5
 0
LINE
8
default
6
CONTINUOUS
10
 144.984
20
  43.932
30
 -14.851
11
 144.809
21
  38.939
31
 -13.996
39
 0
62
 5
 0
LINE
8
default
6
CONTINUOUS
10
-144.984
20
  43.932
30
 -14.851
11
-144.809
21
  38.939
31
 -13.996
39
 0
62
 5
 0
LINE
8
default
6
CONTINUOUS
10
 144.809
20
  38.939
30
 -13.996
11
 144.577
21
  34.248
31
 -12.862
39
 0
62
 5
 0
LINE
8
default
6
CONTINUOUS
10
-144.809
20
  38.939
30
 -13.996
11
-144.577
21
  34.248
31
 -12.862
39
 0
62
 5
 0
LINE
8
default
6
CONTINUOUS
10
 144.577
20
  34.248
30
 -12.862
11
 144.289
21
  29.874
31
 -11.456
39
 0
62
 5
 0
LINE
8
default
6
CONTINUOUS
10
-144.577
20
  34.248
30
 -12.862
11
-144.289
21
  29.874
31
 -11.456
39
 0
62
 5
 0
LINE
8
default
6
CONTINUOUS
10
 144.289
20
  29.874
30
 -11.456
11
 143.947
21
  25.827
31
  -9.787
39
 0
62
 5
 0
LINE
8
default
6
CONTINUOUS
10
-144.289
20
  29.874
30
 -11.456
11
-143.947
21
  25.827
31
  -9.787
39
 0
62
 5
 0
LINE
8
default
6
CONTINUOUS
10
 143.947
20
  25.827
30
  -9.787
11
 143.558
21
  22.113
31
  -7.889
39
 0
62
 5
 0
LINE
8
default
6
CONTINUOUS
10
-143.947
20
  25.827
30
  -9.787
11
-143.558
21
  22.113
31
  -7.889
39
 0
62
 5
 0
LINE
8
default
6
CONTINUOUS
10
 143.558
20
  22.113
30
  -7.889
11
 143.130
21
  18.752
31
  -5.799
39
 0
62
 5
 0
LINE
8
default
6
CONTINUOUS
10
-143.558
20
  22.113
30
  -7.889
11
-143.130
21
  18.752
31
  -5.799
39
 0
62
 5
 0
LINE
8
default
6
CONTINUOUS
10
 143.130
20
  18.752
30
  -5.799
11
 142.670
21
  15.746
31
  -3.556
39
 0
62
 5
 0
LINE
8
default
6
CONTINUOUS
10
-143.130
20
  18.752
30
  -5.799
11
-142.670
21
  15.746
31
  -3.556
39
 0
62
 5
 0
LINE
8
default
6
CONTINUOUS
10
 142.670
20
  15.746
30
  -3.556
11
 142.189
21
  13.107
31
  -1.211
39
 0
62
 5
 0
LINE
8
default
6
CONTINUOUS
10
-142.670
20
  15.746
30
  -3.556
11
-142.189
21
  13.107
31
  -1.211
39
 0
62
 5
 0
LINE
8
default
6
CONTINUOUS
10
 142.189
20
  13.107
30
  -1.211
11
 141.695
21
  10.847
31
   1.203
39
 0
62
 5
 0
LINE
8
default
6
CONTINUOUS
10
-142.189
20
  13.107
30
  -1.211
11
-141.695
21
  10.847
31
   1.203
39
 0
62
 5
 0
LINE
8
default
6
CONTINUOUS
10
 141.695
20
  10.847
30
   1.203
11
 141.189
21
   8.972
31
   3.669
39
 0
62
 5
 0
LINE
8
default
6
CONTINUOUS
10
-141.695
20
  10.847
30
   1.203
11
-141.189
21
   8.972
31
   3.669
39
 0
62
 5
 0
LINE
8
default
6
CONTINUOUS
10
 141.189
20
   8.972
30
   3.669
11
 140.701
21
   7.498
31
   6.052
39
 0
62
 5
 0
LINE
8
default
6
CONTINUOUS
10
-141.189
20
   8.972
30
   3.669
11
-140.701
21
   7.498
31
   6.052
39
 0
62
 5
 0
LINE
8
default
6
CONTINUOUS
10
 140.701
20
   7.498
30
   6.052
11
 140.148
21
   6.430
31
   8.752
39
 0
62
 5
 0
LINE
8
default
6
CONTINUOUS
10
-140.701
20
   7.498
30
   6.052
11
-140.148
21
   6.430
31
   8.752
39
 0
62
 5
 0
LINE
8
default
6
CONTINUOUS
10
 140.148
20
   6.430
30
   8.752
11
 139.669
21
   5.779
31
  11.088
39
 0
62
 5
 0
LINE
8
default
6
CONTINUOUS
10
-140.148
20
   6.430
30
   8.752
11
-139.669
21
   5.779
31
  11.088
39
 0
62
 5
 0
LINE
8
default
6
CONTINUOUS
10
 139.669
20
   5.779
30
  11.088
11
 139.103
21
   5.550
31
  13.849
39
 0
62
 5
 0
LINE
8
default
6
CONTINUOUS
10
-139.669
20
   5.779
30
  11.088
11
-139.103
21
   5.550
31
  13.849
39
 0
62
 5
 0
LINE
8
default
6
CONTINUOUS
10
 139.103
20
   5.550
30
  13.849
11
 138.747
21
   5.763
31
  15.588
39
 0
62
 5
 0
LINE
8
default
6
CONTINUOUS
10
-139.103
20
   5.550
30
  13.849
11
-138.747
21
   5.763
31
  15.588
39
 0
62
 5
 0
LINE
8
default
6
CONTINUOUS
10
 138.747
20
   5.763
30
  15.588
11
 138.402
21
   6.401
31
  17.273
39
 0
62
 5
 0
LINE
8
default
6
CONTINUOUS
10
-138.747
20
   5.763
30
  15.588
11
-138.402
21
   6.401
31
  17.273
39
 0
62
 5
 0
LINE
8
default
6
CONTINUOUS
10
 138.402
20
   6.401
30
  17.273
11
 138.110
21
   7.455
31
  18.697
39
 0
62
 5
 0
LINE
8
default
6
CONTINUOUS
10
-138.402
20
   6.401
30
  17.273
11
-138.110
21
   7.455
31
  18.697
39
 0
62
 5
 0
LINE
8
default
6
CONTINUOUS
10
 138.110
20
   7.455
30
  18.697
11
 137.795
21
   8.872
31
  20.235
39
 0
62
 5
 0
LINE
8
default
6
CONTINUOUS
10
-138.110
20
   7.455
30
  18.697
11
-137.795
21
   8.872
31
  20.235
39
 0
62
 5
 0
LINE
8
default
6
CONTINUOUS
10
 137.795
20
   8.872
30
  20.235
11
 137.785
21
   8.916
31
  20.283
39
 0
62
 1
 0
LINE
8
default
6
CONTINUOUS
10
-137.795
20
   8.872
30
  20.235
11
-137.785
21
   8.916
31
  20.283
39
 0
62
 1
 0
LINE
8
default
6
CONTINUOUS
10
 137.785
20
   8.916
30
  20.283
11
 137.508
21
  10.776
31
  21.633
39
 0
62
 1
 0
LINE
8
default
6
CONTINUOUS
10
-137.785
20
   8.916
30
  20.283
11
-137.508
21
  10.776
31
  21.633
39
 0
62
 1
 0
LINE
8
default
6
CONTINUOUS
10
 137.508
20
  10.776
30
  21.633
11
 137.214
21
  13.022
31
  23.068
39
 0
62
 1
 0
LINE
8
default
6
CONTINUOUS
10
-137.508
20
  10.776
30
  21.633
11
-137.214
21
  13.022
31
  23.068
39
 0
62
 1
 0
LINE
8
default
6
CONTINUOUS
10
 137.214
20
  13.022
30
  23.068
11
 136.940
21
  15.649
31
  24.406
39
 0
62
 1
 0
LINE
8
default
6
CONTINUOUS
10
-137.214
20
  13.022
30
  23.068
11
-136.940
21
  15.649
31
  24.406
39
 0
62
 1
 0
LINE
8
default
6
CONTINUOUS
10
 136.940
20
  15.649
30
  24.406
11
 136.674
21
  18.644
31
  25.704
39
 0
62
 1
 0
LINE
8
default
6
CONTINUOUS
10
-136.940
20
  15.649
30
  24.406
11
-136.674
21
  18.644
31
  25.704
39
 0
62
 1
 0
LINE
8
default
6
CONTINUOUS
10
 136.674
20
  18.644
30
  25.704
11
 136.509
21
  20.814
31
  26.509
39
 0
62
 1
 0
LINE
8
default
6
CONTINUOUS
10
-136.674
20
  18.644
30
  25.704
11
-136.509
21
  20.814
31
  26.509
39
 0
62
 1
 0
LINE
8
default
6
CONTINUOUS
10
 136.509
20
  20.814
30
  26.509
11
 136.419
21
  21.997
31
  26.948
39
 0
62
 3
 0
LINE
8
default
6
CONTINUOUS
10
-136.509
20
  20.814
30
  26.509
11
-136.419
21
  21.997
31
  26.948
39
 0
62
 3
 0
LINE
8
default
6
CONTINUOUS
10
 136.419
20
  21.997
30
  26.948
11
 136.180
21
  25.698
31
  28.115
39
 0
62
 3
 0
LINE
8
default
6
CONTINUOUS
10
-136.419
20
  21.997
30
  26.948
11
-136.180
21
  25.698
31
  28.115
39
 0
62
 3
 0
LINE
8
default
6
CONTINUOUS
10
 136.180
20
  25.698
30
  28.115
11
 135.960
21
  29.736
31
  29.189
39
 0
62
 3
 0
LINE
8
default
6
CONTINUOUS
10
-136.180
20
  25.698
30
  28.115
11
-135.960
21
  29.736
31
  29.189
39
 0
62
 3
 0
LINE
8
default
6
CONTINUOUS
10
 135.960
20
  29.736
30
  29.189
11
 135.762
21
  34.105
31
  30.155
39
 0
62
 3
 0
LINE
8
default
6
CONTINUOUS
10
-135.960
20
  29.736
30
  29.189
11
-135.762
21
  34.105
31
  30.155
39
 0
62
 3
 0
LINE
8
default
6
CONTINUOUS
10
 135.762
20
  34.105
30
  30.155
11
 135.589
21
  38.785
31
  30.999
39
 0
62
 3
 0
LINE
8
default
6
CONTINUOUS
10
-135.762
20
  34.105
30
  30.155
11
-135.589
21
  38.785
31
  30.999
39
 0
62
 3
 0
LINE
8
default
6
CONTINUOUS
10
 135.589
20
  38.785
30
  30.999
11
 135.442
21
  43.775
31
  31.716
39
 0
62
 3
 0
LINE
8
default
6
CONTINUOUS
10
-135.589
20
  38.785
30
  30.999
11
-135.442
21
  43.775
31
  31.716
39
 0
62
 3
 0
LINE
8
default
6
CONTINUOUS
10
 135.442
20
  43.775
30
  31.716
11
 135.324
21
  49.056
31
  32.292
39
 0
62
 3
 0
LINE
8
default
6
CONTINUOUS
10
-135.442
20
  43.775
30
  31.716
11
-135.324
21
  49.056
31
  32.292
39
 0
62
 3
 0
LINE
8
default
6
CONTINUOUS
10
 135.324
20
  49.056
30
  32.292
11
 135.234
21
  54.622
31
  32.729
39
 0
62
 3
 0
LINE
8
default
6
CONTINUOUS
10
-135.324
20
  49.056
30
  32.292
11
-135.234
21
  54.622
31
  32.729
39
 0
62
 3
 0
LINE
8
default
6
CONTINUOUS
10
 135.234
20
  54.622
30
  32.729
11
 135.173
21
  60.455
31
  33.029
39
 0
62
 3
 0
LINE
8
default
6
CONTINUOUS
10
-135.234
20
  54.622
30
  32.729
11
-135.173
21
  60.455
31
  33.029
39
 0
62
 3
 0
LINE
8
default
6
CONTINUOUS
10
 135.173
20
  60.455
30
  33.029
11
 135.140
21
  66.550
31
  33.190
39
 0
62
 3
 0
LINE
8
default
6
CONTINUOUS
10
-135.173
20
  60.455
30
  33.029
11
-135.140
21
  66.550
31
  33.190
39
 0
62
 3
 0
LINE
8
default
6
CONTINUOUS
10
 135.140
20
  66.550
30
  33.190
11
 135.132
21
  72.887
31
  33.226
39
 0
62
 3
 0
LINE
8
default
6
CONTINUOUS
10
-135.140
20
  66.550
30
  33.190
11
-135.132
21
  72.887
31
  33.226
39
 0
62
 3
 0
LINE
8
default
6
CONTINUOUS
10
 135.132
20
  72.887
30
  33.226
11
 135.149
21
  79.458
31
  33.145
39
 0
62
 3
 0
LINE
8
default
6
CONTINUOUS
10
-135.132
20
  72.887
30
  33.226
11
-135.149
21
  79.458
31
  33.145
39
 0
62
 3
 0
LINE
8
default
6
CONTINUOUS
10
 135.149
20
  79.458
30
  33.145
11
 135.189
21
  86.246
31
  32.951
39
 0
62
 3
 0
LINE
8
default
6
CONTINUOUS
10
-135.149
20
  79.458
30
  33.145
11
-135.189
21
  86.246
31
  32.951
39
 0
62
 3
 0
LINE
8
default
6
CONTINUOUS
10
 135.189
20
  86.246
30
  32.951
11
 135.250
21
  93.242
31
  32.654
39
 0
62
 3
 0
LINE
8
default
6
CONTINUOUS
10
-135.189
20
  86.246
30
  32.951
11
-135.250
21
  93.242
31
  32.654
39
 0
62
 3
 0
LINE
8
default
6
CONTINUOUS
10
 135.250
20
  93.242
30
  32.654
11
 135.330
21
 100.428
31
  32.261
39
 0
62
 3
 0
LINE
8
default
6
CONTINUOUS
10
-135.250
20
  93.242
30
  32.654
11
-135.330
21
 100.428
31
  32.261
39
 0
62
 3
 0
LINE
8
default
6
CONTINUOUS
10
 135.330
20
 100.428
30
  32.261
11
 135.429
21
 107.790
31
  31.777
39
 0
62
 3
 0
LINE
8
default
6
CONTINUOUS
10
-135.330
20
 100.428
30
  32.261
11
-135.429
21
 107.790
31
  31.777
39
 0
62
 3
 0
LINE
8
default
6
CONTINUOUS
10
 135.429
20
 107.790
30
  31.777
11
 135.544
21
 115.315
31
  31.216
39
 0
62
 3
 0
LINE
8
default
6
CONTINUOUS
10
-135.429
20
 107.790
30
  31.777
11
-135.544
21
 115.315
31
  31.216
39
 0
62
 3
 0
LINE
8
default
6
CONTINUOUS
10
 135.544
20
 115.315
30
  31.216
11
 135.675
21
 122.986
31
  30.580
39
 0
62
 3
 0
LINE
8
default
6
CONTINUOUS
10
-135.544
20
 115.315
30
  31.216
11
-135.675
21
 122.986
31
  30.580
39
 0
62
 3
 0
LINE
8
default
6
CONTINUOUS
10
 135.675
20
 122.986
30
  30.580
11
 135.818
21
 130.784
31
  29.881
39
 0
62
 3
 0
LINE
8
default
6
CONTINUOUS
10
-135.675
20
 122.986
30
  30.580
11
-135.818
21
 130.784
31
  29.881
39
 0
62
 3
 0
LINE
8
default
6
CONTINUOUS
10
 135.818
20
 130.784
30
  29.881
11
 135.970
21
 138.697
31
  29.137
39
 0
62
 3
 0
LINE
8
default
6
CONTINUOUS
10
-135.818
20
 130.784
30
  29.881
11
-135.970
21
 138.697
31
  29.137
39
 0
62
 3
 0
LINE
8
default
6
CONTINUOUS
10
 135.970
20
 138.697
30
  29.137
11
 136.133
21
 146.701
31
  28.343
39
 0
62
 3
 0
LINE
8
default
6
CONTINUOUS
10
-135.970
20
 138.697
30
  29.137
11
-136.133
21
 146.701
31
  28.343
39
 0
62
 3
 0
LINE
8
default
6
CONTINUOUS
10
 136.133
20
 146.701
30
  28.343
11
 136.308
21
 154.787
31
  27.490
39
 0
62
 3
 0
LINE
8
default
6
CONTINUOUS
10
-136.133
20
 146.701
30
  28.343
11
-136.308
21
 154.787
31
  27.490
39
 0
62
 3
 0
LINE
8
default
6
CONTINUOUS
10
 136.308
20
 154.787
30
  27.490
11
 136.493
21
 162.925
31
  26.585
39
 0
62
 3
 0
LINE
8
default
6
CONTINUOUS
10
-136.308
20
 154.787
30
  27.490
11
-136.493
21
 162.925
31
  26.585
39
 0
62
 3
 0
LINE
8
default
6
CONTINUOUS
10
 136.493
20
 162.925
30
  26.585
11
 136.686
21
 171.102
31
  25.645
39
 0
62
 3
 0
LINE
8
default
6
CONTINUOUS
10
-136.493
20
 162.925
30
  26.585
11
-136.686
21
 171.102
31
  25.645
39
 0
62
 3
 0
LINE
8
default
6
CONTINUOUS
10
 136.686
20
 171.102
30
  25.645
11
 136.883
21
 179.293
31
  24.683
39
 0
62
 3
 0
LINE
8
default
6
CONTINUOUS
10
-136.686
20
 171.102
30
  25.645
11
-136.883
21
 179.293
31
  24.683
39
 0
62
 3
 0
LINE
8
default
6
CONTINUOUS
10
 136.883
20
 179.293
30
  24.683
11
 137.081
21
 187.476
31
  23.715
39
 0
62
 3
 0
LINE
8
default
6
CONTINUOUS
10
-136.883
20
 179.293
30
  24.683
11
-137.081
21
 187.476
31
  23.715
39
 0
62
 3
 0
LINE
8
default
6
CONTINUOUS
10
 137.081
20
 187.476
30
  23.715
11
 137.277
21
 195.628
31
  22.758
39
 0
62
 3
 0
LINE
8
default
6
CONTINUOUS
10
-137.081
20
 187.476
30
  23.715
11
-137.277
21
 195.628
31
  22.758
39
 0
62
 3
 0
LINE
8
default
6
CONTINUOUS
10
 137.277
20
 195.628
30
  22.758
11
 137.468
21
 203.722
31
  21.829
39
 0
62
 3
 0
LINE
8
default
6
CONTINUOUS
10
-137.277
20
 195.628
30
  22.758
11
-137.468
21
 203.722
31
  21.829
39
 0
62
 3
 0
LINE
8
default
6
CONTINUOUS
10
 137.468
20
 203.722
30
  21.829
11
 137.650
21
 211.727
31
  20.943
39
 0
62
 3
 0
LINE
8
default
6
CONTINUOUS
10
-137.468
20
 203.722
30
  21.829
11
-137.650
21
 211.727
31
  20.943
39
 0
62
 3
 0
LINE
8
default
6
CONTINUOUS
10
 137.650
20
 211.727
30
  20.943
11
 137.820
21
 219.617
31
  20.111
39
 0
62
 3
 0
LINE
8
default
6
CONTINUOUS
10
-137.650
20
 211.727
30
  20.943
11
-137.820
21
 219.617
31
  20.111
39
 0
62
 3
 0
LINE
8
default
6
CONTINUOUS
10
 137.820
20
 219.617
30
  20.111
11
 137.978
21
 227.357
31
  19.341
39
 0
62
 3
 0
LINE
8
default
6
CONTINUOUS
10
-137.820
20
 219.617
30
  20.111
11
-137.978
21
 227.357
31
  19.341
39
 0
62
 3
 0
LINE
8
default
6
CONTINUOUS
10
 137.978
20
 227.357
30
  19.341
11
 138.123
21
 234.911
31
  18.634
39
 0
62
 3
 0
LINE
8
default
6
CONTINUOUS
10
-137.978
20
 227.357
30
  19.341
11
-138.123
21
 234.911
31
  18.634
39
 0
62
 3
 0
LINE
8
default
6
CONTINUOUS
10
 138.123
20
 234.911
30
  18.634
11
 138.255
21
 242.237
31
  17.988
39
 0
62
 3
 0
LINE
8
default
6
CONTINUOUS
10
-138.123
20
 234.911
30
  18.634
11
-138.255
21
 242.237
31
  17.988
39
 0
62
 3
 0
LINE
8
default
6
CONTINUOUS
10
 138.255
20
 242.237
30
  17.988
11
 138.377
21
 249.287
31
  17.391
39
 0
62
 3
 0
LINE
8
default
6
CONTINUOUS
10
-138.255
20
 242.237
30
  17.988
11
-138.377
21
 249.287
31
  17.391
39
 0
62
 3
 0
LINE
8
default
6
CONTINUOUS
10
 138.377
20
 249.287
30
  17.391
11
 138.491
21
 256.006
31
  16.835
39
 0
62
 3
 0
LINE
8
default
6
CONTINUOUS
10
-138.377
20
 249.287
30
  17.391
11
-138.491
21
 256.006
31
  16.835
39
 0
62
 3
 0
LINE
8
default
6
CONTINUOUS
10
 138.491
20
 256.006
30
  16.835
11
 138.598
21
 262.334
31
  16.315
39
 0
62
 3
 0
LINE
8
default
6
CONTINUOUS
10
-138.491
20
 256.006
30
  16.835
11
-138.598
21
 262.334
31
  16.315
39
 0
62
 3
 0
LINE
8
default
6
CONTINUOUS
10
 138.598
20
 262.334
30
  16.315
11
 138.697
21
 268.188
31
  15.833
39
 0
62
 3
 0
LINE
8
default
6
CONTINUOUS
10
-138.598
20
 262.334
30
  16.315
11
-138.697
21
 268.188
31
  15.833
39
 0
62
 3
 0
LINE
8
default
6
CONTINUOUS
10
 138.697
20
 268.188
30
  15.833
11
 138.788
21
 273.464
31
  15.387
39
 0
62
 3
 0
LINE
8
default
6
CONTINUOUS
10
-138.697
20
 268.188
30
  15.833
11
-138.788
21
 273.464
31
  15.387
39
 0
62
 3
 0
LINE
8
default
6
CONTINUOUS
10
 138.788
20
 273.464
30
  15.387
11
 138.870
21
 278.016
31
  14.989
39
 0
62
 3
 0
LINE
8
default
6
CONTINUOUS
10
-138.788
20
 273.464
30
  15.387
11
-138.870
21
 278.016
31
  14.989
39
 0
62
 3
 0
LINE
8
default
6
CONTINUOUS
10
 138.870
20
 278.016
30
  14.989
11
 138.936
21
 281.607
31
  14.665
39
 0
62
 3
 0
LINE
8
default
6
CONTINUOUS
10
-138.870
20
 278.016
30
  14.989
11
-138.936
21
 281.607
31
  14.665
39
 0
62
 3
 0
LINE
8
default
6
CONTINUOUS
10
 138.936
20
 281.607
30
  14.665
11
 138.974
21
 283.609
31
  14.481
39
 0
62
 3
 0
LINE
8
default
6
CONTINUOUS
10
-138.936
20
 281.607
30
  14.665
11
-138.974
21
 283.609
31
  14.481
39
 0
62
 3
 0
LINE
8
default
6
CONTINUOUS
10
 177.845
20
 281.609
30
  23.783
11
 177.956
21
 279.652
31
  23.374
39
 0
62
 5
 0
LINE
8
default
6
CONTINUOUS
10
-177.845
20
 281.609
30
  23.783
11
-177.956
21
 279.652
31
  23.374
39
 0
62
 5
 0
LINE
8
default
6
CONTINUOUS
10
 177.956
20
 279.652
30
  23.374
11
 178.153
21
 276.140
31
  22.646
39
 0
62
 5
 0
LINE
8
default
6
CONTINUOUS
10
-177.956
20
 279.652
30
  23.374
11
-178.153
21
 276.140
31
  22.646
39
 0
62
 5
 0
LINE
8
default
6
CONTINUOUS
10
 178.153
20
 276.140
30
  22.646
11
 178.399
21
 271.686
31
  21.741
39
 0
62
 5
 0
LINE
8
default
6
CONTINUOUS
10
-178.153
20
 276.140
30
  22.646
11
-178.399
21
 271.686
31
  21.741
39
 0
62
 5
 0
LINE
8
default
6
CONTINUOUS
10
 178.399
20
 271.686
30
  21.741
11
 178.677
21
 266.528
31
  20.715
39
 0
62
 5
 0
LINE
8
default
6
CONTINUOUS
10
-178.399
20
 271.686
30
  21.741
11
-178.677
21
 266.528
31
  20.715
39
 0
62
 5
 0
LINE
8
default
6
CONTINUOUS
10
 178.677
20
 266.528
30
  20.715
11
 178.979
21
 260.803
31
  19.603
39
 0
62
 5
 0
LINE
8
default
6
CONTINUOUS
10
-178.677
20
 266.528
30
  20.715
11
-178.979
21
 260.803
31
  19.603
39
 0
62
 5
 0
LINE
8
default
6
CONTINUOUS
10
 178.979
20
 260.803
30
  19.603
11
 179.298
21
 254.616
31
  18.429
39
 0
62
 5
 0
LINE
8
default
6
CONTINUOUS
10
-178.979
20
 260.803
30
  19.603
11
-179.298
21
 254.616
31
  18.429
39
 0
62
 5
 0
LINE
8
default
6
CONTINUOUS
10
 179.298
20
 254.616
30
  18.429
11
 179.627
21
 248.042
31
  17.213
39
 0
62
 5
 0
LINE
8
default
6
CONTINUOUS
10
-179.298
20
 254.616
30
  18.429
11
-179.627
21
 248.042
31
  17.213
39
 0
62
 5
 0
LINE
8
default
6
CONTINUOUS
10
 179.627
20
 248.042
30
  17.213
11
 179.965
21
 241.148
31
  15.968
39
 0
62
 5
 0
LINE
8
default
6
CONTINUOUS
10
-179.627
20
 248.042
30
  17.213
11
-179.965
21
 241.148
31
  15.968
39
 0
62
 5
 0
LINE
8
default
6
CONTINUOUS
10
 179.965
20
 241.148
30
  15.968
11
 180.308
21
 233.983
31
  14.706
39
 0
62
 5
 0
LINE
8
default
6
CONTINUOUS
10
-179.965
20
 241.148
30
  15.968
11
-180.308
21
 233.983
31
  14.706
39
 0
62
 5
 0
LINE
8
default
6
CONTINUOUS
10
 180.308
20
 233.983
30
  14.706
11
 180.653
21
 226.596
31
  13.435
39
 0
62
 5
 0
LINE
8
default
6
CONTINUOUS
10
-180.308
20
 233.983
30
  14.706
11
-180.653
21
 226.596
31
  13.435
39
 0
62
 5
 0
LINE
8
default
6
CONTINUOUS
10
 180.653
20
 226.596
30
  13.435
11
 180.998
21
 219.026
31
  12.164
39
 0
62
 5
 0
LINE
8
default
6
CONTINUOUS
10
-180.653
20
 226.596
30
  13.435
11
-180.998
21
 219.026
31
  12.164
39
 0
62
 5
 0
LINE
8
default
6
CONTINUOUS
10
 180.998
20
 219.026
30
  12.164
11
 181.342
21
 211.309
31
  10.897
39
 0
62
 5
 0
LINE
8
default
6
CONTINUOUS
10
-180.998
20
 219.026
30
  12.164
11
-181.342
21
 211.309
31
  10.897
39
 0
62
 5
 0
LINE
8
default
6
CONTINUOUS
10
 181.342
20
 211.309
30
  10.897
11
 181.681
21
 203.477
31
   9.646
39
 0
62
 5
 0
LINE
8
default
6
CONTINUOUS
10
-181.342
20
 211.309
30
  10.897
11
-181.681
21
 203.477
31
   9.646
39
 0
62
 5
 0
LINE
8
default
6
CONTINUOUS
10
 181.681
20
 203.477
30
   9.646
11
 182.017
21
 195.561
31
   8.410
39
 0
62
 5
 0
LINE
8
default
6
CONTINUOUS
10
-181.681
20
 203.477
30
   9.646
11
-182.017
21
 195.561
31
   8.410
39
 0
62
 5
 0
LINE
8
default
6
CONTINUOUS
10
 182.017
20
 195.561
30
   8.410
11
 182.346
21
 187.588
31
   7.197
39
 0
62
 5
 0
LINE
8
default
6
CONTINUOUS
10
-182.017
20
 195.561
30
   8.410
11
-182.346
21
 187.588
31
   7.197
39
 0
62
 5
 0
LINE
8
default
6
CONTINUOUS
10
 182.346
20
 187.588
30
   7.197
11
 182.668
21
 179.585
31
   6.011
39
 0
62
 5
 0
LINE
8
default
6
CONTINUOUS
10
-182.346
20
 187.588
30
   7.197
11
-182.668
21
 179.585
31
   6.011
39
 0
62
 5
 0
LINE
8
default
6
CONTINUOUS
10
 182.668
20
 179.585
30
   6.011
11
 182.982
21
 171.570
31
   4.851
39
 0
62
 5
 0
LINE
8
default
6
CONTINUOUS
10
-182.668
20
 179.585
30
   6.011
11
-182.982
21
 171.570
31
   4.851
39
 0
62
 5
 0
LINE
8
default
6
CONTINUOUS
10
 182.982
20
 171.570
30
   4.851
11
 183.287
21
 163.572
31
   3.727
39
 0
62
 5
 0
LINE
8
default
6
CONTINUOUS
10
-182.982
20
 171.570
30
   4.851
11
-183.287
21
 163.572
31
   3.727
39
 0
62
 5
 0
LINE
8
default
6
CONTINUOUS
10
 183.287
20
 163.572
30
   3.727
11
 183.581
21
 155.609
31
   2.643
39
 0
62
 5
 0
LINE
8
default
6
CONTINUOUS
10
-183.287
20
 163.572
30
   3.727
11
-183.581
21
 155.609
31
   2.643
39
 0
62
 5
 0
LINE
8
default
6
CONTINUOUS
10
 183.581
20
 155.609
30
   2.643
11
 183.864
21
 147.703
31
   1.602
39
 0
62
 5
 0
LINE
8
default
6
CONTINUOUS
10
-183.581
20
 155.609
30
   2.643
11
-183.864
21
 147.703
31
   1.602
39
 0
62
 5
 0
LINE
8
default
6
CONTINUOUS
10
 183.864
20
 147.703
30
   1.602
11
 184.134
21
 139.871
31
   0.605
39
 0
62
 5
 0
LINE
8
default
6
CONTINUOUS
10
-183.864
20
 147.703
30
   1.602
11
-184.134
21
 139.871
31
   0.605
39
 0
62
 5
 0
LINE
8
default
6
CONTINUOUS
10
 184.134
20
 139.871
30
   0.605
11
 184.392
21
 132.128
31
  -0.343
39
 0
62
 5
 0
LINE
8
default
6
CONTINUOUS
10
-184.134
20
 139.871
30
   0.605
11
-184.392
21
 132.128
31
  -0.343
39
 0
62
 5
 0
LINE
8
default
6
CONTINUOUS
10
 184.392
20
 132.128
30
  -0.343
11
 184.634
21
 124.499
31
  -1.237
39
 0
62
 5
 0
LINE
8
default
6
CONTINUOUS
10
-184.392
20
 132.128
30
  -0.343
11
-184.634
21
 124.499
31
  -1.237
39
 0
62
 5
 0
LINE
8
default
6
CONTINUOUS
10
 184.634
20
 124.499
30
  -1.237
11
 184.860
21
 116.993
31
  -2.069
39
 0
62
 5
 0
LINE
8
default
6
CONTINUOUS
10
-184.634
20
 124.499
30
  -1.237
11
-184.860
21
 116.993
31
  -2.069
39
 0
62
 5
 0
LINE
8
default
6
CONTINUOUS
10
 184.860
20
 116.993
30
  -2.069
11
 185.069
21
 109.630
31
  -2.838
39
 0
62
 5
 0
LINE
8
default
6
CONTINUOUS
10
-184.860
20
 116.993
30
  -2.069
11
-185.069
21
 109.630
31
  -2.838
39
 0
62
 5
 0
LINE
8
default
6
CONTINUOUS
10
 185.069
20
 109.630
30
  -2.838
11
 185.259
21
 102.426
31
  -3.538
39
 0
62
 5
 0
LINE
8
default
6
CONTINUOUS
10
-185.069
20
 109.630
30
  -2.838
11
-185.259
21
 102.426
31
  -3.538
39
 0
62
 5
 0
LINE
8
default
6
CONTINUOUS
10
 185.259
20
 102.426
30
  -3.538
11
 185.429
21
  95.395
31
  -4.166
39
 0
62
 5
 0
LINE
8
default
6
CONTINUOUS
10
-185.259
20
 102.426
30
  -3.538
11
-185.429
21
  95.395
31
  -4.166
39
 0
62
 5
 0
LINE
8
default
6
CONTINUOUS
10
 185.429
20
  95.395
30
  -4.166
11
 185.578
21
  88.549
31
  -4.712
39
 0
62
 5
 0
LINE
8
default
6
CONTINUOUS
10
-185.429
20
  95.395
30
  -4.166
11
-185.578
21
  88.549
31
  -4.712
39
 0
62
 5
 0
LINE
8
default
6
CONTINUOUS
10
 185.578
20
  88.549
30
  -4.712
11
 185.702
21
  81.901
31
  -5.171
39
 0
62
 5
 0
LINE
8
default
6
CONTINUOUS
10
-185.578
20
  88.549
30
  -4.712
11
-185.702
21
  81.901
31
  -5.171
39
 0
62
 5
 0
LINE
8
default
6
CONTINUOUS
10
 185.702
20
  81.901
30
  -5.171
11
 185.802
21
  75.469
31
  -5.539
39
 0
62
 5
 0
LINE
8
default
6
CONTINUOUS
10
-185.702
20
  81.901
30
  -5.171
11
-185.802
21
  75.469
31
  -5.539
39
 0
62
 5
 0
LINE
8
default
6
CONTINUOUS
10
 185.802
20
  75.469
30
  -5.539
11
 185.868
21
  69.261
31
  -5.783
39
 0
62
 5
 0
LINE
8
default
6
CONTINUOUS
10
-185.802
20
  75.469
30
  -5.539
11
-185.868
21
  69.261
31
  -5.783
39
 0
62
 5
 0
LINE
8
default
6
CONTINUOUS
10
 185.868
20
  69.261
30
  -5.783
11
 185.891
21
  63.296
31
  -5.869
39
 0
62
 5
 0
LINE
8
default
6
CONTINUOUS
10
-185.868
20
  69.261
30
  -5.783
11
-185.891
21
  63.296
31
  -5.869
39
 0
62
 5
 0
LINE
8
default
6
CONTINUOUS
10
 185.891
20
  63.296
30
  -5.869
11
 185.862
21
  57.580
31
  -5.762
39
 0
62
 5
 0
LINE
8
default
6
CONTINUOUS
10
-185.891
20
  63.296
30
  -5.869
11
-185.862
21
  57.580
31
  -5.762
39
 0
62
 5
 0
LINE
8
default
6
CONTINUOUS
10
 185.862
20
  57.580
30
  -5.762
11
 185.774
21
  52.130
31
  -5.435
39
 0
62
 5
 0
LINE
8
default
6
CONTINUOUS
10
-185.862
20
  57.580
30
  -5.762
11
-185.774
21
  52.130
31
  -5.435
39
 0
62
 5
 0
LINE
8
default
6
CONTINUOUS
10
 185.774
20
  52.130
30
  -5.435
11
 185.621
21
  46.951
31
  -4.871
39
 0
62
 5
 0
LINE
8
default
6
CONTINUOUS
10
-185.774
20
  52.130
30
  -5.435
11
-185.621
21
  46.951
31
  -4.871
39
 0
62
 5
 0
LINE
8
default
6
CONTINUOUS
10
 185.621
20
  46.951
30
  -4.871
11
 185.399
21
  42.061
31
  -4.054
39
 0
62
 5
 0
LINE
8
default
6
CONTINUOUS
10
-185.621
20
  46.951
30
  -4.871
11
-185.399
21
  42.061
31
  -4.054
39
 0
62
 5
 0
LINE
8
default
6
CONTINUOUS
10
 185.399
20
  42.061
30
  -4.054
11
 185.104
21
  37.465
31
  -2.968
39
 0
62
 5
 0
LINE
8
default
6
CONTINUOUS
10
-185.399
20
  42.061
30
  -4.054
11
-185.104
21
  37.465
31
  -2.968
39
 0
62
 5
 0
LINE
8
default
6
CONTINUOUS
10
 185.104
20
  37.465
30
  -2.968
11
 184.738
21
  33.179
31
  -1.617
39
 0
62
 5
 0
LINE
8
default
6
CONTINUOUS
10
-185.104
20
  37.465
30
  -2.968
11
-184.738
21
  33.179
31
  -1.617
39
 0
62
 5
 0
LINE
8
default
6
CONTINUOUS
10
 184.738
20
  33.179
30
  -1.617
11
 184.302
21
  29.214
31
  -0.014
39
 0
62
 5
 0
LINE
8
default
6
CONTINUOUS
10
-184.738
20
  33.179
30
  -1.617
11
-184.302
21
  29.214
31
  -0.014
39
 0
62
 5
 0
LINE
8
default
6
CONTINUOUS
10
 184.302
20
  29.214
30
  -0.014
11
 183.807
21
  25.574
31
   1.812
39
 0
62
 5
 0
LINE
8
default
6
CONTINUOUS
10
-184.302
20
  29.214
30
  -0.014
11
-183.807
21
  25.574
31
   1.812
39
 0
62
 5
 0
LINE
8
default
6
CONTINUOUS
10
 183.807
20
  25.574
30
   1.812
11
 183.261
21
  22.279
31
   3.823
39
 0
62
 5
 0
LINE
8
default
6
CONTINUOUS
10
-183.807
20
  25.574
30
   1.812
11
-183.261
21
  22.279
31
   3.823
39
 0
62
 5
 0
LINE
8
default
6
CONTINUOUS
10
 183.261
20
  22.279
30
   3.823
11
 182.675
21
  19.333
31
   5.983
39
 0
62
 5
 0
LINE
8
default
6
CONTINUOUS
10
-183.261
20
  22.279
30
   3.823
11
-182.675
21
  19.333
31
   5.983
39
 0
62
 5
 0
LINE
8
default
6
CONTINUOUS
10
 182.675
20
  19.333
30
   5.983
11
 182.062
21
  16.745
31
   8.241
39
 0
62
 5
 0
LINE
8
default
6
CONTINUOUS
10
-182.675
20
  19.333
30
   5.983
11
-182.062
21
  16.745
31
   8.241
39
 0
62
 5
 0
LINE
8
default
6
CONTINUOUS
10
 182.062
20
  16.745
30
   8.241
11
 181.431
21
  14.527
31
  10.566
39
 0
62
 5
 0
LINE
8
default
6
CONTINUOUS
10
-182.062
20
  16.745
30
   8.241
11
-181.431
21
  14.527
31
  10.566
39
 0
62
 5
 0
LINE
8
default
6
CONTINUOUS
10
 181.431
20
  14.527
30
  10.566
11
 180.786
21
  12.688
31
  12.943
39
 0
62
 5
 0
LINE
8
default
6
CONTINUOUS
10
-181.431
20
  14.527
30
  10.566
11
-180.786
21
  12.688
31
  12.943
39
 0
62
 5
 0
LINE
8
default
6
CONTINUOUS
10
 180.786
20
  12.688
30
  12.943
11
 180.163
21
  11.241
31
  15.239
39
 0
62
 5
 0
LINE
8
default
6
CONTINUOUS
10
-180.786
20
  12.688
30
  12.943
11
-180.163
21
  11.241
31
  15.239
39
 0
62
 5
 0
LINE
8
default
6
CONTINUOUS
10
 180.163
20
  11.241
30
  15.239
11
 179.457
21
  10.190
31
  17.842
39
 0
62
 5
 0
LINE
8
default
6
CONTINUOUS
10
-180.163
20
  11.241
30
  15.239
11
-179.457
21
  10.190
31
  17.842
39
 0
62
 5
 0
LINE
8
default
6
CONTINUOUS
10
 179.457
20
  10.190
30
  17.842
11
 178.846
21
   9.549
31
  20.095
39
 0
62
 5
 0
LINE
8
default
6
CONTINUOUS
10
-179.457
20
  10.190
30
  17.842
11
-178.846
21
   9.549
31
  20.095
39
 0
62
 5
 0
LINE
8
default
6
CONTINUOUS
10
 178.846
20
   9.549
30
  20.095
11
 178.123
21
   9.321
31
  22.758
39
 0
62
 5
 0
LINE
8
default
6
CONTINUOUS
10
-178.846
20
   9.549
30
  20.095
11
-178.123
21
   9.321
31
  22.758
39
 0
62
 5
 0
LINE
8
default
6
CONTINUOUS
10
 178.123
20
   9.321
30
  22.758
11
 177.668
21
   9.526
31
  24.436
39
 0
62
 5
 0
LINE
8
default
6
CONTINUOUS
10
-178.123
20
   9.321
30
  22.758
11
-177.668
21
   9.526
31
  24.436
39
 0
62
 5
 0
LINE
8
default
6
CONTINUOUS
10
 177.668
20
   9.526
30
  24.436
11
 177.226
21
  10.149
31
  26.062
39
 0
62
 5
 0
LINE
8
default
6
CONTINUOUS
10
-177.668
20
   9.526
30
  24.436
11
-177.226
21
  10.149
31
  26.062
39
 0
62
 5
 0
LINE
8
default
6
CONTINUOUS
10
 177.226
20
  10.149
30
  26.062
11
 176.853
21
  11.178
31
  27.438
39
 0
62
 5
 0
LINE
8
default
6
CONTINUOUS
10
-177.226
20
  10.149
30
  26.062
11
-176.853
21
  11.178
31
  27.438
39
 0
62
 5
 0
LINE
8
default
6
CONTINUOUS
10
 176.853
20
  11.178
30
  27.438
11
 176.450
21
  12.563
31
  28.923
39
 0
62
 5
 0
LINE
8
default
6
CONTINUOUS
10
-176.853
20
  11.178
30
  27.438
11
-176.450
21
  12.563
31
  28.923
39
 0
62
 5
 0
LINE
8
default
6
CONTINUOUS
10
 176.450
20
  12.563
30
  28.923
11
 176.437
21
  12.607
31
  28.970
39
 0
62
 1
 0
LINE
8
default
6
CONTINUOUS
10
-176.450
20
  12.563
30
  28.923
11
-176.437
21
  12.607
31
  28.970
39
 0
62
 1
 0
LINE
8
default
6
CONTINUOUS
10
 176.437
20
  12.607
30
  28.970
11
 176.083
21
  14.426
31
  30.275
39
 0
62
 1
 0
LINE
8
default
6
CONTINUOUS
10
-176.437
20
  12.607
30
  28.970
11
-176.083
21
  14.426
31
  30.275
39
 0
62
 1
 0
LINE
8
default
6
CONTINUOUS
10
 176.083
20
  14.426
30
  30.275
11
 175.706
21
  16.623
31
  31.663
39
 0
62
 1
 0
LINE
8
default
6
CONTINUOUS
10
-176.083
20
  14.426
30
  30.275
11
-175.706
21
  16.623
31
  31.663
39
 0
62
 1
 0
LINE
8
default
6
CONTINUOUS
10
 175.706
20
  16.623
30
  31.663
11
 175.355
21
  19.194
31
  32.958
39
 0
62
 1
 0
LINE
8
default
6
CONTINUOUS
10
-175.706
20
  16.623
30
  31.663
11
-175.355
21
  19.194
31
  32.958
39
 0
62
 1
 0
LINE
8
default
6
CONTINUOUS
10
 175.355
20
  19.194
30
  32.958
11
 175.014
21
  22.124
31
  34.214
39
 0
62
 1
 0
LINE
8
default
6
CONTINUOUS
10
-175.355
20
  19.194
30
  32.958
11
-175.014
21
  22.124
31
  34.214
39
 0
62
 1
 0
LINE
8
default
6
CONTINUOUS
10
 175.014
20
  22.124
30
  34.214
11
 174.802
21
  24.247
31
  34.994
39
 0
62
 1
 0
LINE
8
default
6
CONTINUOUS
10
-175.014
20
  22.124
30
  34.214
11
-174.802
21
  24.247
31
  34.994
39
 0
62
 1
 0
LINE
8
default
6
CONTINUOUS
10
 174.802
20
  24.247
30
  34.994
11
 174.687
21
  25.406
31
  35.420
39
 0
62
 3
 0
LINE
8
default
6
CONTINUOUS
10
-174.802
20
  24.247
30
  34.994
11
-174.687
21
  25.406
31
  35.420
39
 0
62
 3
 0
LINE
8
default
6
CONTINUOUS
10
 174.687
20
  25.406
30
  35.420
11
 174.380
21
  29.028
31
  36.550
39
 0
62
 3
 0
LINE
8
default
6
CONTINUOUS
10
-174.687
20
  25.406
30
  35.420
11
-174.380
21
  29.028
31
  36.550
39
 0
62
 3
 0
LINE
8
default
6
CONTINUOUS
10
 174.380
20
  29.028
30
  36.550
11
 174.097
21
  32.980
31
  37.592
39
 0
62
 3
 0
LINE
8
default
6
CONTINUOUS
10
-174.380
20
  29.028
30
  36.550
11
-174.097
21
  32.980
31
  37.592
39
 0
62
 3
 0
LINE
8
default
6
CONTINUOUS
10
 174.097
20
  32.980
30
  37.592
11
 173.842
21
  37.257
31
  38.531
39
 0
62
 3
 0
LINE
8
default
6
CONTINUOUS
10
-174.097
20
  32.980
30
  37.592
11
-173.842
21
  37.257
31
  38.531
39
 0
62
 3
 0
LINE
8
default
6
CONTINUOUS
10
 173.842
20
  37.257
30
  38.531
11
 173.620
21
  41.839
31
  39.352
39
 0
62
 3
 0
LINE
8
default
6
CONTINUOUS
10
-173.842
20
  37.257
30
  38.531
11
-173.620
21
  41.839
31
  39.352
39
 0
62
 3
 0
LINE
8
default
6
CONTINUOUS
10
 173.620
20
  41.839
30
  39.352
11
 173.430
21
  46.724
31
  40.051
39
 0
62
 3
 0
LINE
8
default
6
CONTINUOUS
10
-173.620
20
  41.839
30
  39.352
11
-173.430
21
  46.724
31
  40.051
39
 0
62
 3
 0
LINE
8
default
6
CONTINUOUS
10
 173.430
20
  46.724
30
  40.051
11
 173.277
21
  51.895
31
  40.615
39
 0
62
 3
 0
LINE
8
default
6
CONTINUOUS
10
-173.430
20
  46.724
30
  40.051
11
-173.277
21
  51.895
31
  40.615
39
 0
62
 3
 0
LINE
8
default
6
CONTINUOUS
10
 173.277
20
  51.895
30
  40.615
11
 173.160
21
  57.344
31
  41.045
39
 0
62
 3
 0
LINE
8
default
6
CONTINUOUS
10
-173.277
20
  51.895
30
  40.615
11
-173.160
21
  57.344
31
  41.045
39
 0
62
 3
 0
LINE
8
default
6
CONTINUOUS
10
 173.160
20
  57.344
30
  41.045
11
 173.079
21
  63.056
31
  41.343
39
 0
62
 3
 0
LINE
8
default
6
CONTINUOUS
10
-173.160
20
  57.344
30
  41.045
11
-173.079
21
  63.056
31
  41.343
39
 0
62
 3
 0
LINE
8
default
6
CONTINUOUS
10
 173.079
20
  63.056
30
  41.343
11
 173.035
21
  69.024
31
  41.507
39
 0
62
 3
 0
LINE
8
default
6
CONTINUOUS
10
-173.079
20
  63.056
30
  41.343
11
-173.035
21
  69.024
31
  41.507
39
 0
62
 3
 0
LINE
8
default
6
CONTINUOUS
10
 173.035
20
  69.024
30
  41.507
11
 173.023
21
  75.229
31
  41.551
39
 0
62
 3
 0
LINE
8
default
6
CONTINUOUS
10
-173.035
20
  69.024
30
  41.507
11
-173.023
21
  75.229
31
  41.551
39
 0
62
 3
 0
LINE
8
default
6
CONTINUOUS
10
 173.023
20
  75.229
30
  41.551
11
 173.041
21
  81.664
31
  41.484
39
 0
62
 3
 0
LINE
8
default
6
CONTINUOUS
10
-173.023
20
  75.229
30
  41.551
11
-173.041
21
  81.664
31
  41.484
39
 0
62
 3
 0
LINE
8
default
6
CONTINUOUS
10
 173.041
20
  81.664
30
  41.484
11
 173.089
21
  88.311
31
  41.306
39
 0
62
 3
 0
LINE
8
default
6
CONTINUOUS
10
-173.041
20
  81.664
30
  41.484
11
-173.089
21
  88.311
31
  41.306
39
 0
62
 3
 0
LINE
8
default
6
CONTINUOUS
10
 173.089
20
  88.311
30
  41.306
11
 173.164
21
  95.163
31
  41.030
39
 0
62
 3
 0
LINE
8
default
6
CONTINUOUS
10
-173.089
20
  88.311
30
  41.306
11
-173.164
21
  95.163
31
  41.030
39
 0
62
 3
 0
LINE
8
default
6
CONTINUOUS
10
 173.164
20
  95.163
30
  41.030
11
 173.264
21
 102.201
31
  40.662
39
 0
62
 3
 0
LINE
8
default
6
CONTINUOUS
10
-173.164
20
  95.163
30
  41.030
11
-173.264
21
 102.201
31
  40.662
39
 0
62
 3
 0
LINE
8
default
6
CONTINUOUS
10
 173.264
20
 102.201
30
  40.662
11
 173.388
21
 109.410
31
  40.206
39
 0
62
 3
 0
LINE
8
default
6
CONTINUOUS
10
-173.264
20
 102.201
30
  40.662
11
-173.388
21
 109.410
31
  40.206
39
 0
62
 3
 0
LINE
8
default
6
CONTINUOUS
10
 173.388
20
 109.410
30
  40.206
11
 173.532
21
 116.780
31
  39.676
39
 0
62
 3
 0
LINE
8
default
6
CONTINUOUS
10
-173.388
20
 109.410
30
  40.206
11
-173.532
21
 116.780
31
  39.676
39
 0
62
 3
 0
LINE
8
default
6
CONTINUOUS
10
 173.532
20
 116.780
30
  39.676
11
 173.695
21
 124.293
31
  39.074
39
 0
62
 3
 0
LINE
8
default
6
CONTINUOUS
10
-173.532
20
 116.780
30
  39.676
11
-173.695
21
 124.293
31
  39.074
39
 0
62
 3
 0
LINE
8
default
6
CONTINUOUS
10
 173.695
20
 124.293
30
  39.074
11
 173.875
21
 131.930
31
  38.412
39
 0
62
 3
 0
LINE
8
default
6
CONTINUOUS
10
-173.695
20
 124.293
30
  39.074
11
-173.875
21
 131.930
31
  38.412
39
 0
62
 3
 0
LINE
8
default
6
CONTINUOUS
10
 173.875
20
 131.930
30
  38.412
11
 174.067
21
 139.680
31
  37.705
39
 0
62
 3
 0
LINE
8
default
6
CONTINUOUS
10
-173.875
20
 131.930
30
  38.412
11
-174.067
21
 139.680
31
  37.705
39
 0
62
 3
 0
LINE
8
default
6
CONTINUOUS
10
 174.067
20
 139.680
30
  37.705
11
 174.271
21
 147.520
31
  36.951
39
 0
62
 3
 0
LINE
8
default
6
CONTINUOUS
10
-174.067
20
 139.680
30
  37.705
11
-174.271
21
 147.520
31
  36.951
39
 0
62
 3
 0
LINE
8
default
6
CONTINUOUS
10
 174.271
20
 147.520
30
  36.951
11
 174.491
21
 155.438
31
  36.140
39
 0
62
 3
 0
LINE
8
default
6
CONTINUOUS
10
-174.271
20
 147.520
30
  36.951
11
-174.491
21
 155.438
31
  36.140
39
 0
62
 3
 0
LINE
8
default
6
CONTINUOUS
10
 174.491
20
 155.438
30
  36.140
11
 174.725
21
 163.409
31
  35.279
39
 0
62
 3
 0
LINE
8
default
6
CONTINUOUS
10
-174.491
20
 155.438
30
  36.140
11
-174.725
21
 163.409
31
  35.279
39
 0
62
 3
 0
LINE
8
default
6
CONTINUOUS
10
 174.725
20
 163.409
30
  35.279
11
 174.968
21
 171.418
31
  34.385
39
 0
62
 3
 0
LINE
8
default
6
CONTINUOUS
10
-174.725
20
 163.409
30
  35.279
11
-174.968
21
 171.418
31
  34.385
39
 0
62
 3
 0
LINE
8
default
6
CONTINUOUS
10
 174.968
20
 171.418
30
  34.385
11
 175.216
21
 179.441
31
  33.469
39
 0
62
 3
 0
LINE
8
default
6
CONTINUOUS
10
-174.968
20
 171.418
30
  34.385
11
-175.216
21
 179.441
31
  33.469
39
 0
62
 3
 0
LINE
8
default
6
CONTINUOUS
10
 175.216
20
 179.441
30
  33.469
11
 175.466
21
 187.455
31
  32.548
39
 0
62
 3
 0
LINE
8
default
6
CONTINUOUS
10
-175.216
20
 179.441
30
  33.469
11
-175.466
21
 187.455
31
  32.548
39
 0
62
 3
 0
LINE
8
default
6
CONTINUOUS
10
 175.466
20
 187.455
30
  32.548
11
 175.713
21
 195.440
31
  31.637
39
 0
62
 3
 0
LINE
8
default
6
CONTINUOUS
10
-175.466
20
 187.455
30
  32.548
11
-175.713
21
 195.440
31
  31.637
39
 0
62
 3
 0
LINE
8
default
6
CONTINUOUS
10
 175.713
20
 195.440
30
  31.637
11
 175.953
21
 203.367
31
  30.752
39
 0
62
 3
 0
LINE
8
default
6
CONTINUOUS
10
-175.713
20
 195.440
30
  31.637
11
-175.953
21
 203.367
31
  30.752
39
 0
62
 3
 0
LINE
8
default
6
CONTINUOUS
10
 175.953
20
 203.367
30
  30.752
11
 176.182
21
 211.207
31
  29.909
39
 0
62
 3
 0
LINE
8
default
6
CONTINUOUS
10
-175.953
20
 203.367
30
  30.752
11
-176.182
21
 211.207
31
  29.909
39
 0
62
 3
 0
LINE
8
default
6
CONTINUOUS
10
 176.182
20
 211.207
30
  29.909
11
 176.397
21
 218.935
31
  29.119
39
 0
62
 3
 0
LINE
8
default
6
CONTINUOUS
10
-176.182
20
 211.207
30
  29.909
11
-176.397
21
 218.935
31
  29.119
39
 0
62
 3
 0
LINE
8
default
6
CONTINUOUS
10
 176.397
20
 218.935
30
  29.119
11
 176.595
21
 226.516
31
  28.388
39
 0
62
 3
 0
LINE
8
default
6
CONTINUOUS
10
-176.397
20
 218.935
30
  29.119
11
-176.595
21
 226.516
31
  28.388
39
 0
62
 3
 0
LINE
8
default
6
CONTINUOUS
10
 176.595
20
 226.516
30
  28.388
11
 176.777
21
 233.914
31
  27.716
39
 0
62
 3
 0
LINE
8
default
6
CONTINUOUS
10
-176.595
20
 226.516
30
  28.388
11
-176.777
21
 233.914
31
  27.716
39
 0
62
 3
 0
LINE
8
default
6
CONTINUOUS
10
 176.777
20
 233.914
30
  27.716
11
 176.943
21
 241.089
31
  27.105
39
 0
62
 3
 0
LINE
8
default
6
CONTINUOUS
10
-176.777
20
 233.914
30
  27.716
11
-176.943
21
 241.089
31
  27.105
39
 0
62
 3
 0
LINE
8
default
6
CONTINUOUS
10
 176.943
20
 241.089
30
  27.105
11
 177.097
21
 247.994
31
  26.540
39
 0
62
 3
 0
LINE
8
default
6
CONTINUOUS
10
-176.943
20
 241.089
30
  27.105
11
-177.097
21
 247.994
31
  26.540
39
 0
62
 3
 0
LINE
8
default
6
CONTINUOUS
10
 177.097
20
 247.994
30
  26.540
11
 177.240
21
 254.575
31
  26.013
39
 0
62
 3
 0
LINE
8
default
6
CONTINUOUS
10
-177.097
20
 247.994
30
  26.540
11
-177.240
21
 254.575
31
  26.013
39
 0
62
 3
 0
LINE
8
default
6
CONTINUOUS
10
 177.240
20
 254.575
30
  26.013
11
 177.373
21
 260.771
31
  25.521
39
 0
62
 3
 0
LINE
8
default
6
CONTINUOUS
10
-177.240
20
 254.575
30
  26.013
11
-177.373
21
 260.771
31
  25.521
39
 0
62
 3
 0
LINE
8
default
6
CONTINUOUS
10
 177.373
20
 260.771
30
  25.521
11
 177.497
21
 266.505
31
  25.064
39
 0
62
 3
 0
LINE
8
default
6
CONTINUOUS
10
-177.373
20
 260.771
30
  25.521
11
-177.497
21
 266.505
31
  25.064
39
 0
62
 3
 0
LINE
8
default
6
CONTINUOUS
10
 177.497
20
 266.505
30
  25.064
11
 177.612
21
 271.672
31
  24.642
39
 0
62
 3
 0
LINE
8
default
6
CONTINUOUS
10
-177.497
20
 266.505
30
  25.064
11
-177.612
21
 271.672
31
  24.642
39
 0
62
 3
 0
LINE
8
default
6
CONTINUOUS
10
 177.612
20
 271.672
30
  24.642
11
 177.714
21
 276.131
31
  24.265
39
 0
62
 3
 0
LINE
8
default
6
CONTINUOUS
10
-177.612
20
 271.672
30
  24.642
11
-177.714
21
 276.131
31
  24.265
39
 0
62
 3
 0
LINE
8
default
6
CONTINUOUS
10
 177.714
20
 276.131
30
  24.265
11
 177.797
21
 279.647
31
  23.957
39
 0
62
 3
 0
LINE
8
default
6
CONTINUOUS
10
-177.714
20
 276.131
30
  24.265
11
-177.797
21
 279.647
31
  23.957
39
 0
62
 3
 0
LINE
8
default
6
CONTINUOUS
10
 177.797
20
 279.647
30
  23.957
11
 177.845
21
 281.609
31
  23.783
39
 0
62
 3
 0
LINE
8
default
6
CONTINUOUS
10
-177.797
20
 279.647
30
  23.957
11
-177.845
21
 281.609
31
  23.783
39
 0
62
 3
 0
LINE
8
default
6
CONTINUOUS
10
 215.978
20
 279.057
30
  35.860
11
 216.114
21
 277.155
31
  35.466
39
 0
62
 5
 0
LINE
8
default
6
CONTINUOUS
10
-215.978
20
 279.057
30
  35.860
11
-216.114
21
 277.155
31
  35.466
39
 0
62
 5
 0
LINE
8
default
6
CONTINUOUS
10
 216.114
20
 277.155
30
  35.466
11
 216.356
21
 273.739
31
  34.766
39
 0
62
 5
 0
LINE
8
default
6
CONTINUOUS
10
-216.114
20
 277.155
30
  35.466
11
-216.356
21
 273.739
31
  34.766
39
 0
62
 5
 0
LINE
8
default
6
CONTINUOUS
10
 216.356
20
 273.739
30
  34.766
11
 216.656
21
 269.409
31
  33.895
39
 0
62
 5
 0
LINE
8
default
6
CONTINUOUS
10
-216.356
20
 273.739
30
  34.766
11
-216.656
21
 269.409
31
  33.895
39
 0
62
 5
 0
LINE
8
default
6
CONTINUOUS
10
 216.656
20
 269.409
30
  33.895
11
 216.997
21
 264.392
31
  32.908
39
 0
62
 5
 0
LINE
8
default
6
CONTINUOUS
10
-216.656
20
 269.409
30
  33.895
11
-216.997
21
 264.392
31
  32.908
39
 0
62
 5
 0
LINE
8
default
6
CONTINUOUS
10
 216.997
20
 264.392
30
  32.908
11
 217.366
21
 258.826
31
  31.838
39
 0
62
 5
 0
LINE
8
default
6
CONTINUOUS
10
-216.997
20
 264.392
30
  32.908
11
-217.366
21
 258.826
31
  31.838
39
 0
62
 5
 0
LINE
8
default
6
CONTINUOUS
10
 217.366
20
 258.826
30
  31.838
11
 217.756
21
 252.809
31
  30.707
39
 0
62
 5
 0
LINE
8
default
6
CONTINUOUS
10
-217.366
20
 258.826
30
  31.838
11
-217.756
21
 252.809
31
  30.707
39
 0
62
 5
 0
LINE
8
default
6
CONTINUOUS
10
 217.756
20
 252.809
30
  30.707
11
 218.160
21
 246.416
31
  29.537
39
 0
62
 5
 0
LINE
8
default
6
CONTINUOUS
10
-217.756
20
 252.809
30
  30.707
11
-218.160
21
 246.416
31
  29.537
39
 0
62
 5
 0
LINE
8
default
6
CONTINUOUS
10
 218.160
20
 246.416
30
  29.537
11
 218.574
21
 239.712
31
  28.337
39
 0
62
 5
 0
LINE
8
default
6
CONTINUOUS
10
-218.160
20
 246.416
30
  29.537
11
-218.574
21
 239.712
31
  28.337
39
 0
62
 5
 0
LINE
8
default
6
CONTINUOUS
10
 218.574
20
 239.712
30
  28.337
11
 218.993
21
 232.745
31
  27.121
39
 0
62
 5
 0
LINE
8
default
6
CONTINUOUS
10
-218.574
20
 239.712
30
  28.337
11
-218.993
21
 232.745
31
  27.121
39
 0
62
 5
 0
LINE
8
default
6
CONTINUOUS
10
 218.993
20
 232.745
30
  27.121
11
 219.416
21
 225.560
31
  25.897
39
 0
62
 5
 0
LINE
8
default
6
CONTINUOUS
10
-218.993
20
 232.745
30
  27.121
11
-219.416
21
 225.560
31
  25.897
39
 0
62
 5
 0
LINE
8
default
6
CONTINUOUS
10
 219.416
20
 225.560
30
  25.897
11
 219.839
21
 218.199
31
  24.671
39
 0
62
 5
 0
LINE
8
default
6
CONTINUOUS
10
-219.416
20
 225.560
30
  25.897
11
-219.839
21
 218.199
31
  24.671
39
 0
62
 5
 0
LINE
8
default
6
CONTINUOUS
10
 219.839
20
 218.199
30
  24.671
11
 220.260
21
 210.694
31
  23.450
39
 0
62
 5
 0
LINE
8
default
6
CONTINUOUS
10
-219.839
20
 218.199
30
  24.671
11
-220.260
21
 210.694
31
  23.450
39
 0
62
 5
 0
LINE
8
default
6
CONTINUOUS
10
 220.260
20
 210.694
30
  23.450
11
 220.677
21
 203.078
31
  22.242
39
 0
62
 5
 0
LINE
8
default
6
CONTINUOUS
10
-220.260
20
 210.694
30
  23.450
11
-220.677
21
 203.078
31
  22.242
39
 0
62
 5
 0
LINE
8
default
6
CONTINUOUS
10
 220.677
20
 203.078
30
  22.242
11
 221.088
21
 195.379
31
  21.050
39
 0
62
 5
 0
LINE
8
default
6
CONTINUOUS
10
-220.677
20
 203.078
30
  22.242
11
-221.088
21
 195.379
31
  21.050
39
 0
62
 5
 0
LINE
8
default
6
CONTINUOUS
10
 221.088
20
 195.379
30
  21.050
11
 221.492
21
 187.625
31
  19.880
39
 0
62
 5
 0
LINE
8
default
6
CONTINUOUS
10
-221.088
20
 195.379
30
  21.050
11
-221.492
21
 187.625
31
  19.880
39
 0
62
 5
 0
LINE
8
default
6
CONTINUOUS
10
 221.492
20
 187.625
30
  19.880
11
 221.887
21
 179.842
31
  18.734
39
 0
62
 5
 0
LINE
8
default
6
CONTINUOUS
10
-221.492
20
 187.625
30
  19.880
11
-221.887
21
 179.842
31
  18.734
39
 0
62
 5
 0
LINE
8
default
6
CONTINUOUS
10
 221.887
20
 179.842
30
  18.734
11
 222.274
21
 172.048
31
  17.614
39
 0
62
 5
 0
LINE
8
default
6
CONTINUOUS
10
-221.887
20
 179.842
30
  18.734
11
-222.274
21
 172.048
31
  17.614
39
 0
62
 5
 0
LINE
8
default
6
CONTINUOUS
10
 222.274
20
 172.048
30
  17.614
11
 222.648
21
 164.269
31
  16.528
39
 0
62
 5
 0
LINE
8
default
6
CONTINUOUS
10
-222.274
20
 172.048
30
  17.614
11
-222.648
21
 164.269
31
  16.528
39
 0
62
 5
 0
LINE
8
default
6
CONTINUOUS
10
 222.648
20
 164.269
30
  16.528
11
 223.010
21
 156.525
31
  15.481
39
 0
62
 5
 0
LINE
8
default
6
CONTINUOUS
10
-222.648
20
 164.269
30
  16.528
11
-223.010
21
 156.525
31
  15.481
39
 0
62
 5
 0
LINE
8
default
6
CONTINUOUS
10
 223.010
20
 156.525
30
  15.481
11
 223.357
21
 148.836
31
  14.474
39
 0
62
 5
 0
LINE
8
default
6
CONTINUOUS
10
-223.010
20
 156.525
30
  15.481
11
-223.357
21
 148.836
31
  14.474
39
 0
62
 5
 0
LINE
8
default
6
CONTINUOUS
10
 223.357
20
 148.836
30
  14.474
11
 223.690
21
 141.219
31
  13.510
39
 0
62
 5
 0
LINE
8
default
6
CONTINUOUS
10
-223.357
20
 148.836
30
  14.474
11
-223.690
21
 141.219
31
  13.510
39
 0
62
 5
 0
LINE
8
default
6
CONTINUOUS
10
 223.690
20
 141.219
30
  13.510
11
 224.007
21
 133.688
31
  12.591
39
 0
62
 5
 0
LINE
8
default
6
CONTINUOUS
10
-223.690
20
 141.219
30
  13.510
11
-224.007
21
 133.688
31
  12.591
39
 0
62
 5
 0
LINE
8
default
6
CONTINUOUS
10
 224.007
20
 133.688
30
  12.591
11
 224.306
21
 126.269
31
  11.725
39
 0
62
 5
 0
LINE
8
default
6
CONTINUOUS
10
-224.007
20
 133.688
30
  12.591
11
-224.306
21
 126.269
31
  11.725
39
 0
62
 5
 0
LINE
8
default
6
CONTINUOUS
10
 224.306
20
 126.269
30
  11.725
11
 224.584
21
 118.968
31
  10.918
39
 0
62
 5
 0
LINE
8
default
6
CONTINUOUS
10
-224.306
20
 126.269
30
  11.725
11
-224.584
21
 118.968
31
  10.918
39
 0
62
 5
 0
LINE
8
default
6
CONTINUOUS
10
 224.584
20
 118.968
30
  10.918
11
 224.842
21
 111.807
31
  10.172
39
 0
62
 5
 0
LINE
8
default
6
CONTINUOUS
10
-224.584
20
 118.968
30
  10.918
11
-224.842
21
 111.807
31
  10.172
39
 0
62
 5
 0
LINE
8
default
6
CONTINUOUS
10
 224.842
20
 111.807
30
  10.172
11
 225.076
21
 104.800
31
   9.492
39
 0
62
 5
 0
LINE
8
default
6
CONTINUOUS
10
-224.842
20
 111.807
30
  10.172
11
-225.076
21
 104.800
31
   9.492
39
 0
62
 5
 0
LINE
8
default
6
CONTINUOUS
10
 225.076
20
 104.800
30
   9.492
11
 225.287
21
  97.961
31
   8.880
39
 0
62
 5
 0
LINE
8
default
6
CONTINUOUS
10
-225.076
20
 104.800
30
   9.492
11
-225.287
21
  97.961
31
   8.880
39
 0
62
 5
 0
LINE
8
default
6
CONTINUOUS
10
 225.287
20
  97.961
30
   8.880
11
 225.471
21
  91.303
31
   8.347
39
 0
62
 5
 0
LINE
8
default
6
CONTINUOUS
10
-225.287
20
  97.961
30
   8.880
11
-225.471
21
  91.303
31
   8.347
39
 0
62
 5
 0
LINE
8
default
6
CONTINUOUS
10
 225.471
20
  91.303
30
   8.347
11
 225.626
21
  84.837
31
   7.897
39
 0
62
 5
 0
LINE
8
default
6
CONTINUOUS
10
-225.471
20
  91.303
30
   8.347
11
-225.626
21
  84.837
31
   7.897
39
 0
62
 5
 0
LINE
8
default
6
CONTINUOUS
10
 225.626
20
  84.837
30
   7.897
11
 225.752
21
  78.580
31
   7.534
39
 0
62
 5
 0
LINE
8
default
6
CONTINUOUS
10
-225.626
20
  84.837
30
   7.897
11
-225.752
21
  78.580
31
   7.534
39
 0
62
 5
 0
LINE
8
default
6
CONTINUOUS
10
 225.752
20
  78.580
30
   7.534
11
 225.836
21
  72.541
31
   7.290
39
 0
62
 5
 0
LINE
8
default
6
CONTINUOUS
10
-225.752
20
  78.580
30
   7.534
11
-225.836
21
  72.541
31
   7.290
39
 0
62
 5
 0
LINE
8
default
6
CONTINUOUS
10
 225.836
20
  72.541
30
   7.290
11
 225.868
21
  66.738
31
   7.197
39
 0
62
 5
 0
LINE
8
default
6
CONTINUOUS
10
-225.836
20
  72.541
30
   7.290
11
-225.868
21
  66.738
31
   7.197
39
 0
62
 5
 0
LINE
8
default
6
CONTINUOUS
10
 225.868
20
  66.738
30
   7.197
11
 225.836
21
  61.177
31
   7.289
39
 0
62
 5
 0
LINE
8
default
6
CONTINUOUS
10
-225.868
20
  66.738
30
   7.197
11
-225.836
21
  61.177
31
   7.289
39
 0
62
 5
 0
LINE
8
default
6
CONTINUOUS
10
 225.836
20
  61.177
30
   7.289
11
 225.732
21
  55.875
31
   7.590
39
 0
62
 5
 0
LINE
8
default
6
CONTINUOUS
10
-225.836
20
  61.177
30
   7.289
11
-225.732
21
  55.875
31
   7.590
39
 0
62
 5
 0
LINE
8
default
6
CONTINUOUS
10
 225.732
20
  55.875
30
   7.590
11
 225.550
21
  50.836
31
   8.117
39
 0
62
 5
 0
LINE
8
default
6
CONTINUOUS
10
-225.732
20
  55.875
30
   7.590
11
-225.550
21
  50.836
31
   8.117
39
 0
62
 5
 0
LINE
8
default
6
CONTINUOUS
10
 225.550
20
  50.836
30
   8.117
11
 225.285
21
  46.076
31
   8.887
39
 0
62
 5
 0
LINE
8
default
6
CONTINUOUS
10
-225.550
20
  50.836
30
   8.117
11
-225.285
21
  46.076
31
   8.887
39
 0
62
 5
 0
LINE
8
default
6
CONTINUOUS
10
 225.285
20
  46.076
30
   8.887
11
 224.931
21
  41.604
31
   9.914
39
 0
62
 5
 0
LINE
8
default
6
CONTINUOUS
10
-225.285
20
  46.076
30
   8.887
11
-224.931
21
  41.604
31
   9.914
39
 0
62
 5
 0
LINE
8
default
6
CONTINUOUS
10
 224.931
20
  41.604
30
   9.914
11
 224.489
21
  37.432
31
  11.192
39
 0
62
 5
 0
LINE
8
default
6
CONTINUOUS
10
-224.931
20
  41.604
30
   9.914
11
-224.489
21
  37.432
31
  11.192
39
 0
62
 5
 0
LINE
8
default
6
CONTINUOUS
10
 224.489
20
  37.432
30
  11.192
11
 223.965
21
  33.571
31
  12.713
39
 0
62
 5
 0
LINE
8
default
6
CONTINUOUS
10
-224.489
20
  37.432
30
  11.192
11
-223.965
21
  33.571
31
  12.713
39
 0
62
 5
 0
LINE
8
default
6
CONTINUOUS
10
 223.965
20
  33.571
30
  12.713
11
 223.367
21
  30.026
31
  14.446
39
 0
62
 5
 0
LINE
8
default
6
CONTINUOUS
10
-223.965
20
  33.571
30
  12.713
11
-223.367
21
  30.026
31
  14.446
39
 0
62
 5
 0
LINE
8
default
6
CONTINUOUS
10
 223.367
20
  30.026
30
  14.446
11
 222.708
21
  26.817
31
  16.357
39
 0
62
 5
 0
LINE
8
default
6
CONTINUOUS
10
-223.367
20
  30.026
30
  14.446
11
-222.708
21
  26.817
31
  16.357
39
 0
62
 5
 0
LINE
8
default
6
CONTINUOUS
10
 222.708
20
  26.817
30
  16.357
11
 222.000
21
  23.946
31
  18.409
39
 0
62
 5
 0
LINE
8
default
6
CONTINUOUS
10
-222.708
20
  26.817
30
  16.357
11
-222.000
21
  23.946
31
  18.409
39
 0
62
 5
 0
LINE
8
default
6
CONTINUOUS
10
 222.000
20
  23.946
30
  18.409
11
 221.259
21
  21.424
31
  20.556
39
 0
62
 5
 0
LINE
8
default
6
CONTINUOUS
10
-222.000
20
  23.946
30
  18.409
11
-221.259
21
  21.424
31
  20.556
39
 0
62
 5
 0
LINE
8
default
6
CONTINUOUS
10
 221.259
20
  21.424
30
  20.556
11
 220.496
21
  19.261
31
  22.767
39
 0
62
 5
 0
LINE
8
default
6
CONTINUOUS
10
-221.259
20
  21.424
30
  20.556
11
-220.496
21
  19.261
31
  22.767
39
 0
62
 5
 0
LINE
8
default
6
CONTINUOUS
10
 220.496
20
  19.261
30
  22.767
11
 219.716
21
  17.467
31
  25.028
39
 0
62
 5
 0
LINE
8
default
6
CONTINUOUS
10
-220.496
20
  19.261
30
  22.767
11
-219.716
21
  17.467
31
  25.028
39
 0
62
 5
 0
LINE
8
default
6
CONTINUOUS
10
 219.716
20
  17.467
30
  25.028
11
 218.962
21
  16.055
31
  27.214
39
 0
62
 5
 0
LINE
8
default
6
CONTINUOUS
10
-219.716
20
  17.467
30
  25.028
11
-218.962
21
  16.055
31
  27.214
39
 0
62
 5
 0
LINE
8
default
6
CONTINUOUS
10
 218.962
20
  16.055
30
  27.214
11
 218.106
21
  15.027
31
  29.692
39
 0
62
 5
 0
LINE
8
default
6
CONTINUOUS
10
-218.962
20
  16.055
30
  27.214
11
-218.106
21
  15.027
31
  29.692
39
 0
62
 5
 0
LINE
8
default
6
CONTINUOUS
10
 218.106
20
  15.027
30
  29.692
11
 217.366
21
  14.399
31
  31.837
39
 0
62
 5
 0
LINE
8
default
6
CONTINUOUS
10
-218.106
20
  15.027
30
  29.692
11
-217.366
21
  14.399
31
  31.837
39
 0
62
 5
 0
LINE
8
default
6
CONTINUOUS
10
 217.366
20
  14.399
30
  31.837
11
 216.491
21
  14.172
31
  34.375
39
 0
62
 5
 0
LINE
8
default
6
CONTINUOUS
10
-217.366
20
  14.399
30
  31.837
11
-216.491
21
  14.172
31
  34.375
39
 0
62
 5
 0
LINE
8
default
6
CONTINUOUS
10
 216.491
20
  14.172
30
  34.375
11
 215.939
21
  14.368
31
  35.974
39
 0
62
 5
 0
LINE
8
default
6
CONTINUOUS
10
-216.491
20
  14.172
30
  34.375
11
-215.939
21
  14.368
31
  35.974
39
 0
62
 5
 0
LINE
8
default
6
CONTINUOUS
10
 215.939
20
  14.368
30
  35.974
11
 215.404
21
  14.970
31
  37.525
39
 0
62
 5
 0
LINE
8
default
6
CONTINUOUS
10
-215.939
20
  14.368
30
  35.974
11
-215.404
21
  14.970
31
  37.525
39
 0
62
 5
 0
LINE
8
default
6
CONTINUOUS
10
 215.404
20
  14.970
30
  37.525
11
 214.951
21
  15.969
31
  38.837
39
 0
62
 5
 0
LINE
8
default
6
CONTINUOUS
10
-215.404
20
  14.970
30
  37.525
11
-214.951
21
  15.969
31
  38.837
39
 0
62
 5
 0
LINE
8
default
6
CONTINUOUS
10
 214.951
20
  15.969
30
  38.837
11
 214.462
21
  17.313
31
  40.256
39
 0
62
 5
 0
LINE
8
default
6
CONTINUOUS
10
-214.951
20
  15.969
30
  38.837
11
-214.462
21
  17.313
31
  40.256
39
 0
62
 5
 0
LINE
8
default
6
CONTINUOUS
10
 214.462
20
  17.313
30
  40.256
11
 214.446
21
  17.356
31
  40.300
39
 0
62
 1
 0
LINE
8
default
6
CONTINUOUS
10
-214.462
20
  17.313
30
  40.256
11
-214.446
21
  17.356
31
  40.300
39
 0
62
 1
 0
LINE
8
default
6
CONTINUOUS
10
 214.446
20
  17.356
30
  40.300
11
 214.016
21
  19.122
31
  41.547
39
 0
62
 1
 0
LINE
8
default
6
CONTINUOUS
10
-214.446
20
  17.356
30
  40.300
11
-214.016
21
  19.122
31
  41.547
39
 0
62
 1
 0
LINE
8
default
6
CONTINUOUS
10
 214.016
20
  19.122
30
  41.547
11
 213.559
21
  21.257
31
  42.874
39
 0
62
 1
 0
LINE
8
default
6
CONTINUOUS
10
-214.016
20
  19.122
30
  41.547
11
-213.559
21
  21.257
31
  42.874
39
 0
62
 1
 0
LINE
8
default
6
CONTINUOUS
10
 213.559
20
  21.257
30
  42.874
11
 213.131
21
  23.755
31
  44.112
39
 0
62
 1
 0
LINE
8
default
6
CONTINUOUS
10
-213.559
20
  21.257
30
  42.874
11
-213.131
21
  23.755
31
  44.112
39
 0
62
 1
 0
LINE
8
default
6
CONTINUOUS
10
 213.131
20
  23.755
30
  44.112
11
 212.716
21
  26.603
31
  45.315
39
 0
62
 1
 0
LINE
8
default
6
CONTINUOUS
10
-213.131
20
  23.755
30
  44.112
11
-212.716
21
  26.603
31
  45.315
39
 0
62
 1
 0
LINE
8
default
6
CONTINUOUS
10
 212.716
20
  26.603
30
  45.315
11
 212.458
21
  28.667
31
  46.062
39
 0
62
 1
 0
LINE
8
default
6
CONTINUOUS
10
-212.716
20
  26.603
30
  45.315
11
-212.458
21
  28.667
31
  46.062
39
 0
62
 1
 0
LINE
8
default
6
CONTINUOUS
10
 212.458
20
  28.667
30
  46.062
11
 212.318
21
  29.793
31
  46.470
39
 0
62
 3
 0
LINE
8
default
6
CONTINUOUS
10
-212.458
20
  28.667
30
  46.062
11
-212.318
21
  29.793
31
  46.470
39
 0
62
 3
 0
LINE
8
default
6
CONTINUOUS
10
 212.318
20
  29.793
30
  46.470
11
 211.944
21
  33.315
31
  47.554
39
 0
62
 3
 0
LINE
8
default
6
CONTINUOUS
10
-212.318
20
  29.793
30
  46.470
11
-211.944
21
  33.315
31
  47.554
39
 0
62
 3
 0
LINE
8
default
6
CONTINUOUS
10
 211.944
20
  33.315
30
  47.554
11
 211.598
21
  37.158
31
  48.554
39
 0
62
 3
 0
LINE
8
default
6
CONTINUOUS
10
-211.944
20
  33.315
30
  47.554
11
-211.598
21
  37.158
31
  48.554
39
 0
62
 3
 0
LINE
8
default
6
CONTINUOUS
10
 211.598
20
  37.158
30
  48.554
11
 211.287
21
  41.316
31
  49.457
39
 0
62
 3
 0
LINE
8
default
6
CONTINUOUS
10
-211.598
20
  37.158
30
  48.554
11
-211.287
21
  41.316
31
  49.457
39
 0
62
 3
 0
LINE
8
default
6
CONTINUOUS
10
 211.287
20
  41.316
30
  49.457
11
 211.014
21
  45.772
31
  50.248
39
 0
62
 3
 0
LINE
8
default
6
CONTINUOUS
10
-211.287
20
  41.316
30
  49.457
11
-211.014
21
  45.772
31
  50.248
39
 0
62
 3
 0
LINE
8
default
6
CONTINUOUS
10
 211.014
20
  45.772
30
  50.248
11
 210.781
21
  50.523
31
  50.923
39
 0
62
 3
 0
LINE
8
default
6
CONTINUOUS
10
-211.014
20
  45.772
30
  50.248
11
-210.781
21
  50.523
31
  50.923
39
 0
62
 3
 0
LINE
8
default
6
CONTINUOUS
10
 210.781
20
  50.523
30
  50.923
11
 210.593
21
  55.552
31
  51.470
39
 0
62
 3
 0
LINE
8
default
6
CONTINUOUS
10
-210.781
20
  50.523
30
  50.923
11
-210.593
21
  55.552
31
  51.470
39
 0
62
 3
 0
LINE
8
default
6
CONTINUOUS
10
 210.593
20
  55.552
30
  51.470
11
 210.448
21
  60.853
31
  51.890
39
 0
62
 3
 0
LINE
8
default
6
CONTINUOUS
10
-210.593
20
  55.552
30
  51.470
11
-210.448
21
  60.853
31
  51.890
39
 0
62
 3
 0
LINE
8
default
6
CONTINUOUS
10
 210.448
20
  60.853
30
  51.890
11
 210.346
21
  66.408
31
  52.184
39
 0
62
 3
 0
LINE
8
default
6
CONTINUOUS
10
-210.448
20
  60.853
30
  51.890
11
-210.346
21
  66.408
31
  52.184
39
 0
62
 3
 0
LINE
8
default
6
CONTINUOUS
10
 210.346
20
  66.408
30
  52.184
11
 210.288
21
  72.214
31
  52.352
39
 0
62
 3
 0
LINE
8
default
6
CONTINUOUS
10
-210.346
20
  66.408
30
  52.184
11
-210.288
21
  72.214
31
  52.352
39
 0
62
 3
 0
LINE
8
default
6
CONTINUOUS
10
 210.288
20
  72.214
30
  52.352
11
 210.270
21
  78.250
31
  52.406
39
 0
62
 3
 0
LINE
8
default
6
CONTINUOUS
10
-210.288
20
  72.214
30
  52.352
11
-210.270
21
  78.250
31
  52.406
39
 0
62
 3
 0
LINE
8
default
6
CONTINUOUS
10
 210.270
20
  78.250
30
  52.406
11
 210.288
21
  84.510
31
  52.353
39
 0
62
 3
 0
LINE
8
default
6
CONTINUOUS
10
-210.270
20
  78.250
30
  52.406
11
-210.288
21
  84.510
31
  52.353
39
 0
62
 3
 0
LINE
8
default
6
CONTINUOUS
10
 210.288
20
  84.510
30
  52.353
11
 210.342
21
  90.977
31
  52.197
39
 0
62
 3
 0
LINE
8
default
6
CONTINUOUS
10
-210.288
20
  84.510
30
  52.353
11
-210.342
21
  90.977
31
  52.197
39
 0
62
 3
 0
LINE
8
default
6
CONTINUOUS
10
 210.342
20
  90.977
30
  52.197
11
 210.428
21
  97.644
31
  51.946
39
 0
62
 3
 0
LINE
8
default
6
CONTINUOUS
10
-210.342
20
  90.977
30
  52.197
11
-210.428
21
  97.644
31
  51.946
39
 0
62
 3
 0
LINE
8
default
6
CONTINUOUS
10
 210.428
20
  97.644
30
  51.946
11
 210.545
21
 104.491
31
  51.609
39
 0
62
 3
 0
LINE
8
default
6
CONTINUOUS
10
-210.428
20
  97.644
30
  51.946
11
-210.545
21
 104.491
31
  51.609
39
 0
62
 3
 0
LINE
8
default
6
CONTINUOUS
10
 210.545
20
 104.491
30
  51.609
11
 210.690
21
 111.505
31
  51.187
39
 0
62
 3
 0
LINE
8
default
6
CONTINUOUS
10
-210.545
20
 104.491
30
  51.609
11
-210.690
21
 111.505
31
  51.187
39
 0
62
 3
 0
LINE
8
default
6
CONTINUOUS
10
 210.690
20
 111.505
30
  51.187
11
 210.859
21
 118.676
31
  50.697
39
 0
62
 3
 0
LINE
8
default
6
CONTINUOUS
10
-210.690
20
 111.505
30
  51.187
11
-210.859
21
 118.676
31
  50.697
39
 0
62
 3
 0
LINE
8
default
6
CONTINUOUS
10
 210.859
20
 118.676
30
  50.697
11
 211.053
21
 125.985
31
  50.137
39
 0
62
 3
 0
LINE
8
default
6
CONTINUOUS
10
-210.859
20
 118.676
30
  50.697
11
-211.053
21
 125.985
31
  50.137
39
 0
62
 3
 0
LINE
8
default
6
CONTINUOUS
10
 211.053
20
 125.985
30
  50.137
11
 211.265
21
 133.417
31
  49.520
39
 0
62
 3
 0
LINE
8
default
6
CONTINUOUS
10
-211.053
20
 125.985
30
  50.137
11
-211.265
21
 133.417
31
  49.520
39
 0
62
 3
 0
LINE
8
default
6
CONTINUOUS
10
 211.265
20
 133.417
30
  49.520
11
 211.493
21
 140.957
31
  48.861
39
 0
62
 3
 0
LINE
8
default
6
CONTINUOUS
10
-211.265
20
 133.417
30
  49.520
11
-211.493
21
 140.957
31
  48.861
39
 0
62
 3
 0
LINE
8
default
6
CONTINUOUS
10
 211.493
20
 140.957
30
  48.861
11
 211.735
21
 148.585
31
  48.157
39
 0
62
 3
 0
LINE
8
default
6
CONTINUOUS
10
-211.493
20
 140.957
30
  48.861
11
-211.735
21
 148.585
31
  48.157
39
 0
62
 3
 0
LINE
8
default
6
CONTINUOUS
10
 211.735
20
 148.585
30
  48.157
11
 211.997
21
 156.291
31
  47.399
39
 0
62
 3
 0
LINE
8
default
6
CONTINUOUS
10
-211.735
20
 148.585
30
  48.157
11
-211.997
21
 156.291
31
  47.399
39
 0
62
 3
 0
LINE
8
default
6
CONTINUOUS
10
 211.997
20
 156.291
30
  47.399
11
 212.275
21
 164.046
31
  46.594
39
 0
62
 3
 0
LINE
8
default
6
CONTINUOUS
10
-211.997
20
 156.291
30
  47.399
11
-212.275
21
 164.046
31
  46.594
39
 0
62
 3
 0
LINE
8
default
6
CONTINUOUS
10
 212.275
20
 164.046
30
  46.594
11
 212.564
21
 171.840
31
  45.756
39
 0
62
 3
 0
LINE
8
default
6
CONTINUOUS
10
-212.275
20
 164.046
30
  46.594
11
-212.564
21
 171.840
31
  45.756
39
 0
62
 3
 0
LINE
8
default
6
CONTINUOUS
10
 212.564
20
 171.840
30
  45.756
11
 212.860
21
 179.646
31
  44.898
39
 0
62
 3
 0
LINE
8
default
6
CONTINUOUS
10
-212.564
20
 171.840
30
  45.756
11
-212.860
21
 179.646
31
  44.898
39
 0
62
 3
 0
LINE
8
default
6
CONTINUOUS
10
 212.860
20
 179.646
30
  44.898
11
 213.158
21
 187.445
31
  44.036
39
 0
62
 3
 0
LINE
8
default
6
CONTINUOUS
10
-212.860
20
 179.646
30
  44.898
11
-213.158
21
 187.445
31
  44.036
39
 0
62
 3
 0
LINE
8
default
6
CONTINUOUS
10
 213.158
20
 187.445
30
  44.036
11
 213.452
21
 195.214
31
  43.183
39
 0
62
 3
 0
LINE
8
default
6
CONTINUOUS
10
-213.158
20
 187.445
30
  44.036
11
-213.452
21
 195.214
31
  43.183
39
 0
62
 3
 0
LINE
8
default
6
CONTINUOUS
10
 213.452
20
 195.214
30
  43.183
11
 213.738
21
 202.928
31
  42.354
39
 0
62
 3
 0
LINE
8
default
6
CONTINUOUS
10
-213.452
20
 195.214
30
  43.183
11
-213.738
21
 202.928
31
  42.354
39
 0
62
 3
 0
LINE
8
default
6
CONTINUOUS
10
 213.738
20
 202.928
30
  42.354
11
 214.010
21
 210.556
31
  41.566
39
 0
62
 3
 0
LINE
8
default
6
CONTINUOUS
10
-213.738
20
 202.928
30
  42.354
11
-214.010
21
 210.556
31
  41.566
39
 0
62
 3
 0
LINE
8
default
6
CONTINUOUS
10
 214.010
20
 210.556
30
  41.566
11
 214.265
21
 218.076
31
  40.827
39
 0
62
 3
 0
LINE
8
default
6
CONTINUOUS
10
-214.010
20
 210.556
30
  41.566
11
-214.265
21
 218.076
31
  40.827
39
 0
62
 3
 0
LINE
8
default
6
CONTINUOUS
10
 214.265
20
 218.076
30
  40.827
11
 214.500
21
 225.452
31
  40.144
39
 0
62
 3
 0
LINE
8
default
6
CONTINUOUS
10
-214.265
20
 218.076
30
  40.827
11
-214.500
21
 225.452
31
  40.144
39
 0
62
 3
 0
LINE
8
default
6
CONTINUOUS
10
 214.500
20
 225.452
30
  40.144
11
 214.716
21
 232.651
31
  39.519
39
 0
62
 3
 0
LINE
8
default
6
CONTINUOUS
10
-214.500
20
 225.452
30
  40.144
11
-214.716
21
 232.651
31
  39.519
39
 0
62
 3
 0
LINE
8
default
6
CONTINUOUS
10
 214.716
20
 232.651
30
  39.519
11
 214.913
21
 239.632
31
  38.949
39
 0
62
 3
 0
LINE
8
default
6
CONTINUOUS
10
-214.716
20
 232.651
30
  39.519
11
-214.913
21
 239.632
31
  38.949
39
 0
62
 3
 0
LINE
8
default
6
CONTINUOUS
10
 214.913
20
 239.632
30
  38.949
11
 215.094
21
 246.350
31
  38.423
39
 0
62
 3
 0
LINE
8
default
6
CONTINUOUS
10
-214.913
20
 239.632
30
  38.949
11
-215.094
21
 246.350
31
  38.423
39
 0
62
 3
 0
LINE
8
default
6
CONTINUOUS
10
 215.094
20
 246.350
30
  38.423
11
 215.263
21
 252.753
31
  37.934
39
 0
62
 3
 0
LINE
8
default
6
CONTINUOUS
10
-215.094
20
 246.350
30
  38.423
11
-215.263
21
 252.753
31
  37.934
39
 0
62
 3
 0
LINE
8
default
6
CONTINUOUS
10
 215.263
20
 252.753
30
  37.934
11
 215.421
21
 258.782
31
  37.477
39
 0
62
 3
 0
LINE
8
default
6
CONTINUOUS
10
-215.263
20
 252.753
30
  37.934
11
-215.421
21
 258.782
31
  37.477
39
 0
62
 3
 0
LINE
8
default
6
CONTINUOUS
10
 215.421
20
 258.782
30
  37.477
11
 215.567
21
 264.361
31
  37.052
39
 0
62
 3
 0
LINE
8
default
6
CONTINUOUS
10
-215.421
20
 258.782
30
  37.477
11
-215.567
21
 264.361
31
  37.052
39
 0
62
 3
 0
LINE
8
default
6
CONTINUOUS
10
 215.567
20
 264.361
30
  37.052
11
 215.703
21
 269.389
31
  36.660
39
 0
62
 3
 0
LINE
8
default
6
CONTINUOUS
10
-215.567
20
 264.361
30
  37.052
11
-215.703
21
 269.389
31
  36.660
39
 0
62
 3
 0
LINE
8
default
6
CONTINUOUS
10
 215.703
20
 269.389
30
  36.660
11
 215.824
21
 273.727
31
  36.308
39
 0
62
 3
 0
LINE
8
default
6
CONTINUOUS
10
-215.703
20
 269.389
30
  36.660
11
-215.824
21
 273.727
31
  36.308
39
 0
62
 3
 0
LINE
8
default
6
CONTINUOUS
10
 215.824
20
 273.727
30
  36.308
11
 215.923
21
 277.149
31
  36.022
39
 0
62
 3
 0
LINE
8
default
6
CONTINUOUS
10
-215.824
20
 273.727
30
  36.308
11
-215.923
21
 277.149
31
  36.022
39
 0
62
 3
 0
LINE
8
default
6
CONTINUOUS
10
 215.923
20
 277.149
30
  36.022
11
 215.978
21
 279.057
31
  35.860
39
 0
62
 3
 0
LINE
8
default
6
CONTINUOUS
10
-215.923
20
 277.149
30
  36.022
11
-215.978
21
 279.057
31
  35.860
39
 0
62
 3
 0
LINE
8
default
6
CONTINUOUS
10
 253.100
20
 275.894
30
  51.096
11
 253.258
21
 274.059
31
  50.722
39
 0
62
 5
 0
LINE
8
default
6
CONTINUOUS
10
-253.100
20
 275.894
30
  51.096
11
-253.258
21
 274.059
31
  50.722
39
 0
62
 5
 0
LINE
8
default
6
CONTINUOUS
10
 253.258
20
 274.059
30
  50.722
11
 253.539
21
 270.763
31
  50.055
39
 0
62
 5
 0
LINE
8
default
6
CONTINUOUS
10
-253.258
20
 274.059
30
  50.722
11
-253.539
21
 270.763
31
  50.055
39
 0
62
 5
 0
LINE
8
default
6
CONTINUOUS
10
 253.539
20
 270.763
30
  50.055
11
 253.890
21
 266.585
31
  49.227
39
 0
62
 5
 0
LINE
8
default
6
CONTINUOUS
10
-253.539
20
 270.763
30
  50.055
11
-253.890
21
 266.585
31
  49.227
39
 0
62
 5
 0
LINE
8
default
6
CONTINUOUS
10
 253.890
20
 266.585
30
  49.227
11
 254.287
21
 261.745
31
  48.287
39
 0
62
 5
 0
LINE
8
default
6
CONTINUOUS
10
-253.890
20
 266.585
30
  49.227
11
-254.287
21
 261.745
31
  48.287
39
 0
62
 5
 0
LINE
8
default
6
CONTINUOUS
10
 254.287
20
 261.745
30
  48.287
11
 254.717
21
 256.374
31
  47.267
39
 0
62
 5
 0
LINE
8
default
6
CONTINUOUS
10
-254.287
20
 261.745
30
  48.287
11
-254.717
21
 256.374
31
  47.267
39
 0
62
 5
 0
LINE
8
default
6
CONTINUOUS
10
 254.717
20
 256.374
30
  47.267
11
 255.172
21
 250.569
31
  46.191
39
 0
62
 5
 0
LINE
8
default
6
CONTINUOUS
10
-254.717
20
 256.374
30
  47.267
11
-255.172
21
 250.569
31
  46.191
39
 0
62
 5
 0
LINE
8
default
6
CONTINUOUS
10
 255.172
20
 250.569
30
  46.191
11
 255.644
21
 244.401
31
  45.075
39
 0
62
 5
 0
LINE
8
default
6
CONTINUOUS
10
-255.172
20
 250.569
30
  46.191
11
-255.644
21
 244.401
31
  45.075
39
 0
62
 5
 0
LINE
8
default
6
CONTINUOUS
10
 255.644
20
 244.401
30
  45.075
11
 256.127
21
 237.932
31
  43.932
39
 0
62
 5
 0
LINE
8
default
6
CONTINUOUS
10
-255.644
20
 244.401
30
  45.075
11
-256.127
21
 237.932
31
  43.932
39
 0
62
 5
 0
LINE
8
default
6
CONTINUOUS
10
 256.127
20
 237.932
30
  43.932
11
 256.617
21
 231.209
31
  42.773
39
 0
62
 5
 0
LINE
8
default
6
CONTINUOUS
10
-256.127
20
 237.932
30
  43.932
11
-256.617
21
 231.209
31
  42.773
39
 0
62
 5
 0
LINE
8
default
6
CONTINUOUS
10
 256.617
20
 231.209
30
  42.773
11
 257.110
21
 224.277
31
  41.605
39
 0
62
 5
 0
LINE
8
default
6
CONTINUOUS
10
-256.617
20
 231.209
30
  42.773
11
-257.110
21
 224.277
31
  41.605
39
 0
62
 5
 0
LINE
8
default
6
CONTINUOUS
10
 257.110
20
 224.277
30
  41.605
11
 257.604
21
 217.174
31
  40.435
39
 0
62
 5
 0
LINE
8
default
6
CONTINUOUS
10
-257.110
20
 224.277
30
  41.605
11
-257.604
21
 217.174
31
  40.435
39
 0
62
 5
 0
LINE
8
default
6
CONTINUOUS
10
 257.604
20
 217.174
30
  40.435
11
 258.097
21
 209.932
31
  39.269
39
 0
62
 5
 0
LINE
8
default
6
CONTINUOUS
10
-257.604
20
 217.174
30
  40.435
11
-258.097
21
 209.932
31
  39.269
39
 0
62
 5
 0
LINE
8
default
6
CONTINUOUS
10
 258.097
20
 209.932
30
  39.269
11
 258.584
21
 202.583
31
  38.117
39
 0
62
 5
 0
LINE
8
default
6
CONTINUOUS
10
-258.097
20
 209.932
30
  39.269
11
-258.584
21
 202.583
31
  38.117
39
 0
62
 5
 0
LINE
8
default
6
CONTINUOUS
10
 258.584
20
 202.583
30
  38.117
11
 259.065
21
 195.155
31
  36.978
39
 0
62
 5
 0
LINE
8
default
6
CONTINUOUS
10
-258.584
20
 202.583
30
  38.117
11
-259.065
21
 195.155
31
  36.978
39
 0
62
 5
 0
LINE
8
default
6
CONTINUOUS
10
 259.065
20
 195.155
30
  36.978
11
 259.538
21
 187.672
31
  35.860
39
 0
62
 5
 0
LINE
8
default
6
CONTINUOUS
10
-259.065
20
 195.155
30
  36.978
11
-259.538
21
 187.672
31
  35.860
39
 0
62
 5
 0
LINE
8
default
6
CONTINUOUS
10
 259.538
20
 187.672
30
  35.860
11
 260.000
21
 180.162
31
  34.765
39
 0
62
 5
 0
LINE
8
default
6
CONTINUOUS
10
-259.538
20
 187.672
30
  35.860
11
-260.000
21
 180.162
31
  34.765
39
 0
62
 5
 0
LINE
8
default
6
CONTINUOUS
10
 260.000
20
 180.162
30
  34.765
11
 260.453
21
 172.641
31
  33.693
39
 0
62
 5
 0
LINE
8
default
6
CONTINUOUS
10
-260.000
20
 180.162
30
  34.765
11
-260.453
21
 172.641
31
  33.693
39
 0
62
 5
 0
LINE
8
default
6
CONTINUOUS
10
 260.453
20
 172.641
30
  33.693
11
 260.892
21
 165.135
31
  32.655
39
 0
62
 5
 0
LINE
8
default
6
CONTINUOUS
10
-260.453
20
 172.641
30
  33.693
11
-260.892
21
 165.135
31
  32.655
39
 0
62
 5
 0
LINE
8
default
6
CONTINUOUS
10
 260.892
20
 165.135
30
  32.655
11
 261.315
21
 157.661
31
  31.652
39
 0
62
 5
 0
LINE
8
default
6
CONTINUOUS
10
-260.892
20
 165.135
30
  32.655
11
-261.315
21
 157.661
31
  31.652
39
 0
62
 5
 0
LINE
8
default
6
CONTINUOUS
10
 261.315
20
 157.661
30
  31.652
11
 261.723
21
 150.242
31
  30.688
39
 0
62
 5
 0
LINE
8
default
6
CONTINUOUS
10
-261.315
20
 157.661
30
  31.652
11
-261.723
21
 150.242
31
  30.688
39
 0
62
 5
 0
LINE
8
default
6
CONTINUOUS
10
 261.723
20
 150.242
30
  30.688
11
 262.113
21
 142.891
31
  29.764
39
 0
62
 5
 0
LINE
8
default
6
CONTINUOUS
10
-261.723
20
 150.242
30
  30.688
11
-262.113
21
 142.891
31
  29.764
39
 0
62
 5
 0
LINE
8
default
6
CONTINUOUS
10
 262.113
20
 142.891
30
  29.764
11
 262.486
21
 135.623
31
  28.883
39
 0
62
 5
 0
LINE
8
default
6
CONTINUOUS
10
-262.113
20
 142.891
30
  29.764
11
-262.486
21
 135.623
31
  28.883
39
 0
62
 5
 0
LINE
8
default
6
CONTINUOUS
10
 262.486
20
 135.623
30
  28.883
11
 262.837
21
 128.463
31
  28.052
39
 0
62
 5
 0
LINE
8
default
6
CONTINUOUS
10
-262.486
20
 135.623
30
  28.883
11
-262.837
21
 128.463
31
  28.052
39
 0
62
 5
 0
LINE
8
default
6
CONTINUOUS
10
 262.837
20
 128.463
30
  28.052
11
 263.164
21
 121.418
31
  27.277
39
 0
62
 5
 0
LINE
8
default
6
CONTINUOUS
10
-262.837
20
 128.463
30
  28.052
11
-263.164
21
 121.418
31
  27.277
39
 0
62
 5
 0
LINE
8
default
6
CONTINUOUS
10
 263.164
20
 121.418
30
  27.277
11
 263.468
21
 114.507
31
  26.559
39
 0
62
 5
 0
LINE
8
default
6
CONTINUOUS
10
-263.164
20
 121.418
30
  27.277
11
-263.468
21
 114.507
31
  26.559
39
 0
62
 5
 0
LINE
8
default
6
CONTINUOUS
10
 263.468
20
 114.507
30
  26.559
11
 263.745
21
 107.744
31
  25.903
39
 0
62
 5
 0
LINE
8
default
6
CONTINUOUS
10
-263.468
20
 114.507
30
  26.559
11
-263.745
21
 107.744
31
  25.903
39
 0
62
 5
 0
LINE
8
default
6
CONTINUOUS
10
 263.745
20
 107.744
30
  25.903
11
 263.994
21
 101.144
31
  25.312
39
 0
62
 5
 0
LINE
8
default
6
CONTINUOUS
10
-263.745
20
 107.744
30
  25.903
11
-263.994
21
 101.144
31
  25.312
39
 0
62
 5
 0
LINE
8
default
6
CONTINUOUS
10
 263.994
20
 101.144
30
  25.312
11
 264.213
21
  94.718
31
  24.796
39
 0
62
 5
 0
LINE
8
default
6
CONTINUOUS
10
-263.994
20
 101.144
30
  25.312
11
-264.213
21
  94.718
31
  24.796
39
 0
62
 5
 0
LINE
8
default
6
CONTINUOUS
10
 264.213
20
  94.718
30
  24.796
11
 264.397
21
  88.477
31
  24.359
39
 0
62
 5
 0
LINE
8
default
6
CONTINUOUS
10
-264.213
20
  94.718
30
  24.796
11
-264.397
21
  88.477
31
  24.359
39
 0
62
 5
 0
LINE
8
default
6
CONTINUOUS
10
 264.397
20
  88.477
30
  24.359
11
 264.548
21
  82.438
31
  24.003
39
 0
62
 5
 0
LINE
8
default
6
CONTINUOUS
10
-264.397
20
  88.477
30
  24.359
11
-264.548
21
  82.438
31
  24.003
39
 0
62
 5
 0
LINE
8
default
6
CONTINUOUS
10
 264.548
20
  82.438
30
  24.003
11
 264.650
21
  76.609
31
  23.760
39
 0
62
 5
 0
LINE
8
default
6
CONTINUOUS
10
-264.548
20
  82.438
30
  24.003
11
-264.650
21
  76.609
31
  23.760
39
 0
62
 5
 0
LINE
8
default
6
CONTINUOUS
10
 264.650
20
  76.609
30
  23.760
11
 264.693
21
  71.008
31
  23.660
39
 0
62
 5
 0
LINE
8
default
6
CONTINUOUS
10
-264.650
20
  76.609
30
  23.760
11
-264.693
21
  71.008
31
  23.660
39
 0
62
 5
 0
LINE
8
default
6
CONTINUOUS
10
 264.693
20
  71.008
30
  23.660
11
 264.662
21
  65.639
31
  23.733
39
 0
62
 5
 0
LINE
8
default
6
CONTINUOUS
10
-264.693
20
  71.008
30
  23.660
11
-264.662
21
  65.639
31
  23.733
39
 0
62
 5
 0
LINE
8
default
6
CONTINUOUS
10
 264.662
20
  65.639
30
  23.733
11
 264.547
21
  60.520
31
  24.004
39
 0
62
 5
 0
LINE
8
default
6
CONTINUOUS
10
-264.662
20
  65.639
30
  23.733
11
-264.547
21
  60.520
31
  24.004
39
 0
62
 5
 0
LINE
8
default
6
CONTINUOUS
10
 264.547
20
  60.520
30
  24.004
11
 264.342
21
  55.654
31
  24.489
39
 0
62
 5
 0
LINE
8
default
6
CONTINUOUS
10
-264.547
20
  60.520
30
  24.004
11
-264.342
21
  55.654
31
  24.489
39
 0
62
 5
 0
LINE
8
default
6
CONTINUOUS
10
 264.342
20
  55.654
30
  24.489
11
 264.041
21
  51.058
31
  25.203
39
 0
62
 5
 0
LINE
8
default
6
CONTINUOUS
10
-264.342
20
  55.654
30
  24.489
11
-264.041
21
  51.058
31
  25.203
39
 0
62
 5
 0
LINE
8
default
6
CONTINUOUS
10
 264.041
20
  51.058
30
  25.203
11
 263.637
21
  46.737
31
  26.158
39
 0
62
 5
 0
LINE
8
default
6
CONTINUOUS
10
-264.041
20
  51.058
30
  25.203
11
-263.637
21
  46.737
31
  26.158
39
 0
62
 5
 0
LINE
8
default
6
CONTINUOUS
10
 263.637
20
  46.737
30
  26.158
11
 263.133
21
  42.707
31
  27.352
39
 0
62
 5
 0
LINE
8
default
6
CONTINUOUS
10
-263.637
20
  46.737
30
  26.158
11
-263.133
21
  42.707
31
  27.352
39
 0
62
 5
 0
LINE
8
default
6
CONTINUOUS
10
 263.133
20
  42.707
30
  27.352
11
 262.532
21
  38.975
31
  28.774
39
 0
62
 5
 0
LINE
8
default
6
CONTINUOUS
10
-263.133
20
  42.707
30
  27.352
11
-262.532
21
  38.975
31
  28.774
39
 0
62
 5
 0
LINE
8
default
6
CONTINUOUS
10
 262.532
20
  38.975
30
  28.774
11
 261.846
21
  35.549
31
  30.396
39
 0
62
 5
 0
LINE
8
default
6
CONTINUOUS
10
-262.532
20
  38.975
30
  28.774
11
-261.846
21
  35.549
31
  30.396
39
 0
62
 5
 0
LINE
8
default
6
CONTINUOUS
10
 261.846
20
  35.549
30
  30.396
11
 261.090
21
  32.446
31
  32.186
39
 0
62
 5
 0
LINE
8
default
6
CONTINUOUS
10
-261.846
20
  35.549
30
  30.396
11
-261.090
21
  32.446
31
  32.186
39
 0
62
 5
 0
LINE
8
default
6
CONTINUOUS
10
 261.090
20
  32.446
30
  32.186
11
 260.277
21
  29.669
31
  34.110
39
 0
62
 5
 0
LINE
8
default
6
CONTINUOUS
10
-261.090
20
  32.446
30
  32.186
11
-260.277
21
  29.669
31
  34.110
39
 0
62
 5
 0
LINE
8
default
6
CONTINUOUS
10
 260.277
20
  29.669
30
  34.110
11
 259.426
21
  27.229
31
  36.124
39
 0
62
 5
 0
LINE
8
default
6
CONTINUOUS
10
-260.277
20
  29.669
30
  34.110
11
-259.426
21
  27.229
31
  36.124
39
 0
62
 5
 0
LINE
8
default
6
CONTINUOUS
10
 259.426
20
  27.229
30
  36.124
11
 258.549
21
  25.136
31
  38.199
39
 0
62
 5
 0
LINE
8
default
6
CONTINUOUS
10
-259.426
20
  27.229
30
  36.124
11
-258.549
21
  25.136
31
  38.199
39
 0
62
 5
 0
LINE
8
default
6
CONTINUOUS
10
 258.549
20
  25.136
30
  38.199
11
 257.652
21
  23.398
31
  40.322
39
 0
62
 5
 0
LINE
8
default
6
CONTINUOUS
10
-258.549
20
  25.136
30
  38.199
11
-257.652
21
  23.398
31
  40.322
39
 0
62
 5
 0
LINE
8
default
6
CONTINUOUS
10
 257.652
20
  23.398
30
  40.322
11
 256.785
21
  22.029
31
  42.375
39
 0
62
 5
 0
LINE
8
default
6
CONTINUOUS
10
-257.652
20
  23.398
30
  40.322
11
-256.785
21
  22.029
31
  42.375
39
 0
62
 5
 0
LINE
8
default
6
CONTINUOUS
10
 256.785
20
  22.029
30
  42.375
11
 255.801
21
  21.031
31
  44.704
39
 0
62
 5
 0
LINE
8
default
6
CONTINUOUS
10
-256.785
20
  22.029
30
  42.375
11
-255.801
21
  21.031
31
  44.704
39
 0
62
 5
 0
LINE
8
default
6
CONTINUOUS
10
 255.801
20
  21.031
30
  44.704
11
 254.949
21
  20.419
31
  46.720
39
 0
62
 5
 0
LINE
8
default
6
CONTINUOUS
10
-255.801
20
  21.031
30
  44.704
11
-254.949
21
  20.419
31
  46.720
39
 0
62
 5
 0
LINE
8
default
6
CONTINUOUS
10
 254.949
20
  20.419
30
  46.720
11
 253.940
21
  20.193
31
  49.107
39
 0
62
 5
 0
LINE
8
default
6
CONTINUOUS
10
-254.949
20
  20.419
30
  46.720
11
-253.940
21
  20.193
31
  49.107
39
 0
62
 5
 0
LINE
8
default
6
CONTINUOUS
10
 253.940
20
  20.193
30
  49.107
11
 253.305
21
  20.379
31
  50.611
39
 0
62
 5
 0
LINE
8
default
6
CONTINUOUS
10
-253.940
20
  20.193
30
  49.107
11
-253.305
21
  20.379
31
  50.611
39
 0
62
 5
 0
LINE
8
default
6
CONTINUOUS
10
 253.305
20
  20.379
30
  50.611
11
 252.688
21
  20.956
31
  52.071
39
 0
62
 5
 0
LINE
8
default
6
CONTINUOUS
10
-253.305
20
  20.379
30
  50.611
11
-252.688
21
  20.956
31
  52.071
39
 0
62
 5
 0
LINE
8
default
6
CONTINUOUS
10
 252.688
20
  20.956
30
  52.071
11
 252.165
21
  21.916
31
  53.309
39
 0
62
 5
 0
LINE
8
default
6
CONTINUOUS
10
-252.688
20
  20.956
30
  52.071
11
-252.165
21
  21.916
31
  53.309
39
 0
62
 5
 0
LINE
8
default
6
CONTINUOUS
10
 252.165
20
  21.916
30
  53.309
11
 251.600
21
  23.211
31
  54.646
39
 0
62
 5
 0
LINE
8
default
6
CONTINUOUS
10
-252.165
20
  21.916
30
  53.309
11
-251.600
21
  23.211
31
  54.646
39
 0
62
 5
 0
LINE
8
default
6
CONTINUOUS
10
 251.600
20
  23.211
30
  54.646
11
 251.582
21
  23.251
31
  54.687
39
 0
62
 1
 0
LINE
8
default
6
CONTINUOUS
10
-251.600
20
  23.211
30
  54.646
11
-251.582
21
  23.251
31
  54.687
39
 0
62
 1
 0
LINE
8
default
6
CONTINUOUS
10
 251.582
20
  23.251
30
  54.687
11
 251.085
21
  24.954
31
  55.864
39
 0
62
 1
 0
LINE
8
default
6
CONTINUOUS
10
-251.582
20
  23.251
30
  54.687
11
-251.085
21
  24.954
31
  55.864
39
 0
62
 1
 0
LINE
8
default
6
CONTINUOUS
10
 251.085
20
  24.954
30
  55.864
11
 250.556
21
  27.011
31
  57.117
39
 0
62
 1
 0
LINE
8
default
6
CONTINUOUS
10
-251.085
20
  24.954
30
  55.864
11
-250.556
21
  27.011
31
  57.117
39
 0
62
 1
 0
LINE
8
default
6
CONTINUOUS
10
 250.556
20
  27.011
30
  57.117
11
 250.061
21
  29.420
31
  58.288
39
 0
62
 1
 0
LINE
8
default
6
CONTINUOUS
10
-250.556
20
  27.011
30
  57.117
11
-250.061
21
  29.420
31
  58.288
39
 0
62
 1
 0
LINE
8
default
6
CONTINUOUS
10
 250.061
20
  29.420
30
  58.288
11
 249.580
21
  32.166
31
  59.426
39
 0
62
 1
 0
LINE
8
default
6
CONTINUOUS
10
-250.061
20
  29.420
30
  58.288
11
-249.580
21
  32.166
31
  59.426
39
 0
62
 1
 0
LINE
8
default
6
CONTINUOUS
10
 249.580
20
  32.166
30
  59.426
11
 249.281
21
  34.156
31
  60.133
39
 0
62
 1
 0
LINE
8
default
6
CONTINUOUS
10
-249.580
20
  32.166
30
  59.426
11
-249.281
21
  34.156
31
  60.133
39
 0
62
 1
 0
LINE
8
default
6
CONTINUOUS
10
 249.281
20
  34.156
30
  60.133
11
 249.118
21
  35.242
31
  60.519
39
 0
62
 3
 0
LINE
8
default
6
CONTINUOUS
10
-249.281
20
  34.156
30
  60.133
11
-249.118
21
  35.242
31
  60.519
39
 0
62
 3
 0
LINE
8
default
6
CONTINUOUS
10
 249.118
20
  35.242
30
  60.519
11
 248.684
21
  38.639
31
  61.546
39
 0
62
 3
 0
LINE
8
default
6
CONTINUOUS
10
-249.118
20
  35.242
30
  60.519
11
-248.684
21
  38.639
31
  61.546
39
 0
62
 3
 0
LINE
8
default
6
CONTINUOUS
10
 248.684
20
  38.639
30
  61.546
11
 248.283
21
  42.346
31
  62.496
39
 0
62
 3
 0
LINE
8
default
6
CONTINUOUS
10
-248.684
20
  38.639
30
  61.546
11
-248.283
21
  42.346
31
  62.496
39
 0
62
 3
 0
LINE
8
default
6
CONTINUOUS
10
 248.283
20
  42.346
30
  62.496
11
 247.920
21
  46.358
31
  63.354
39
 0
62
 3
 0
LINE
8
default
6
CONTINUOUS
10
-248.283
20
  42.346
30
  62.496
11
-247.920
21
  46.358
31
  63.354
39
 0
62
 3
 0
LINE
8
default
6
CONTINUOUS
10
 247.920
20
  46.358
30
  63.354
11
 247.601
21
  50.657
31
  64.109
39
 0
62
 3
 0
LINE
8
default
6
CONTINUOUS
10
-247.920
20
  46.358
30
  63.354
11
-247.601
21
  50.657
31
  64.109
39
 0
62
 3
 0
LINE
8
default
6
CONTINUOUS
10
 247.601
20
  50.657
30
  64.109
11
 247.329
21
  55.242
31
  64.754
39
 0
62
 3
 0
LINE
8
default
6
CONTINUOUS
10
-247.601
20
  50.657
30
  64.109
11
-247.329
21
  55.242
31
  64.754
39
 0
62
 3
 0
LINE
8
default
6
CONTINUOUS
10
 247.329
20
  55.242
30
  64.754
11
 247.107
21
  60.095
31
  65.280
39
 0
62
 3
 0
LINE
8
default
6
CONTINUOUS
10
-247.329
20
  55.242
30
  64.754
11
-247.107
21
  60.095
31
  65.280
39
 0
62
 3
 0
LINE
8
default
6
CONTINUOUS
10
 247.107
20
  60.095
30
  65.280
11
 246.934
21
  65.211
31
  65.687
39
 0
62
 3
 0
LINE
8
default
6
CONTINUOUS
10
-247.107
20
  60.095
30
  65.280
11
-246.934
21
  65.211
31
  65.687
39
 0
62
 3
 0
LINE
8
default
6
CONTINUOUS
10
 246.934
20
  65.211
30
  65.687
11
 246.812
21
  70.574
31
  65.976
39
 0
62
 3
 0
LINE
8
default
6
CONTINUOUS
10
-246.934
20
  65.211
30
  65.687
11
-246.812
21
  70.574
31
  65.976
39
 0
62
 3
 0
LINE
8
default
6
CONTINUOUS
10
 246.812
20
  70.574
30
  65.976
11
 246.740
21
  76.177
31
  66.147
39
 0
62
 3
 0
LINE
8
default
6
CONTINUOUS
10
-246.812
20
  70.574
30
  65.976
11
-246.740
21
  76.177
31
  66.147
39
 0
62
 3
 0
LINE
8
default
6
CONTINUOUS
10
 246.740
20
  76.177
30
  66.147
11
 246.713
21
  82.005
31
  66.211
39
 0
62
 3
 0
LINE
8
default
6
CONTINUOUS
10
-246.740
20
  76.177
30
  66.147
11
-246.713
21
  82.005
31
  66.211
39
 0
62
 3
 0
LINE
8
default
6
CONTINUOUS
10
 246.713
20
  82.005
30
  66.211
11
 246.728
21
  88.048
31
  66.175
39
 0
62
 3
 0
LINE
8
default
6
CONTINUOUS
10
-246.713
20
  82.005
30
  66.211
11
-246.728
21
  88.048
31
  66.175
39
 0
62
 3
 0
LINE
8
default
6
CONTINUOUS
10
 246.728
20
  88.048
30
  66.175
11
 246.784
21
  94.291
31
  66.043
39
 0
62
 3
 0
LINE
8
default
6
CONTINUOUS
10
-246.728
20
  88.048
30
  66.175
11
-246.784
21
  94.291
31
  66.043
39
 0
62
 3
 0
LINE
8
default
6
CONTINUOUS
10
 246.784
20
  94.291
30
  66.043
11
 246.877
21
 100.727
31
  65.822
39
 0
62
 3
 0
LINE
8
default
6
CONTINUOUS
10
-246.784
20
  94.291
30
  66.043
11
-246.877
21
 100.727
31
  65.822
39
 0
62
 3
 0
LINE
8
default
6
CONTINUOUS
10
 246.877
20
 100.727
30
  65.822
11
 247.005
21
 107.337
31
  65.520
39
 0
62
 3
 0
LINE
8
default
6
CONTINUOUS
10
-246.877
20
 100.727
30
  65.822
11
-247.005
21
 107.337
31
  65.520
39
 0
62
 3
 0
LINE
8
default
6
CONTINUOUS
10
 247.005
20
 107.337
30
  65.520
11
 247.166
21
 114.110
31
  65.139
39
 0
62
 3
 0
LINE
8
default
6
CONTINUOUS
10
-247.005
20
 107.337
30
  65.520
11
-247.166
21
 114.110
31
  65.139
39
 0
62
 3
 0
LINE
8
default
6
CONTINUOUS
10
 247.166
20
 114.110
30
  65.139
11
 247.354
21
 121.034
31
  64.694
39
 0
62
 3
 0
LINE
8
default
6
CONTINUOUS
10
-247.166
20
 114.110
30
  65.139
11
-247.354
21
 121.034
31
  64.694
39
 0
62
 3
 0
LINE
8
default
6
CONTINUOUS
10
 247.354
20
 121.034
30
  64.694
11
 247.570
21
 128.091
31
  64.183
39
 0
62
 3
 0
LINE
8
default
6
CONTINUOUS
10
-247.354
20
 121.034
30
  64.694
11
-247.570
21
 128.091
31
  64.183
39
 0
62
 3
 0
LINE
8
default
6
CONTINUOUS
10
 247.570
20
 128.091
30
  64.183
11
 247.808
21
 135.267
31
  63.620
39
 0
62
 3
 0
LINE
8
default
6
CONTINUOUS
10
-247.570
20
 128.091
30
  64.183
11
-247.808
21
 135.267
31
  63.620
39
 0
62
 3
 0
LINE
8
default
6
CONTINUOUS
10
 247.808
20
 135.267
30
  63.620
11
 248.063
21
 142.547
31
  63.017
39
 0
62
 3
 0
LINE
8
default
6
CONTINUOUS
10
-247.808
20
 135.267
30
  63.620
11
-248.063
21
 142.547
31
  63.017
39
 0
62
 3
 0
LINE
8
default
6
CONTINUOUS
10
 248.063
20
 142.547
30
  63.017
11
 248.335
21
 149.913
31
  62.372
39
 0
62
 3
 0
LINE
8
default
6
CONTINUOUS
10
-248.063
20
 142.547
30
  63.017
11
-248.335
21
 149.913
31
  62.372
39
 0
62
 3
 0
LINE
8
default
6
CONTINUOUS
10
 248.335
20
 149.913
30
  62.372
11
 248.629
21
 157.353
31
  61.676
39
 0
62
 3
 0
LINE
8
default
6
CONTINUOUS
10
-248.335
20
 149.913
30
  62.372
11
-248.629
21
 157.353
31
  61.676
39
 0
62
 3
 0
LINE
8
default
6
CONTINUOUS
10
 248.629
20
 157.353
30
  61.676
11
 248.942
21
 164.842
31
  60.936
39
 0
62
 3
 0
LINE
8
default
6
CONTINUOUS
10
-248.629
20
 157.353
30
  61.676
11
-248.942
21
 164.842
31
  60.936
39
 0
62
 3
 0
LINE
8
default
6
CONTINUOUS
10
 248.942
20
 164.842
30
  60.936
11
 249.268
21
 172.367
31
  60.165
39
 0
62
 3
 0
LINE
8
default
6
CONTINUOUS
10
-248.942
20
 164.842
30
  60.936
11
-249.268
21
 172.367
31
  60.165
39
 0
62
 3
 0
LINE
8
default
6
CONTINUOUS
10
 249.268
20
 172.367
30
  60.165
11
 249.601
21
 179.905
31
  59.376
39
 0
62
 3
 0
LINE
8
default
6
CONTINUOUS
10
-249.268
20
 172.367
30
  60.165
11
-249.601
21
 179.905
31
  59.376
39
 0
62
 3
 0
LINE
8
default
6
CONTINUOUS
10
 249.601
20
 179.905
30
  59.376
11
 249.937
21
 187.436
31
  58.582
39
 0
62
 3
 0
LINE
8
default
6
CONTINUOUS
10
-249.601
20
 179.905
30
  59.376
11
-249.937
21
 187.436
31
  58.582
39
 0
62
 3
 0
LINE
8
default
6
CONTINUOUS
10
 249.937
20
 187.436
30
  58.582
11
 250.268
21
 194.938
31
  57.797
39
 0
62
 3
 0
LINE
8
default
6
CONTINUOUS
10
-249.937
20
 187.436
30
  58.582
11
-250.268
21
 194.938
31
  57.797
39
 0
62
 3
 0
LINE
8
default
6
CONTINUOUS
10
 250.268
20
 194.938
30
  57.797
11
 250.590
21
 202.387
31
  57.035
39
 0
62
 3
 0
LINE
8
default
6
CONTINUOUS
10
-250.268
20
 194.938
30
  57.797
11
-250.590
21
 202.387
31
  57.035
39
 0
62
 3
 0
LINE
8
default
6
CONTINUOUS
10
 250.590
20
 202.387
30
  57.035
11
 250.896
21
 209.753
31
  56.310
39
 0
62
 3
 0
LINE
8
default
6
CONTINUOUS
10
-250.590
20
 202.387
30
  57.035
11
-250.896
21
 209.753
31
  56.310
39
 0
62
 3
 0
LINE
8
default
6
CONTINUOUS
10
 250.896
20
 209.753
30
  56.310
11
 251.183
21
 217.014
31
  55.632
39
 0
62
 3
 0
LINE
8
default
6
CONTINUOUS
10
-250.896
20
 209.753
30
  56.310
11
-251.183
21
 217.014
31
  55.632
39
 0
62
 3
 0
LINE
8
default
6
CONTINUOUS
10
 251.183
20
 217.014
30
  55.632
11
 251.447
21
 224.136
31
  55.007
39
 0
62
 3
 0
LINE
8
default
6
CONTINUOUS
10
-251.183
20
 217.014
30
  55.632
11
-251.447
21
 224.136
31
  55.007
39
 0
62
 3
 0
LINE
8
default
6
CONTINUOUS
10
 251.447
20
 224.136
30
  55.007
11
 251.689
21
 231.087
31
  54.434
39
 0
62
 3
 0
LINE
8
default
6
CONTINUOUS
10
-251.447
20
 224.136
30
  55.007
11
-251.689
21
 231.087
31
  54.434
39
 0
62
 3
 0
LINE
8
default
6
CONTINUOUS
10
 251.689
20
 231.087
30
  54.434
11
 251.909
21
 237.827
31
  53.914
39
 0
62
 3
 0
LINE
8
default
6
CONTINUOUS
10
-251.689
20
 231.087
30
  54.434
11
-251.909
21
 237.827
31
  53.914
39
 0
62
 3
 0
LINE
8
default
6
CONTINUOUS
10
 251.909
20
 237.827
30
  53.914
11
 252.112
21
 244.314
31
  53.435
39
 0
62
 3
 0
LINE
8
default
6
CONTINUOUS
10
-251.909
20
 237.827
30
  53.914
11
-252.112
21
 244.314
31
  53.435
39
 0
62
 3
 0
LINE
8
default
6
CONTINUOUS
10
 252.112
20
 244.314
30
  53.435
11
 252.300
21
 250.496
31
  52.988
39
 0
62
 3
 0
LINE
8
default
6
CONTINUOUS
10
-252.112
20
 244.314
30
  53.435
11
-252.300
21
 250.496
31
  52.988
39
 0
62
 3
 0
LINE
8
default
6
CONTINUOUS
10
 252.300
20
 250.496
30
  52.988
11
 252.476
21
 256.318
31
  52.572
39
 0
62
 3
 0
LINE
8
default
6
CONTINUOUS
10
-252.300
20
 250.496
30
  52.988
11
-252.476
21
 256.318
31
  52.572
39
 0
62
 3
 0
LINE
8
default
6
CONTINUOUS
10
 252.476
20
 256.318
30
  52.572
11
 252.640
21
 261.704
31
  52.185
39
 0
62
 3
 0
LINE
8
default
6
CONTINUOUS
10
-252.476
20
 256.318
30
  52.572
11
-252.640
21
 261.704
31
  52.185
39
 0
62
 3
 0
LINE
8
default
6
CONTINUOUS
10
 252.640
20
 261.704
30
  52.185
11
 252.791
21
 266.559
31
  51.827
39
 0
62
 3
 0
LINE
8
default
6
CONTINUOUS
10
-252.640
20
 261.704
30
  52.185
11
-252.791
21
 266.559
31
  51.827
39
 0
62
 3
 0
LINE
8
default
6
CONTINUOUS
10
 252.791
20
 266.559
30
  51.827
11
 252.926
21
 270.748
31
  51.506
39
 0
62
 3
 0
LINE
8
default
6
CONTINUOUS
10
-252.791
20
 266.559
30
  51.827
11
-252.926
21
 270.748
31
  51.506
39
 0
62
 3
 0
LINE
8
default
6
CONTINUOUS
10
 252.926
20
 270.748
30
  51.506
11
 253.037
21
 274.051
31
  51.244
39
 0
62
 3
 0
LINE
8
default
6
CONTINUOUS
10
-252.926
20
 270.748
30
  51.506
11
-253.037
21
 274.051
31
  51.244
39
 0
62
 3
 0
LINE
8
default
6
CONTINUOUS
10
 253.037
20
 274.051
30
  51.244
11
 253.100
21
 275.894
31
  51.096
39
 0
62
 3
 0
LINE
8
default
6
CONTINUOUS
10
-253.037
20
 274.051
30
  51.244
11
-253.100
21
 275.894
31
  51.096
39
 0
62
 3
 0
LINE
8
default
6
CONTINUOUS
10
 288.970
20
 272.039
30
  68.007
11
 289.147
21
 270.285
31
  67.655
39
 0
62
 5
 0
LINE
8
default
6
CONTINUOUS
10
-288.970
20
 272.039
30
  68.007
11
-289.147
21
 270.285
31
  67.655
39
 0
62
 5
 0
LINE
8
default
6
CONTINUOUS
10
 289.147
20
 270.285
30
  67.655
11
 289.461
21
 267.136
31
  67.027
39
 0
62
 5
 0
LINE
8
default
6
CONTINUOUS
10
-289.147
20
 270.285
30
  67.655
11
-289.461
21
 267.136
31
  67.027
39
 0
62
 5
 0
LINE
8
default
6
CONTINUOUS
10
 289.461
20
 267.136
30
  67.027
11
 289.852
21
 263.143
31
  66.247
39
 0
62
 5
 0
LINE
8
default
6
CONTINUOUS
10
-289.461
20
 267.136
30
  67.027
11
-289.852
21
 263.143
31
  66.247
39
 0
62
 5
 0
LINE
8
default
6
CONTINUOUS
10
 289.852
20
 263.143
30
  66.247
11
 290.295
21
 258.517
31
  65.362
39
 0
62
 5
 0
LINE
8
default
6
CONTINUOUS
10
-289.852
20
 263.143
30
  66.247
11
-290.295
21
 258.517
31
  65.362
39
 0
62
 5
 0
LINE
8
default
6
CONTINUOUS
10
 290.295
20
 258.517
30
  65.362
11
 290.776
21
 253.384
31
  64.402
39
 0
62
 5
 0
LINE
8
default
6
CONTINUOUS
10
-290.295
20
 258.517
30
  65.362
11
-290.776
21
 253.384
31
  64.402
39
 0
62
 5
 0
LINE
8
default
6
CONTINUOUS
10
 290.776
20
 253.384
30
  64.402
11
 291.284
21
 247.835
31
  63.387
39
 0
62
 5
 0
LINE
8
default
6
CONTINUOUS
10
-290.776
20
 253.384
30
  64.402
11
-291.284
21
 247.835
31
  63.387
39
 0
62
 5
 0
LINE
8
default
6
CONTINUOUS
10
 291.284
20
 247.835
30
  63.387
11
 291.810
21
 241.940
31
  62.335
39
 0
62
 5
 0
LINE
8
default
6
CONTINUOUS
10
-291.284
20
 247.835
30
  63.387
11
-291.810
21
 241.940
31
  62.335
39
 0
62
 5
 0
LINE
8
default
6
CONTINUOUS
10
 291.810
20
 241.940
30
  62.335
11
 292.350
21
 235.757
31
  61.257
39
 0
62
 5
 0
LINE
8
default
6
CONTINUOUS
10
-291.810
20
 241.940
30
  62.335
11
-292.350
21
 235.757
31
  61.257
39
 0
62
 5
 0
LINE
8
default
6
CONTINUOUS
10
 292.350
20
 235.757
30
  61.257
11
 292.898
21
 229.331
31
  60.163
39
 0
62
 5
 0
LINE
8
default
6
CONTINUOUS
10
-292.350
20
 235.757
30
  61.257
11
-292.898
21
 229.331
31
  60.163
39
 0
62
 5
 0
LINE
8
default
6
CONTINUOUS
10
 292.898
20
 229.331
30
  60.163
11
 293.450
21
 222.705
31
  59.061
39
 0
62
 5
 0
LINE
8
default
6
CONTINUOUS
10
-292.898
20
 229.331
30
  60.163
11
-293.450
21
 222.705
31
  59.061
39
 0
62
 5
 0
LINE
8
default
6
CONTINUOUS
10
 293.450
20
 222.705
30
  59.061
11
 294.003
21
 215.916
31
  57.956
39
 0
62
 5
 0
LINE
8
default
6
CONTINUOUS
10
-293.450
20
 222.705
30
  59.061
11
-294.003
21
 215.916
31
  57.956
39
 0
62
 5
 0
LINE
8
default
6
CONTINUOUS
10
 294.003
20
 215.916
30
  57.956
11
 294.554
21
 208.994
31
  56.855
39
 0
62
 5
 0
LINE
8
default
6
CONTINUOUS
10
-294.003
20
 215.916
30
  57.956
11
-294.554
21
 208.994
31
  56.855
39
 0
62
 5
 0
LINE
8
default
6
CONTINUOUS
10
 294.554
20
 208.994
30
  56.855
11
 295.100
21
 201.970
31
  55.766
39
 0
62
 5
 0
LINE
8
default
6
CONTINUOUS
10
-294.554
20
 208.994
30
  56.855
11
-295.100
21
 201.970
31
  55.766
39
 0
62
 5
 0
LINE
8
default
6
CONTINUOUS
10
 295.100
20
 201.970
30
  55.766
11
 295.639
21
 194.869
31
  54.689
39
 0
62
 5
 0
LINE
8
default
6
CONTINUOUS
10
-295.100
20
 201.970
30
  55.766
11
-295.639
21
 194.869
31
  54.689
39
 0
62
 5
 0
LINE
8
default
6
CONTINUOUS
10
 295.639
20
 194.869
30
  54.689
11
 296.168
21
 187.717
31
  53.632
39
 0
62
 5
 0
LINE
8
default
6
CONTINUOUS
10
-295.639
20
 194.869
30
  54.689
11
-296.168
21
 187.717
31
  53.632
39
 0
62
 5
 0
LINE
8
default
6
CONTINUOUS
10
 296.168
20
 187.717
30
  53.632
11
 296.687
21
 180.537
31
  52.596
39
 0
62
 5
 0
LINE
8
default
6
CONTINUOUS
10
-296.168
20
 187.717
30
  53.632
11
-296.687
21
 180.537
31
  52.596
39
 0
62
 5
 0
LINE
8
default
6
CONTINUOUS
10
 296.687
20
 180.537
30
  52.596
11
 297.195
21
 173.348
31
  51.581
39
 0
62
 5
 0
LINE
8
default
6
CONTINUOUS
10
-296.687
20
 180.537
30
  52.596
11
-297.195
21
 173.348
31
  51.581
39
 0
62
 5
 0
LINE
8
default
6
CONTINUOUS
10
 297.195
20
 173.348
30
  51.581
11
 297.687
21
 166.173
31
  50.598
39
 0
62
 5
 0
LINE
8
default
6
CONTINUOUS
10
-297.195
20
 173.348
30
  51.581
11
-297.687
21
 166.173
31
  50.598
39
 0
62
 5
 0
LINE
8
default
6
CONTINUOUS
10
 297.687
20
 166.173
30
  50.598
11
 298.163
21
 159.029
31
  49.647
39
 0
62
 5
 0
LINE
8
default
6
CONTINUOUS
10
-297.687
20
 166.173
30
  50.598
11
-298.163
21
 159.029
31
  49.647
39
 0
62
 5
 0
LINE
8
default
6
CONTINUOUS
10
 298.163
20
 159.029
30
  49.647
11
 298.621
21
 151.936
31
  48.732
39
 0
62
 5
 0
LINE
8
default
6
CONTINUOUS
10
-298.163
20
 159.029
30
  49.647
11
-298.621
21
 151.936
31
  48.732
39
 0
62
 5
 0
LINE
8
default
6
CONTINUOUS
10
 298.621
20
 151.936
30
  48.732
11
 299.061
21
 144.909
31
  47.855
39
 0
62
 5
 0
LINE
8
default
6
CONTINUOUS
10
-298.621
20
 151.936
30
  48.732
11
-299.061
21
 144.909
31
  47.855
39
 0
62
 5
 0
LINE
8
default
6
CONTINUOUS
10
 299.061
20
 144.909
30
  47.855
11
 299.480
21
 137.962
31
  47.018
39
 0
62
 5
 0
LINE
8
default
6
CONTINUOUS
10
-299.061
20
 144.909
30
  47.855
11
-299.480
21
 137.962
31
  47.018
39
 0
62
 5
 0
LINE
8
default
6
CONTINUOUS
10
 299.480
20
 137.962
30
  47.018
11
 299.875
21
 131.117
31
  46.229
39
 0
62
 5
 0
LINE
8
default
6
CONTINUOUS
10
-299.480
20
 137.962
30
  47.018
11
-299.875
21
 131.117
31
  46.229
39
 0
62
 5
 0
LINE
8
default
6
CONTINUOUS
10
 299.875
20
 131.117
30
  46.229
11
 300.245
21
 124.381
31
  45.490
39
 0
62
 5
 0
LINE
8
default
6
CONTINUOUS
10
-299.875
20
 131.117
30
  46.229
11
-300.245
21
 124.381
31
  45.490
39
 0
62
 5
 0
LINE
8
default
6
CONTINUOUS
10
 300.245
20
 124.381
30
  45.490
11
 300.588
21
 117.774
31
  44.805
39
 0
62
 5
 0
LINE
8
default
6
CONTINUOUS
10
-300.245
20
 124.381
30
  45.490
11
-300.588
21
 117.774
31
  44.805
39
 0
62
 5
 0
LINE
8
default
6
CONTINUOUS
10
 300.588
20
 117.774
30
  44.805
11
 300.901
21
 111.309
31
  44.179
39
 0
62
 5
 0
LINE
8
default
6
CONTINUOUS
10
-300.588
20
 117.774
30
  44.805
11
-300.901
21
 111.309
31
  44.179
39
 0
62
 5
 0
LINE
8
default
6
CONTINUOUS
10
 300.901
20
 111.309
30
  44.179
11
 301.185
21
 104.999
31
  43.613
39
 0
62
 5
 0
LINE
8
default
6
CONTINUOUS
10
-300.901
20
 111.309
30
  44.179
11
-301.185
21
 104.999
31
  43.613
39
 0
62
 5
 0
LINE
8
default
6
CONTINUOUS
10
 301.185
20
 104.999
30
  43.613
11
 301.433
21
  98.854
31
  43.117
39
 0
62
 5
 0
LINE
8
default
6
CONTINUOUS
10
-301.185
20
 104.999
30
  43.613
11
-301.433
21
  98.854
31
  43.117
39
 0
62
 5
 0
LINE
8
default
6
CONTINUOUS
10
 301.433
20
  98.854
30
  43.117
11
 301.644
21
  92.888
31
  42.695
39
 0
62
 5
 0
LINE
8
default
6
CONTINUOUS
10
-301.433
20
  98.854
30
  43.117
11
-301.644
21
  92.888
31
  42.695
39
 0
62
 5
 0
LINE
8
default
6
CONTINUOUS
10
 301.644
20
  92.888
30
  42.695
11
 301.818
21
  87.113
31
  42.349
39
 0
62
 5
 0
LINE
8
default
6
CONTINUOUS
10
-301.644
20
  92.888
30
  42.695
11
-301.818
21
  87.113
31
  42.349
39
 0
62
 5
 0
LINE
8
default
6
CONTINUOUS
10
 301.818
20
  87.113
30
  42.349
11
 301.938
21
  81.540
31
  42.108
39
 0
62
 5
 0
LINE
8
default
6
CONTINUOUS
10
-301.818
20
  87.113
30
  42.349
11
-301.938
21
  81.540
31
  42.108
39
 0
62
 5
 0
LINE
8
default
6
CONTINUOUS
10
 301.938
20
  81.540
30
  42.108
11
 301.992
21
  76.183
31
  42.001
39
 0
62
 5
 0
LINE
8
default
6
CONTINUOUS
10
-301.938
20
  81.540
30
  42.108
11
-301.992
21
  76.183
31
  42.001
39
 0
62
 5
 0
LINE
8
default
6
CONTINUOUS
10
 301.992
20
  76.183
30
  42.001
11
 301.965
21
  71.049
31
  42.055
39
 0
62
 5
 0
LINE
8
default
6
CONTINUOUS
10
-301.992
20
  76.183
30
  42.001
11
-301.965
21
  71.049
31
  42.055
39
 0
62
 5
 0
LINE
8
default
6
CONTINUOUS
10
 301.965
20
  71.049
30
  42.055
11
 301.846
21
  66.152
31
  42.293
39
 0
62
 5
 0
LINE
8
default
6
CONTINUOUS
10
-301.965
20
  71.049
30
  42.055
11
-301.846
21
  66.152
31
  42.293
39
 0
62
 5
 0
LINE
8
default
6
CONTINUOUS
10
 301.846
20
  66.152
30
  42.293
11
 301.627
21
  61.497
31
  42.731
39
 0
62
 5
 0
LINE
8
default
6
CONTINUOUS
10
-301.846
20
  66.152
30
  42.293
11
-301.627
21
  61.497
31
  42.731
39
 0
62
 5
 0
LINE
8
default
6
CONTINUOUS
10
 301.627
20
  61.497
30
  42.731
11
 301.301
21
  57.099
31
  43.381
39
 0
62
 5
 0
LINE
8
default
6
CONTINUOUS
10
-301.627
20
  61.497
30
  42.731
11
-301.301
21
  57.099
31
  43.381
39
 0
62
 5
 0
LINE
8
default
6
CONTINUOUS
10
 301.301
20
  57.099
30
  43.381
11
 300.862
21
  52.964
31
  44.257
39
 0
62
 5
 0
LINE
8
default
6
CONTINUOUS
10
-301.301
20
  57.099
30
  43.381
11
-300.862
21
  52.964
31
  44.257
39
 0
62
 5
 0
LINE
8
default
6
CONTINUOUS
10
 300.862
20
  52.964
30
  44.257
11
 300.313
21
  49.105
31
  45.354
39
 0
62
 5
 0
LINE
8
default
6
CONTINUOUS
10
-300.862
20
  52.964
30
  44.257
11
-300.313
21
  49.105
31
  45.354
39
 0
62
 5
 0
LINE
8
default
6
CONTINUOUS
10
 300.313
20
  49.105
30
  45.354
11
 299.657
21
  45.532
31
  46.665
39
 0
62
 5
 0
LINE
8
default
6
CONTINUOUS
10
-300.313
20
  49.105
30
  45.354
11
-299.657
21
  45.532
31
  46.665
39
 0
62
 5
 0
LINE
8
default
6
CONTINUOUS
10
 299.657
20
  45.532
30
  46.665
11
 298.907
21
  42.251
31
  48.162
39
 0
62
 5
 0
LINE
8
default
6
CONTINUOUS
10
-299.657
20
  45.532
30
  46.665
11
-298.907
21
  42.251
31
  48.162
39
 0
62
 5
 0
LINE
8
default
6
CONTINUOUS
10
 298.907
20
  42.251
30
  48.162
11
 298.079
21
  39.278
31
  49.815
39
 0
62
 5
 0
LINE
8
default
6
CONTINUOUS
10
-298.907
20
  42.251
30
  48.162
11
-298.079
21
  39.278
31
  49.815
39
 0
62
 5
 0
LINE
8
default
6
CONTINUOUS
10
 298.079
20
  39.278
30
  49.815
11
 297.189
21
  36.616
31
  51.594
39
 0
62
 5
 0
LINE
8
default
6
CONTINUOUS
10
-298.079
20
  39.278
30
  49.815
11
-297.189
21
  36.616
31
  51.594
39
 0
62
 5
 0
LINE
8
default
6
CONTINUOUS
10
 297.189
20
  36.616
30
  51.594
11
 296.256
21
  34.276
31
  53.457
39
 0
62
 5
 0
LINE
8
default
6
CONTINUOUS
10
-297.189
20
  36.616
30
  51.594
11
-296.256
21
  34.276
31
  53.457
39
 0
62
 5
 0
LINE
8
default
6
CONTINUOUS
10
 296.256
20
  34.276
30
  53.457
11
 295.294
21
  32.268
31
  55.378
39
 0
62
 5
 0
LINE
8
default
6
CONTINUOUS
10
-296.256
20
  34.276
30
  53.457
11
-295.294
21
  32.268
31
  55.378
39
 0
62
 5
 0
LINE
8
default
6
CONTINUOUS
10
 295.294
20
  32.268
30
  55.378
11
 294.309
21
  30.599
31
  57.345
39
 0
62
 5
 0
LINE
8
default
6
CONTINUOUS
10
-295.294
20
  32.268
30
  55.378
11
-294.309
21
  30.599
31
  57.345
39
 0
62
 5
 0
LINE
8
default
6
CONTINUOUS
10
 294.309
20
  30.599
30
  57.345
11
 293.357
21
  29.283
31
  59.247
39
 0
62
 5
 0
LINE
8
default
6
CONTINUOUS
10
-294.309
20
  30.599
30
  57.345
11
-293.357
21
  29.283
31
  59.247
39
 0
62
 5
 0
LINE
8
default
6
CONTINUOUS
10
 293.357
20
  29.283
30
  59.247
11
 292.275
21
  28.321
31
  61.406
39
 0
62
 5
 0
LINE
8
default
6
CONTINUOUS
10
-293.357
20
  29.283
30
  59.247
11
-292.275
21
  28.321
31
  61.406
39
 0
62
 5
 0
LINE
8
default
6
CONTINUOUS
10
 292.275
20
  28.321
30
  61.406
11
 291.339
21
  27.730
31
  63.276
39
 0
62
 5
 0
LINE
8
default
6
CONTINUOUS
10
-292.275
20
  28.321
30
  61.406
11
-291.339
21
  27.730
31
  63.276
39
 0
62
 5
 0
LINE
8
default
6
CONTINUOUS
10
 291.339
20
  27.730
30
  63.276
11
 290.230
21
  27.505
31
  65.492
39
 0
62
 5
 0
LINE
8
default
6
CONTINUOUS
10
-291.339
20
  27.730
30
  63.276
11
-290.230
21
  27.505
31
  65.492
39
 0
62
 5
 0
LINE
8
default
6
CONTINUOUS
10
 290.230
20
  27.505
30
  65.492
11
 289.530
21
  27.678
31
  66.889
39
 0
62
 5
 0
LINE
8
default
6
CONTINUOUS
10
-290.230
20
  27.505
30
  65.492
11
-289.530
21
  27.678
31
  66.889
39
 0
62
 5
 0
LINE
8
default
6
CONTINUOUS
10
 289.530
20
  27.678
30
  66.889
11
 288.851
21
  28.226
31
  68.246
39
 0
62
 5
 0
LINE
8
default
6
CONTINUOUS
10
-289.530
20
  27.678
30
  66.889
11
-288.851
21
  28.226
31
  68.246
39
 0
62
 5
 0
LINE
8
default
6
CONTINUOUS
10
 288.851
20
  28.226
30
  68.246
11
 288.275
21
  29.140
31
  69.397
39
 0
62
 5
 0
LINE
8
default
6
CONTINUOUS
10
-288.851
20
  28.226
30
  68.246
11
-288.275
21
  29.140
31
  69.397
39
 0
62
 5
 0
LINE
8
default
6
CONTINUOUS
10
 288.275
20
  29.140
30
  69.397
11
 287.651
21
  30.374
31
  70.641
39
 0
62
 5
 0
LINE
8
default
6
CONTINUOUS
10
-288.275
20
  29.140
30
  69.397
11
-287.651
21
  30.374
31
  70.641
39
 0
62
 5
 0
LINE
8
default
6
CONTINUOUS
10
 287.651
20
  30.374
30
  70.641
11
 287.632
21
  30.413
31
  70.680
39
 0
62
 1
 0
LINE
8
default
6
CONTINUOUS
10
-287.651
20
  30.374
30
  70.641
11
-287.632
21
  30.413
31
  70.680
39
 0
62
 1
 0
LINE
8
default
6
CONTINUOUS
10
 287.632
20
  30.413
30
  70.680
11
 287.082
21
  32.037
31
  71.777
39
 0
62
 1
 0
LINE
8
default
6
CONTINUOUS
10
-287.632
20
  30.413
30
  70.680
11
-287.082
21
  32.037
31
  71.777
39
 0
62
 1
 0
LINE
8
default
6
CONTINUOUS
10
 287.082
20
  32.037
30
  71.777
11
 286.497
21
  34.001
31
  72.945
39
 0
62
 1
 0
LINE
8
default
6
CONTINUOUS
10
-287.082
20
  32.037
30
  71.777
11
-286.497
21
  34.001
31
  72.945
39
 0
62
 1
 0
LINE
8
default
6
CONTINUOUS
10
 286.497
20
  34.001
30
  72.945
11
 285.950
21
  36.300
31
  74.039
39
 0
62
 1
 0
LINE
8
default
6
CONTINUOUS
10
-286.497
20
  34.001
30
  72.945
11
-285.950
21
  36.300
31
  74.039
39
 0
62
 1
 0
LINE
8
default
6
CONTINUOUS
10
 285.950
20
  36.300
30
  74.039
11
 285.418
21
  38.923
31
  75.102
39
 0
62
 1
 0
LINE
8
default
6
CONTINUOUS
10
-285.950
20
  36.300
30
  74.039
11
-285.418
21
  38.923
31
  75.102
39
 0
62
 1
 0
LINE
8
default
6
CONTINUOUS
10
 285.418
20
  38.923
30
  75.102
11
 285.086
21
  40.824
31
  75.764
39
 0
62
 1
 0
LINE
8
default
6
CONTINUOUS
10
-285.418
20
  38.923
30
  75.102
11
-285.086
21
  40.824
31
  75.764
39
 0
62
 1
 0
LINE
8
default
6
CONTINUOUS
10
 285.086
20
  40.824
30
  75.764
11
 284.905
21
  41.862
31
  76.125
39
 0
62
 3
 0
LINE
8
default
6
CONTINUOUS
10
-285.086
20
  40.824
30
  75.764
11
-284.905
21
  41.862
31
  76.125
39
 0
62
 3
 0
LINE
8
default
6
CONTINUOUS
10
 284.905
20
  41.862
30
  76.125
11
 284.423
21
  45.107
31
  77.088
39
 0
62
 3
 0
LINE
8
default
6
CONTINUOUS
10
-284.905
20
  41.862
30
  76.125
11
-284.423
21
  45.107
31
  77.088
39
 0
62
 3
 0
LINE
8
default
6
CONTINUOUS
10
 284.423
20
  45.107
30
  77.088
11
 283.977
21
  48.649
31
  77.979
39
 0
62
 3
 0
LINE
8
default
6
CONTINUOUS
10
-284.423
20
  45.107
30
  77.088
11
-283.977
21
  48.649
31
  77.979
39
 0
62
 3
 0
LINE
8
default
6
CONTINUOUS
10
 283.977
20
  48.649
30
  77.979
11
 283.573
21
  52.483
31
  78.786
39
 0
62
 3
 0
LINE
8
default
6
CONTINUOUS
10
-283.977
20
  48.649
30
  77.979
11
-283.573
21
  52.483
31
  78.786
39
 0
62
 3
 0
LINE
8
default
6
CONTINUOUS
10
 283.573
20
  52.483
30
  78.786
11
 283.217
21
  56.592
31
  79.498
39
 0
62
 3
 0
LINE
8
default
6
CONTINUOUS
10
-283.573
20
  52.483
30
  78.786
11
-283.217
21
  56.592
31
  79.498
39
 0
62
 3
 0
LINE
8
default
6
CONTINUOUS
10
 283.217
20
  56.592
30
  79.498
11
 282.910
21
  60.975
31
  80.109
39
 0
62
 3
 0
LINE
8
default
6
CONTINUOUS
10
-283.217
20
  56.592
30
  79.498
11
-282.910
21
  60.975
31
  80.109
39
 0
62
 3
 0
LINE
8
default
6
CONTINUOUS
10
 282.910
20
  60.975
30
  80.109
11
 282.660
21
  65.615
31
  80.610
39
 0
62
 3
 0
LINE
8
default
6
CONTINUOUS
10
-282.910
20
  60.975
30
  80.109
11
-282.660
21
  65.615
31
  80.610
39
 0
62
 3
 0
LINE
8
default
6
CONTINUOUS
10
 282.660
20
  65.615
30
  80.610
11
 282.464
21
  70.506
31
  81.001
39
 0
62
 3
 0
LINE
8
default
6
CONTINUOUS
10
-282.660
20
  65.615
30
  80.610
11
-282.464
21
  70.506
31
  81.001
39
 0
62
 3
 0
LINE
8
default
6
CONTINUOUS
10
 282.464
20
  70.506
30
  81.001
11
 282.322
21
  75.633
31
  81.284
39
 0
62
 3
 0
LINE
8
default
6
CONTINUOUS
10
-282.464
20
  70.506
30
  81.001
11
-282.322
21
  75.633
31
  81.284
39
 0
62
 3
 0
LINE
8
default
6
CONTINUOUS
10
 282.322
20
  75.633
30
  81.284
11
 282.236
21
  80.992
31
  81.457
39
 0
62
 3
 0
LINE
8
default
6
CONTINUOUS
10
-282.322
20
  75.633
30
  81.284
11
-282.236
21
  80.992
31
  81.457
39
 0
62
 3
 0
LINE
8
default
6
CONTINUOUS
10
 282.236
20
  80.992
30
  81.457
11
 282.198
21
  86.565
31
  81.532
39
 0
62
 3
 0
LINE
8
default
6
CONTINUOUS
10
-282.236
20
  80.992
30
  81.457
11
-282.198
21
  86.565
31
  81.532
39
 0
62
 3
 0
LINE
8
default
6
CONTINUOUS
10
 282.198
20
  86.565
30
  81.532
11
 282.207
21
  92.344
31
  81.515
39
 0
62
 3
 0
LINE
8
default
6
CONTINUOUS
10
-282.198
20
  86.565
30
  81.532
11
-282.207
21
  92.344
31
  81.515
39
 0
62
 3
 0
LINE
8
default
6
CONTINUOUS
10
 282.207
20
  92.344
30
  81.515
11
 282.260
21
  98.315
31
  81.408
39
 0
62
 3
 0
LINE
8
default
6
CONTINUOUS
10
-282.207
20
  92.344
30
  81.515
11
-282.260
21
  98.315
31
  81.408
39
 0
62
 3
 0
LINE
8
default
6
CONTINUOUS
10
 282.260
20
  98.315
30
  81.408
11
 282.355
21
 104.471
31
  81.219
39
 0
62
 3
 0
LINE
8
default
6
CONTINUOUS
10
-282.260
20
  98.315
30
  81.408
11
-282.355
21
 104.471
31
  81.219
39
 0
62
 3
 0
LINE
8
default
6
CONTINUOUS
10
 282.355
20
 104.471
30
  81.219
11
 282.486
21
 110.794
31
  80.956
39
 0
62
 3
 0
LINE
8
default
6
CONTINUOUS
10
-282.355
20
 104.471
30
  81.219
11
-282.486
21
 110.794
31
  80.956
39
 0
62
 3
 0
LINE
8
default
6
CONTINUOUS
10
 282.486
20
 110.794
30
  80.956
11
 282.654
21
 117.272
31
  80.621
39
 0
62
 3
 0
LINE
8
default
6
CONTINUOUS
10
-282.486
20
 110.794
30
  80.956
11
-282.654
21
 117.272
31
  80.621
39
 0
62
 3
 0
LINE
8
default
6
CONTINUOUS
10
 282.654
20
 117.272
30
  80.621
11
 282.852
21
 123.895
31
  80.225
39
 0
62
 3
 0
LINE
8
default
6
CONTINUOUS
10
-282.654
20
 117.272
30
  80.621
11
-282.852
21
 123.895
31
  80.225
39
 0
62
 3
 0
LINE
8
default
6
CONTINUOUS
10
 282.852
20
 123.895
30
  80.225
11
 283.080
21
 130.646
31
  79.770
39
 0
62
 3
 0
LINE
8
default
6
CONTINUOUS
10
-282.852
20
 123.895
30
  80.225
11
-283.080
21
 130.646
31
  79.770
39
 0
62
 3
 0
LINE
8
default
6
CONTINUOUS
10
 283.080
20
 130.646
30
  79.770
11
 283.333
21
 137.510
31
  79.265
39
 0
62
 3
 0
LINE
8
default
6
CONTINUOUS
10
-283.080
20
 130.646
30
  79.770
11
-283.333
21
 137.510
31
  79.265
39
 0
62
 3
 0
LINE
8
default
6
CONTINUOUS
10
 283.333
20
 137.510
30
  79.265
11
 283.604
21
 144.475
31
  78.725
39
 0
62
 3
 0
LINE
8
default
6
CONTINUOUS
10
-283.333
20
 137.510
30
  79.265
11
-283.604
21
 144.475
31
  78.725
39
 0
62
 3
 0
LINE
8
default
6
CONTINUOUS
10
 283.604
20
 144.475
30
  78.725
11
 283.894
21
 151.521
31
  78.145
39
 0
62
 3
 0
LINE
8
default
6
CONTINUOUS
10
-283.604
20
 144.475
30
  78.725
11
-283.894
21
 151.521
31
  78.145
39
 0
62
 3
 0
LINE
8
default
6
CONTINUOUS
10
 283.894
20
 151.521
30
  78.145
11
 284.207
21
 158.639
31
  77.519
39
 0
62
 3
 0
LINE
8
default
6
CONTINUOUS
10
-283.894
20
 151.521
30
  78.145
11
-284.207
21
 158.639
31
  77.519
39
 0
62
 3
 0
LINE
8
default
6
CONTINUOUS
10
 284.207
20
 158.639
30
  77.519
11
 284.542
21
 165.803
31
  76.851
39
 0
62
 3
 0
LINE
8
default
6
CONTINUOUS
10
-284.207
20
 158.639
30
  77.519
11
-284.542
21
 165.803
31
  76.851
39
 0
62
 3
 0
LINE
8
default
6
CONTINUOUS
10
 284.542
20
 165.803
30
  76.851
11
 284.890
21
 173.002
31
  76.156
39
 0
62
 3
 0
LINE
8
default
6
CONTINUOUS
10
-284.542
20
 165.803
30
  76.851
11
-284.890
21
 173.002
31
  76.156
39
 0
62
 3
 0
LINE
8
default
6
CONTINUOUS
10
 284.890
20
 173.002
30
  76.156
11
 285.247
21
 180.214
31
  75.442
39
 0
62
 3
 0
LINE
8
default
6
CONTINUOUS
10
-284.890
20
 173.002
30
  76.156
11
-285.247
21
 180.214
31
  75.442
39
 0
62
 3
 0
LINE
8
default
6
CONTINUOUS
10
 285.247
20
 180.214
30
  75.442
11
 285.606
21
 187.418
31
  74.725
39
 0
62
 3
 0
LINE
8
default
6
CONTINUOUS
10
-285.247
20
 180.214
30
  75.442
11
-285.606
21
 187.418
31
  74.725
39
 0
62
 3
 0
LINE
8
default
6
CONTINUOUS
10
 285.606
20
 187.418
30
  74.725
11
 285.962
21
 194.596
31
  74.016
39
 0
62
 3
 0
LINE
8
default
6
CONTINUOUS
10
-285.606
20
 187.418
30
  74.725
11
-285.962
21
 194.596
31
  74.016
39
 0
62
 3
 0
LINE
8
default
6
CONTINUOUS
10
 285.962
20
 194.596
30
  74.016
11
 286.306
21
 201.722
31
  73.328
39
 0
62
 3
 0
LINE
8
default
6
CONTINUOUS
10
-285.962
20
 194.596
30
  74.016
11
-286.306
21
 201.722
31
  73.328
39
 0
62
 3
 0
LINE
8
default
6
CONTINUOUS
10
 286.306
20
 201.722
30
  73.328
11
 286.633
21
 208.769
31
  72.675
39
 0
62
 3
 0
LINE
8
default
6
CONTINUOUS
10
-286.306
20
 201.722
30
  73.328
11
-286.633
21
 208.769
31
  72.675
39
 0
62
 3
 0
LINE
8
default
6
CONTINUOUS
10
 286.633
20
 208.769
30
  72.675
11
 286.939
21
 215.715
31
  72.064
39
 0
62
 3
 0
LINE
8
default
6
CONTINUOUS
10
-286.633
20
 208.769
30
  72.675
11
-286.939
21
 215.715
31
  72.064
39
 0
62
 3
 0
LINE
8
default
6
CONTINUOUS
10
 286.939
20
 215.715
30
  72.064
11
 287.220
21
 222.528
31
  71.502
39
 0
62
 3
 0
LINE
8
default
6
CONTINUOUS
10
-286.939
20
 215.715
30
  72.064
11
-287.220
21
 222.528
31
  71.502
39
 0
62
 3
 0
LINE
8
default
6
CONTINUOUS
10
 287.220
20
 222.528
30
  71.502
11
 287.477
21
 229.177
31
  70.989
39
 0
62
 3
 0
LINE
8
default
6
CONTINUOUS
10
-287.220
20
 222.528
30
  71.502
11
-287.477
21
 229.177
31
  70.989
39
 0
62
 3
 0
LINE
8
default
6
CONTINUOUS
10
 287.477
20
 229.177
30
  70.989
11
 287.710
21
 235.625
31
  70.524
39
 0
62
 3
 0
LINE
8
default
6
CONTINUOUS
10
-287.477
20
 229.177
30
  70.989
11
-287.710
21
 235.625
31
  70.524
39
 0
62
 3
 0
LINE
8
default
6
CONTINUOUS
10
 287.710
20
 235.625
30
  70.524
11
 287.925
21
 241.830
31
  70.095
39
 0
62
 3
 0
LINE
8
default
6
CONTINUOUS
10
-287.710
20
 235.625
30
  70.524
11
-287.925
21
 241.830
31
  70.095
39
 0
62
 3
 0
LINE
8
default
6
CONTINUOUS
10
 287.925
20
 241.830
30
  70.095
11
 288.124
21
 247.744
31
  69.697
39
 0
62
 3
 0
LINE
8
default
6
CONTINUOUS
10
-287.925
20
 241.830
30
  70.095
11
-288.124
21
 247.744
31
  69.697
39
 0
62
 3
 0
LINE
8
default
6
CONTINUOUS
10
 288.124
20
 247.744
30
  69.697
11
 288.310
21
 253.313
31
  69.326
39
 0
62
 3
 0
LINE
8
default
6
CONTINUOUS
10
-288.124
20
 247.744
30
  69.697
11
-288.310
21
 253.313
31
  69.326
39
 0
62
 3
 0
LINE
8
default
6
CONTINUOUS
10
 288.310
20
 253.313
30
  69.326
11
 288.483
21
 258.465
31
  68.981
39
 0
62
 3
 0
LINE
8
default
6
CONTINUOUS
10
-288.310
20
 253.313
30
  69.326
11
-288.483
21
 258.465
31
  68.981
39
 0
62
 3
 0
LINE
8
default
6
CONTINUOUS
10
 288.483
20
 258.465
30
  68.981
11
 288.643
21
 263.109
31
  68.661
39
 0
62
 3
 0
LINE
8
default
6
CONTINUOUS
10
-288.483
20
 258.465
30
  68.981
11
-288.643
21
 263.109
31
  68.661
39
 0
62
 3
 0
LINE
8
default
6
CONTINUOUS
10
 288.643
20
 263.109
30
  68.661
11
 288.786
21
 267.116
31
  68.374
39
 0
62
 3
 0
LINE
8
default
6
CONTINUOUS
10
-288.643
20
 263.109
30
  68.661
11
-288.786
21
 267.116
31
  68.374
39
 0
62
 3
 0
LINE
8
default
6
CONTINUOUS
10
 288.786
20
 267.116
30
  68.374
11
 288.904
21
 270.277
31
  68.140
39
 0
62
 3
 0
LINE
8
default
6
CONTINUOUS
10
-288.786
20
 267.116
30
  68.374
11
-288.904
21
 270.277
31
  68.140
39
 0
62
 3
 0
LINE
8
default
6
CONTINUOUS
10
 288.904
20
 270.277
30
  68.140
11
 288.970
21
 272.039
31
  68.007
39
 0
62
 3
 0
LINE
8
default
6
CONTINUOUS
10
-288.904
20
 270.277
30
  68.140
11
-288.970
21
 272.039
31
  68.007
39
 0
62
 3
 0
LINE
8
default
6
CONTINUOUS
10
 323.394
20
 267.402
30
  87.981
11
 323.595
21
 265.751
31
  87.661
39
 0
62
 5
 0
LINE
8
default
6
CONTINUOUS
10
-323.394
20
 267.402
30
  87.981
11
-323.595
21
 265.751
31
  87.661
39
 0
62
 5
 0
LINE
8
default
6
CONTINUOUS
10
 323.595
20
 265.751
30
  87.661
11
 323.952
21
 262.786
31
  87.092
39
 0
62
 5
 0
LINE
8
default
6
CONTINUOUS
10
-323.595
20
 265.751
30
  87.661
11
-323.952
21
 262.786
31
  87.092
39
 0
62
 5
 0
LINE
8
default
6
CONTINUOUS
10
 323.952
20
 262.786
30
  87.092
11
 324.397
21
 259.027
31
  86.383
39
 0
62
 5
 0
LINE
8
default
6
CONTINUOUS
10
-323.952
20
 262.786
30
  87.092
11
-324.397
21
 259.027
31
  86.383
39
 0
62
 5
 0
LINE
8
default
6
CONTINUOUS
10
 324.397
20
 259.027
30
  86.383
11
 324.902
21
 254.673
31
  85.579
39
 0
62
 5
 0
LINE
8
default
6
CONTINUOUS
10
-324.397
20
 259.027
30
  86.383
11
-324.902
21
 254.673
31
  85.579
39
 0
62
 5
 0
LINE
8
default
6
CONTINUOUS
10
 324.902
20
 254.673
30
  85.579
11
 325.450
21
 249.841
31
  84.706
39
 0
62
 5
 0
LINE
8
default
6
CONTINUOUS
10
-324.902
20
 254.673
30
  85.579
11
-325.450
21
 249.841
31
  84.706
39
 0
62
 5
 0
LINE
8
default
6
CONTINUOUS
10
 325.450
20
 249.841
30
  84.706
11
 326.029
21
 244.617
31
  83.783
39
 0
62
 5
 0
LINE
8
default
6
CONTINUOUS
10
-325.450
20
 249.841
30
  84.706
11
-326.029
21
 244.617
31
  83.783
39
 0
62
 5
 0
LINE
8
default
6
CONTINUOUS
10
 326.029
20
 244.617
30
  83.783
11
 326.629
21
 239.068
31
  82.827
39
 0
62
 5
 0
LINE
8
default
6
CONTINUOUS
10
-326.029
20
 244.617
30
  83.783
11
-326.629
21
 239.068
31
  82.827
39
 0
62
 5
 0
LINE
8
default
6
CONTINUOUS
10
 326.629
20
 239.068
30
  82.827
11
 327.245
21
 233.246
31
  81.845
39
 0
62
 5
 0
LINE
8
default
6
CONTINUOUS
10
-326.629
20
 239.068
30
  82.827
11
-327.245
21
 233.246
31
  81.845
39
 0
62
 5
 0
LINE
8
default
6
CONTINUOUS
10
 327.245
20
 233.246
30
  81.845
11
 327.871
21
 227.197
31
  80.849
39
 0
62
 5
 0
LINE
8
default
6
CONTINUOUS
10
-327.245
20
 233.246
30
  81.845
11
-327.871
21
 227.197
31
  80.849
39
 0
62
 5
 0
LINE
8
default
6
CONTINUOUS
10
 327.871
20
 227.197
30
  80.849
11
 328.501
21
 220.960
31
  79.845
39
 0
62
 5
 0
LINE
8
default
6
CONTINUOUS
10
-327.871
20
 227.197
30
  80.849
11
-328.501
21
 220.960
31
  79.845
39
 0
62
 5
 0
LINE
8
default
6
CONTINUOUS
10
 328.501
20
 220.960
30
  79.845
11
 329.133
21
 214.567
31
  78.838
39
 0
62
 5
 0
LINE
8
default
6
CONTINUOUS
10
-328.501
20
 220.960
30
  79.845
11
-329.133
21
 214.567
31
  78.838
39
 0
62
 5
 0
LINE
8
default
6
CONTINUOUS
10
 329.133
20
 214.567
30
  78.838
11
 329.763
21
 208.051
31
  77.834
39
 0
62
 5
 0
LINE
8
default
6
CONTINUOUS
10
-329.133
20
 214.567
30
  78.838
11
-329.763
21
 208.051
31
  77.834
39
 0
62
 5
 0
LINE
8
default
6
CONTINUOUS
10
 329.763
20
 208.051
30
  77.834
11
 330.387
21
 201.437
31
  76.841
39
 0
62
 5
 0
LINE
8
default
6
CONTINUOUS
10
-329.763
20
 208.051
30
  77.834
11
-330.387
21
 201.437
31
  76.841
39
 0
62
 5
 0
LINE
8
default
6
CONTINUOUS
10
 330.387
20
 201.437
30
  76.841
11
 331.004
21
 194.752
31
  75.858
39
 0
62
 5
 0
LINE
8
default
6
CONTINUOUS
10
-330.387
20
 201.437
30
  76.841
11
-331.004
21
 194.752
31
  75.858
39
 0
62
 5
 0
LINE
8
default
6
CONTINUOUS
10
 331.004
20
 194.752
30
  75.858
11
 331.610
21
 188.018
31
  74.892
39
 0
62
 5
 0
LINE
8
default
6
CONTINUOUS
10
-331.004
20
 194.752
30
  75.858
11
-331.610
21
 188.018
31
  74.892
39
 0
62
 5
 0
LINE
8
default
6
CONTINUOUS
10
 331.610
20
 188.018
30
  74.892
11
 332.205
21
 181.258
31
  73.945
39
 0
62
 5
 0
LINE
8
default
6
CONTINUOUS
10
-331.610
20
 188.018
30
  74.892
11
-332.205
21
 181.258
31
  73.945
39
 0
62
 5
 0
LINE
8
default
6
CONTINUOUS
10
 332.205
20
 181.258
30
  73.945
11
 332.787
21
 174.489
31
  73.017
39
 0
62
 5
 0
LINE
8
default
6
CONTINUOUS
10
-332.205
20
 181.258
30
  73.945
11
-332.787
21
 174.489
31
  73.017
39
 0
62
 5
 0
LINE
8
default
6
CONTINUOUS
10
 332.787
20
 174.489
30
  73.017
11
 333.352
21
 167.733
31
  72.118
39
 0
62
 5
 0
LINE
8
default
6
CONTINUOUS
10
-332.787
20
 174.489
30
  73.017
11
-333.352
21
 167.733
31
  72.118
39
 0
62
 5
 0
LINE
8
default
6
CONTINUOUS
10
 333.352
20
 167.733
30
  72.118
11
 333.898
21
 161.006
31
  71.247
39
 0
62
 5
 0
LINE
8
default
6
CONTINUOUS
10
-333.352
20
 167.733
30
  72.118
11
-333.898
21
 161.006
31
  71.247
39
 0
62
 5
 0
LINE
8
default
6
CONTINUOUS
10
 333.898
20
 161.006
30
  71.247
11
 334.424
21
 154.328
31
  70.409
39
 0
62
 5
 0
LINE
8
default
6
CONTINUOUS
10
-333.898
20
 161.006
30
  71.247
11
-334.424
21
 154.328
31
  70.409
39
 0
62
 5
 0
LINE
8
default
6
CONTINUOUS
10
 334.424
20
 154.328
30
  70.409
11
 334.929
21
 147.711
31
  69.604
39
 0
62
 5
 0
LINE
8
default
6
CONTINUOUS
10
-334.424
20
 154.328
30
  70.409
11
-334.929
21
 147.711
31
  69.604
39
 0
62
 5
 0
LINE
8
default
6
CONTINUOUS
10
 334.929
20
 147.711
30
  69.604
11
 335.411
21
 141.169
31
  68.836
39
 0
62
 5
 0
LINE
8
default
6
CONTINUOUS
10
-334.929
20
 147.711
30
  69.604
11
-335.411
21
 141.169
31
  68.836
39
 0
62
 5
 0
LINE
8
default
6
CONTINUOUS
10
 335.411
20
 141.169
30
  68.836
11
 335.867
21
 134.723
31
  68.110
39
 0
62
 5
 0
LINE
8
default
6
CONTINUOUS
10
-335.411
20
 141.169
30
  68.836
11
-335.867
21
 134.723
31
  68.110
39
 0
62
 5
 0
LINE
8
default
6
CONTINUOUS
10
 335.867
20
 134.723
30
  68.110
11
 336.294
21
 128.380
31
  67.430
39
 0
62
 5
 0
LINE
8
default
6
CONTINUOUS
10
-335.867
20
 134.723
30
  68.110
11
-336.294
21
 128.380
31
  67.430
39
 0
62
 5
 0
LINE
8
default
6
CONTINUOUS
10
 336.294
20
 128.380
30
  67.430
11
 336.690
21
 122.159
31
  66.799
39
 0
62
 5
 0
LINE
8
default
6
CONTINUOUS
10
-336.294
20
 128.380
30
  67.430
11
-336.690
21
 122.159
31
  66.799
39
 0
62
 5
 0
LINE
8
default
6
CONTINUOUS
10
 336.690
20
 122.159
30
  66.799
11
 337.054
21
 116.070
31
  66.220
39
 0
62
 5
 0
LINE
8
default
6
CONTINUOUS
10
-336.690
20
 122.159
30
  66.799
11
-337.054
21
 116.070
31
  66.220
39
 0
62
 5
 0
LINE
8
default
6
CONTINUOUS
10
 337.054
20
 116.070
30
  66.220
11
 337.383
21
 110.128
31
  65.695
39
 0
62
 5
 0
LINE
8
default
6
CONTINUOUS
10
-337.054
20
 116.070
30
  66.220
11
-337.383
21
 110.128
31
  65.695
39
 0
62
 5
 0
LINE
8
default
6
CONTINUOUS
10
 337.383
20
 110.128
30
  65.695
11
 337.673
21
 104.341
31
  65.234
39
 0
62
 5
 0
LINE
8
default
6
CONTINUOUS
10
-337.383
20
 110.128
30
  65.695
11
-337.673
21
 104.341
31
  65.234
39
 0
62
 5
 0
LINE
8
default
6
CONTINUOUS
10
 337.673
20
 104.341
30
  65.234
11
 337.921
21
  98.721
31
  64.838
39
 0
62
 5
 0
LINE
8
default
6
CONTINUOUS
10
-337.673
20
 104.341
30
  65.234
11
-337.921
21
  98.721
31
  64.838
39
 0
62
 5
 0
LINE
8
default
6
CONTINUOUS
10
 337.921
20
  98.721
30
  64.838
11
 338.126
21
  93.282
31
  64.512
39
 0
62
 5
 0
LINE
8
default
6
CONTINUOUS
10
-337.921
20
  98.721
30
  64.838
11
-338.126
21
  93.282
31
  64.512
39
 0
62
 5
 0
LINE
8
default
6
CONTINUOUS
10
 338.126
20
  93.282
30
  64.512
11
 338.272
21
  88.032
31
  64.280
39
 0
62
 5
 0
LINE
8
default
6
CONTINUOUS
10
-338.126
20
  93.282
30
  64.512
11
-338.272
21
  88.032
31
  64.280
39
 0
62
 5
 0
LINE
8
default
6
CONTINUOUS
10
 338.272
20
  88.032
30
  64.280
11
 338.342
21
  82.986
31
  64.167
39
 0
62
 5
 0
LINE
8
default
6
CONTINUOUS
10
-338.272
20
  88.032
30
  64.280
11
-338.342
21
  82.986
31
  64.167
39
 0
62
 5
 0
LINE
8
default
6
CONTINUOUS
10
 338.342
20
  82.986
30
  64.167
11
 338.322
21
  78.148
31
  64.200
39
 0
62
 5
 0
LINE
8
default
6
CONTINUOUS
10
-338.342
20
  82.986
30
  64.167
11
-338.322
21
  78.148
31
  64.200
39
 0
62
 5
 0
LINE
8
default
6
CONTINUOUS
10
 338.322
20
  78.148
30
  64.200
11
 338.198
21
  73.534
31
  64.397
39
 0
62
 5
 0
LINE
8
default
6
CONTINUOUS
10
-338.322
20
  78.148
30
  64.200
11
-338.198
21
  73.534
31
  64.397
39
 0
62
 5
 0
LINE
8
default
6
CONTINUOUS
10
 338.198
20
  73.534
30
  64.397
11
 337.962
21
  69.147
31
  64.773
39
 0
62
 5
 0
LINE
8
default
6
CONTINUOUS
10
-338.198
20
  73.534
30
  64.397
11
-337.962
21
  69.147
31
  64.773
39
 0
62
 5
 0
LINE
8
default
6
CONTINUOUS
10
 337.962
20
  69.147
30
  64.773
11
 337.606
21
  65.000
31
  65.340
39
 0
62
 5
 0
LINE
8
default
6
CONTINUOUS
10
-337.962
20
  69.147
30
  64.773
11
-337.606
21
  65.000
31
  65.340
39
 0
62
 5
 0
LINE
8
default
6
CONTINUOUS
10
 337.606
20
  65.000
30
  65.340
11
 337.124
21
  61.101
31
  66.109
39
 0
62
 5
 0
LINE
8
default
6
CONTINUOUS
10
-337.606
20
  65.000
30
  65.340
11
-337.124
21
  61.101
31
  66.109
39
 0
62
 5
 0
LINE
8
default
6
CONTINUOUS
10
 337.124
20
  61.101
30
  66.109
11
 336.516
21
  57.461
31
  67.076
39
 0
62
 5
 0
LINE
8
default
6
CONTINUOUS
10
-337.124
20
  61.101
30
  66.109
11
-336.516
21
  57.461
31
  67.076
39
 0
62
 5
 0
LINE
8
default
6
CONTINUOUS
10
 336.516
20
  57.461
30
  67.076
11
 335.789
21
  54.090
31
  68.234
39
 0
62
 5
 0
LINE
8
default
6
CONTINUOUS
10
-336.516
20
  57.461
30
  67.076
11
-335.789
21
  54.090
31
  68.234
39
 0
62
 5
 0
LINE
8
default
6
CONTINUOUS
10
 335.789
20
  54.090
30
  68.234
11
 334.957
21
  50.992
31
  69.560
39
 0
62
 5
 0
LINE
8
default
6
CONTINUOUS
10
-335.789
20
  54.090
30
  68.234
11
-334.957
21
  50.992
31
  69.560
39
 0
62
 5
 0
LINE
8
default
6
CONTINUOUS
10
 334.957
20
  50.992
30
  69.560
11
 334.037
21
  48.184
31
  71.026
39
 0
62
 5
 0
LINE
8
default
6
CONTINUOUS
10
-334.957
20
  50.992
30
  69.560
11
-334.037
21
  48.184
31
  71.026
39
 0
62
 5
 0
LINE
8
default
6
CONTINUOUS
10
 334.037
20
  48.184
30
  71.026
11
 333.045
21
  45.669
31
  72.606
39
 0
62
 5
 0
LINE
8
default
6
CONTINUOUS
10
-334.037
20
  48.184
30
  71.026
11
-333.045
21
  45.669
31
  72.606
39
 0
62
 5
 0
LINE
8
default
6
CONTINUOUS
10
 333.045
20
  45.669
30
  72.606
11
 332.006
21
  43.457
31
  74.261
39
 0
62
 5
 0
LINE
8
default
6
CONTINUOUS
10
-333.045
20
  45.669
30
  72.606
11
-332.006
21
  43.457
31
  74.261
39
 0
62
 5
 0
LINE
8
default
6
CONTINUOUS
10
 332.006
20
  43.457
30
  74.261
11
 330.934
21
  41.557
31
  75.969
39
 0
62
 5
 0
LINE
8
default
6
CONTINUOUS
10
-332.006
20
  43.457
30
  74.261
11
-330.934
21
  41.557
31
  75.969
39
 0
62
 5
 0
LINE
8
default
6
CONTINUOUS
10
 330.934
20
  41.557
30
  75.969
11
 329.836
21
  39.977
31
  77.719
39
 0
62
 5
 0
LINE
8
default
6
CONTINUOUS
10
-330.934
20
  41.557
30
  75.969
11
-329.836
21
  39.977
31
  77.719
39
 0
62
 5
 0
LINE
8
default
6
CONTINUOUS
10
 329.836
20
  39.977
30
  77.719
11
 328.773
21
  38.729
31
  79.412
39
 0
62
 5
 0
LINE
8
default
6
CONTINUOUS
10
-329.836
20
  39.977
30
  77.719
11
-328.773
21
  38.729
31
  79.412
39
 0
62
 5
 0
LINE
8
default
6
CONTINUOUS
10
 328.773
20
  38.729
30
  79.412
11
 327.565
21
  37.814
31
  81.336
39
 0
62
 5
 0
LINE
8
default
6
CONTINUOUS
10
-328.773
20
  38.729
30
  79.412
11
-327.565
21
  37.814
31
  81.336
39
 0
62
 5
 0
LINE
8
default
6
CONTINUOUS
10
 327.565
20
  37.814
30
  81.336
11
 326.518
21
  37.249
31
  83.003
39
 0
62
 5
 0
LINE
8
default
6
CONTINUOUS
10
-327.565
20
  37.814
30
  81.336
11
-326.518
21
  37.249
31
  83.003
39
 0
62
 5
 0
LINE
8
default
6
CONTINUOUS
10
 326.518
20
  37.249
30
  83.003
11
 325.278
21
  37.029
31
  84.979
39
 0
62
 5
 0
LINE
8
default
6
CONTINUOUS
10
-326.518
20
  37.249
30
  83.003
11
-325.278
21
  37.029
31
  84.979
39
 0
62
 5
 0
LINE
8
default
6
CONTINUOUS
10
 325.278
20
  37.029
30
  84.979
11
 324.495
21
  37.186
31
  86.227
39
 0
62
 5
 0
LINE
8
default
6
CONTINUOUS
10
-325.278
20
  37.029
30
  84.979
11
-324.495
21
  37.186
31
  86.227
39
 0
62
 5
 0
LINE
8
default
6
CONTINUOUS
10
 324.495
20
  37.186
30
  86.227
11
 323.734
21
  37.696
31
  87.439
39
 0
62
 5
 0
LINE
8
default
6
CONTINUOUS
10
-324.495
20
  37.186
30
  86.227
11
-323.734
21
  37.696
31
  87.439
39
 0
62
 5
 0
LINE
8
default
6
CONTINUOUS
10
 323.734
20
  37.696
30
  87.439
11
 323.087
21
  38.553
31
  88.469
39
 0
62
 5
 0
LINE
8
default
6
CONTINUOUS
10
-323.734
20
  37.696
30
  87.439
11
-323.087
21
  38.553
31
  88.469
39
 0
62
 5
 0
LINE
8
default
6
CONTINUOUS
10
 323.087
20
  38.553
30
  88.469
11
 322.388
21
  39.711
31
  89.584
39
 0
62
 5
 0
LINE
8
default
6
CONTINUOUS
10
-323.087
20
  38.553
30
  88.469
11
-322.388
21
  39.711
31
  89.584
39
 0
62
 5
 0
LINE
8
default
6
CONTINUOUS
10
 322.388
20
  39.711
30
  89.584
11
 322.366
21
  39.747
31
  89.619
39
 0
62
 1
 0
LINE
8
default
6
CONTINUOUS
10
-322.388
20
  39.711
30
  89.584
11
-322.366
21
  39.747
31
  89.619
39
 0
62
 1
 0
LINE
8
default
6
CONTINUOUS
10
 322.366
20
  39.747
30
  89.619
11
 321.748
21
  41.273
31
  90.603
39
 0
62
 1
 0
LINE
8
default
6
CONTINUOUS
10
-322.366
20
  39.747
30
  89.619
11
-321.748
21
  41.273
31
  90.603
39
 0
62
 1
 0
LINE
8
default
6
CONTINUOUS
10
 321.748
20
  41.273
30
  90.603
11
 321.090
21
  43.118
31
  91.651
39
 0
62
 1
 0
LINE
8
default
6
CONTINUOUS
10
-321.748
20
  41.273
30
  90.603
11
-321.090
21
  43.118
31
  91.651
39
 0
62
 1
 0
LINE
8
default
6
CONTINUOUS
10
 321.090
20
  43.118
30
  91.651
11
 320.473
21
  45.280
31
  92.634
39
 0
62
 1
 0
LINE
8
default
6
CONTINUOUS
10
-321.090
20
  43.118
30
  91.651
11
-320.473
21
  45.280
31
  92.634
39
 0
62
 1
 0
LINE
8
default
6
CONTINUOUS
10
 320.473
20
  45.280
30
  92.634
11
 319.872
21
  47.747
31
  93.591
39
 0
62
 1
 0
LINE
8
default
6
CONTINUOUS
10
-320.473
20
  45.280
30
  92.634
11
-319.872
21
  47.747
31
  93.591
39
 0
62
 1
 0
LINE
8
default
6
CONTINUOUS
10
 319.872
20
  47.747
30
  93.591
11
 319.498
21
  49.535
31
  94.188
39
 0
62
 1
 0
LINE
8
default
6
CONTINUOUS
10
-319.872
20
  47.747
30
  93.591
11
-319.498
21
  49.535
31
  94.188
39
 0
62
 1
 0
LINE
8
default
6
CONTINUOUS
10
 319.498
20
  49.535
30
  94.188
11
 319.294
21
  50.511
31
  94.513
39
 0
62
 3
 0
LINE
8
default
6
CONTINUOUS
10
-319.498
20
  49.535
30
  94.188
11
-319.294
21
  50.511
31
  94.513
39
 0
62
 3
 0
LINE
8
default
6
CONTINUOUS
10
 319.294
20
  50.511
30
  94.513
11
 318.748
21
  53.565
31
  95.383
39
 0
62
 3
 0
LINE
8
default
6
CONTINUOUS
10
-319.294
20
  50.511
30
  94.513
11
-318.748
21
  53.565
31
  95.383
39
 0
62
 3
 0
LINE
8
default
6
CONTINUOUS
10
 318.748
20
  53.565
30
  95.383
11
 318.242
21
  56.898
31
  96.189
39
 0
62
 3
 0
LINE
8
default
6
CONTINUOUS
10
-318.748
20
  53.565
30
  95.383
11
-318.242
21
  56.898
31
  96.189
39
 0
62
 3
 0
LINE
8
default
6
CONTINUOUS
10
 318.242
20
  56.898
30
  96.189
11
 317.782
21
  60.507
31
  96.921
39
 0
62
 3
 0
LINE
8
default
6
CONTINUOUS
10
-318.242
20
  56.898
30
  96.189
11
-317.782
21
  60.507
31
  96.921
39
 0
62
 3
 0
LINE
8
default
6
CONTINUOUS
10
 317.782
20
  60.507
30
  96.921
11
 317.376
21
  64.376
31
  97.569
39
 0
62
 3
 0
LINE
8
default
6
CONTINUOUS
10
-317.782
20
  60.507
30
  96.921
11
-317.376
21
  64.376
31
  97.569
39
 0
62
 3
 0
LINE
8
default
6
CONTINUOUS
10
 317.376
20
  64.376
30
  97.569
11
 317.025
21
  68.502
31
  98.128
39
 0
62
 3
 0
LINE
8
default
6
CONTINUOUS
10
-317.376
20
  64.376
30
  97.569
11
-317.025
21
  68.502
31
  98.128
39
 0
62
 3
 0
LINE
8
default
6
CONTINUOUS
10
 317.025
20
  68.502
30
  98.128
11
 316.735
21
  72.871
31
  98.589
39
 0
62
 3
 0
LINE
8
default
6
CONTINUOUS
10
-317.025
20
  68.502
30
  98.128
11
-316.735
21
  72.871
31
  98.589
39
 0
62
 3
 0
LINE
8
default
6
CONTINUOUS
10
 316.735
20
  72.871
30
  98.589
11
 316.506
21
  77.478
31
  98.953
39
 0
62
 3
 0
LINE
8
default
6
CONTINUOUS
10
-316.735
20
  72.871
30
  98.589
11
-316.506
21
  77.478
31
  98.953
39
 0
62
 3
 0
LINE
8
default
6
CONTINUOUS
10
 316.506
20
  77.478
30
  98.953
11
 316.338
21
  82.307
31
  99.221
39
 0
62
 3
 0
LINE
8
default
6
CONTINUOUS
10
-316.506
20
  77.478
30
  98.953
11
-316.338
21
  82.307
31
  99.221
39
 0
62
 3
 0
LINE
8
default
6
CONTINUOUS
10
 316.338
20
  82.307
30
  99.221
11
 316.231
21
  87.355
31
  99.392
39
 0
62
 3
 0
LINE
8
default
6
CONTINUOUS
10
-316.338
20
  82.307
30
  99.221
11
-316.231
21
  87.355
31
  99.392
39
 0
62
 3
 0
LINE
8
default
6
CONTINUOUS
10
 316.231
20
  87.355
30
  99.392
11
 316.178
21
  92.605
31
  99.476
39
 0
62
 3
 0
LINE
8
default
6
CONTINUOUS
10
-316.231
20
  87.355
30
  99.392
11
-316.178
21
  92.605
31
  99.476
39
 0
62
 3
 0
LINE
8
default
6
CONTINUOUS
10
 316.178
20
  92.605
30
  99.476
11
 316.177
21
  98.050
31
  99.479
39
 0
62
 3
 0
LINE
8
default
6
CONTINUOUS
10
-316.178
20
  92.605
30
  99.476
11
-316.177
21
  98.050
31
  99.479
39
 0
62
 3
 0
LINE
8
default
6
CONTINUOUS
10
 316.177
20
  98.050
30
  99.479
11
 316.225
21
 103.676
31
  99.402
39
 0
62
 3
 0
LINE
8
default
6
CONTINUOUS
10
-316.177
20
  98.050
30
  99.479
11
-316.225
21
 103.676
31
  99.402
39
 0
62
 3
 0
LINE
8
default
6
CONTINUOUS
10
 316.225
20
 103.676
30
  99.402
11
 316.318
21
 109.477
31
  99.253
39
 0
62
 3
 0
LINE
8
default
6
CONTINUOUS
10
-316.225
20
 103.676
30
  99.402
11
-316.318
21
 109.477
31
  99.253
39
 0
62
 3
 0
LINE
8
default
6
CONTINUOUS
10
 316.318
20
 109.477
30
  99.253
11
 316.453
21
 115.435
31
  99.038
39
 0
62
 3
 0
LINE
8
default
6
CONTINUOUS
10
-316.318
20
 109.477
30
  99.253
11
-316.453
21
 115.435
31
  99.038
39
 0
62
 3
 0
LINE
8
default
6
CONTINUOUS
10
 316.453
20
 115.435
30
  99.038
11
 316.629
21
 121.539
31
  98.759
39
 0
62
 3
 0
LINE
8
default
6
CONTINUOUS
10
-316.453
20
 115.435
30
  99.038
11
-316.629
21
 121.539
31
  98.759
39
 0
62
 3
 0
LINE
8
default
6
CONTINUOUS
10
 316.629
20
 121.539
30
  98.759
11
 316.837
21
 127.781
31
  98.426
39
 0
62
 3
 0
LINE
8
default
6
CONTINUOUS
10
-316.629
20
 121.539
30
  98.759
11
-316.837
21
 127.781
31
  98.426
39
 0
62
 3
 0
LINE
8
default
6
CONTINUOUS
10
 316.837
20
 127.781
30
  98.426
11
 317.079
21
 134.143
31
  98.041
39
 0
62
 3
 0
LINE
8
default
6
CONTINUOUS
10
-316.837
20
 127.781
30
  98.426
11
-317.079
21
 134.143
31
  98.041
39
 0
62
 3
 0
LINE
8
default
6
CONTINUOUS
10
 317.079
20
 134.143
30
  98.041
11
 317.349
21
 140.612
31
  97.612
39
 0
62
 3
 0
LINE
8
default
6
CONTINUOUS
10
-317.079
20
 134.143
30
  98.041
11
-317.349
21
 140.612
31
  97.612
39
 0
62
 3
 0
LINE
8
default
6
CONTINUOUS
10
 317.349
20
 140.612
30
  97.612
11
 317.638
21
 147.176
31
  97.151
39
 0
62
 3
 0
LINE
8
default
6
CONTINUOUS
10
-317.349
20
 140.612
30
  97.612
11
-317.638
21
 147.176
31
  97.151
39
 0
62
 3
 0
LINE
8
default
6
CONTINUOUS
10
 317.638
20
 147.176
30
  97.151
11
 317.949
21
 153.816
31
  96.656
39
 0
62
 3
 0
LINE
8
default
6
CONTINUOUS
10
-317.638
20
 147.176
30
  97.151
11
-317.949
21
 153.816
31
  96.656
39
 0
62
 3
 0
LINE
8
default
6
CONTINUOUS
10
 317.949
20
 153.816
30
  96.656
11
 318.286
21
 160.525
31
  96.119
39
 0
62
 3
 0
LINE
8
default
6
CONTINUOUS
10
-317.949
20
 153.816
30
  96.656
11
-318.286
21
 160.525
31
  96.119
39
 0
62
 3
 0
LINE
8
default
6
CONTINUOUS
10
 318.286
20
 160.525
30
  96.119
11
 318.646
21
 167.277
31
  95.545
39
 0
62
 3
 0
LINE
8
default
6
CONTINUOUS
10
-318.286
20
 160.525
30
  96.119
11
-318.646
21
 167.277
31
  95.545
39
 0
62
 3
 0
LINE
8
default
6
CONTINUOUS
10
 318.646
20
 167.277
30
  95.545
11
 319.022
21
 174.063
31
  94.946
39
 0
62
 3
 0
LINE
8
default
6
CONTINUOUS
10
-318.646
20
 167.277
30
  95.545
11
-319.022
21
 174.063
31
  94.946
39
 0
62
 3
 0
LINE
8
default
6
CONTINUOUS
10
 319.022
20
 174.063
30
  94.946
11
 319.407
21
 180.860
31
  94.332
39
 0
62
 3
 0
LINE
8
default
6
CONTINUOUS
10
-319.022
20
 174.063
30
  94.946
11
-319.407
21
 180.860
31
  94.332
39
 0
62
 3
 0
LINE
8
default
6
CONTINUOUS
10
 319.407
20
 180.860
30
  94.332
11
 319.795
21
 187.651
31
  93.714
39
 0
62
 3
 0
LINE
8
default
6
CONTINUOUS
10
-319.407
20
 180.860
30
  94.332
11
-319.795
21
 187.651
31
  93.714
39
 0
62
 3
 0
LINE
8
default
6
CONTINUOUS
10
 319.795
20
 187.651
30
  93.714
11
 320.178
21
 194.415
31
  93.104
39
 0
62
 3
 0
LINE
8
default
6
CONTINUOUS
10
-319.795
20
 187.651
30
  93.714
11
-320.178
21
 194.415
31
  93.104
39
 0
62
 3
 0
LINE
8
default
6
CONTINUOUS
10
 320.178
20
 194.415
30
  93.104
11
 320.550
21
 201.132
31
  92.512
39
 0
62
 3
 0
LINE
8
default
6
CONTINUOUS
10
-320.178
20
 194.415
30
  93.104
11
-320.550
21
 201.132
31
  92.512
39
 0
62
 3
 0
LINE
8
default
6
CONTINUOUS
10
 320.550
20
 201.132
30
  92.512
11
 320.902
21
 207.774
31
  91.951
39
 0
62
 3
 0
LINE
8
default
6
CONTINUOUS
10
-320.550
20
 201.132
30
  92.512
11
-320.902
21
 207.774
31
  91.951
39
 0
62
 3
 0
LINE
8
default
6
CONTINUOUS
10
 320.902
20
 207.774
30
  91.951
11
 321.231
21
 214.320
31
  91.427
39
 0
62
 3
 0
LINE
8
default
6
CONTINUOUS
10
-320.902
20
 207.774
30
  91.951
11
-321.231
21
 214.320
31
  91.427
39
 0
62
 3
 0
LINE
8
default
6
CONTINUOUS
10
 321.231
20
 214.320
30
  91.427
11
 321.532
21
 220.742
31
  90.947
39
 0
62
 3
 0
LINE
8
default
6
CONTINUOUS
10
-321.231
20
 214.320
30
  91.427
11
-321.532
21
 220.742
31
  90.947
39
 0
62
 3
 0
LINE
8
default
6
CONTINUOUS
10
 321.532
20
 220.742
30
  90.947
11
 321.807
21
 227.008
31
  90.509
39
 0
62
 3
 0
LINE
8
default
6
CONTINUOUS
10
-321.532
20
 220.742
30
  90.947
11
-321.807
21
 227.008
31
  90.509
39
 0
62
 3
 0
LINE
8
default
6
CONTINUOUS
10
 321.807
20
 227.008
30
  90.509
11
 322.055
21
 233.085
31
  90.114
39
 0
62
 3
 0
LINE
8
default
6
CONTINUOUS
10
-321.807
20
 227.008
30
  90.509
11
-322.055
21
 233.085
31
  90.114
39
 0
62
 3
 0
LINE
8
default
6
CONTINUOUS
10
 322.055
20
 233.085
30
  90.114
11
 322.283
21
 238.933
31
  89.751
39
 0
62
 3
 0
LINE
8
default
6
CONTINUOUS
10
-322.055
20
 233.085
30
  90.114
11
-322.283
21
 238.933
31
  89.751
39
 0
62
 3
 0
LINE
8
default
6
CONTINUOUS
10
 322.283
20
 238.933
30
  89.751
11
 322.494
21
 244.506
31
  89.414
39
 0
62
 3
 0
LINE
8
default
6
CONTINUOUS
10
-322.283
20
 238.933
30
  89.751
11
-322.494
21
 244.506
31
  89.414
39
 0
62
 3
 0
LINE
8
default
6
CONTINUOUS
10
 322.494
20
 244.506
30
  89.414
11
 322.692
21
 249.754
31
  89.100
39
 0
62
 3
 0
LINE
8
default
6
CONTINUOUS
10
-322.494
20
 244.506
30
  89.414
11
-322.692
21
 249.754
31
  89.100
39
 0
62
 3
 0
LINE
8
default
6
CONTINUOUS
10
 322.692
20
 249.754
30
  89.100
11
 322.875
21
 254.610
31
  88.808
39
 0
62
 3
 0
LINE
8
default
6
CONTINUOUS
10
-322.692
20
 249.754
30
  89.100
11
-322.875
21
 254.610
31
  88.808
39
 0
62
 3
 0
LINE
8
default
6
CONTINUOUS
10
 322.875
20
 254.610
30
  88.808
11
 323.045
21
 258.986
31
  88.537
39
 0
62
 3
 0
LINE
8
default
6
CONTINUOUS
10
-322.875
20
 254.610
30
  88.808
11
-323.045
21
 258.986
31
  88.537
39
 0
62
 3
 0
LINE
8
default
6
CONTINUOUS
10
 323.045
20
 258.986
30
  88.537
11
 323.198
21
 262.762
31
  88.294
39
 0
62
 3
 0
LINE
8
default
6
CONTINUOUS
10
-323.045
20
 258.986
30
  88.537
11
-323.198
21
 262.762
31
  88.294
39
 0
62
 3
 0
LINE
8
default
6
CONTINUOUS
10
 323.198
20
 262.762
30
  88.294
11
 323.323
21
 265.741
31
  88.094
39
 0
62
 3
 0
LINE
8
default
6
CONTINUOUS
10
-323.198
20
 262.762
30
  88.294
11
-323.323
21
 265.741
31
  88.094
39
 0
62
 3
 0
LINE
8
default
6
CONTINUOUS
10
 323.323
20
 265.741
30
  88.094
11
 323.394
21
 267.402
31
  87.981
39
 0
62
 3
 0
LINE
8
default
6
CONTINUOUS
10
-323.323
20
 265.741
30
  88.094
11
-323.394
21
 267.402
31
  87.981
39
 0
62
 3
 0
LINE
8
default
6
CONTINUOUS
10
 355.733
20
 261.821
30
 111.101
11
 355.950
21
 260.301
31
 110.819
39
 0
62
 5
 0
LINE
8
default
6
CONTINUOUS
10
-355.733
20
 261.821
30
 111.101
11
-355.950
21
 260.301
31
 110.819
39
 0
62
 5
 0
LINE
8
default
6
CONTINUOUS
10
 355.950
20
 260.301
30
 110.819
11
 356.337
21
 257.572
31
 110.317
39
 0
62
 5
 0
LINE
8
default
6
CONTINUOUS
10
-355.950
20
 260.301
30
 110.819
11
-356.337
21
 257.572
31
 110.317
39
 0
62
 5
 0
LINE
8
default
6
CONTINUOUS
10
 356.337
20
 257.572
30
 110.317
11
 356.818
21
 254.112
31
 109.693
39
 0
62
 5
 0
LINE
8
default
6
CONTINUOUS
10
-356.337
20
 257.572
30
 110.317
11
-356.818
21
 254.112
31
 109.693
39
 0
62
 5
 0
LINE
8
default
6
CONTINUOUS
10
 356.818
20
 254.112
30
 109.693
11
 357.364
21
 250.104
31
 108.984
39
 0
62
 5
 0
LINE
8
default
6
CONTINUOUS
10
-356.818
20
 254.112
30
 109.693
11
-357.364
21
 250.104
31
 108.984
39
 0
62
 5
 0
LINE
8
default
6
CONTINUOUS
10
 357.364
20
 250.104
30
 108.984
11
 357.957
21
 245.655
31
 108.214
39
 0
62
 5
 0
LINE
8
default
6
CONTINUOUS
10
-357.364
20
 250.104
30
 108.984
11
-357.957
21
 245.655
31
 108.214
39
 0
62
 5
 0
LINE
8
default
6
CONTINUOUS
10
 357.957
20
 245.655
30
 108.214
11
 358.584
21
 240.847
31
 107.400
39
 0
62
 5
 0
LINE
8
default
6
CONTINUOUS
10
-357.957
20
 245.655
30
 108.214
11
-358.584
21
 240.847
31
 107.400
39
 0
62
 5
 0
LINE
8
default
6
CONTINUOUS
10
 358.584
20
 240.847
30
 107.400
11
 359.234
21
 235.738
31
 106.555
39
 0
62
 5
 0
LINE
8
default
6
CONTINUOUS
10
-358.584
20
 240.847
30
 107.400
11
-359.234
21
 235.738
31
 106.555
39
 0
62
 5
 0
LINE
8
default
6
CONTINUOUS
10
 359.234
20
 235.738
30
 106.555
11
 359.902
21
 230.379
31
 105.688
39
 0
62
 5
 0
LINE
8
default
6
CONTINUOUS
10
-359.234
20
 235.738
30
 106.555
11
-359.902
21
 230.379
31
 105.688
39
 0
62
 5
 0
LINE
8
default
6
CONTINUOUS
10
 359.902
20
 230.379
30
 105.688
11
 360.580
21
 224.810
31
 104.808
39
 0
62
 5
 0
LINE
8
default
6
CONTINUOUS
10
-359.902
20
 230.379
30
 105.688
11
-360.580
21
 224.810
31
 104.808
39
 0
62
 5
 0
LINE
8
default
6
CONTINUOUS
10
 360.580
20
 224.810
30
 104.808
11
 361.265
21
 219.067
31
 103.919
39
 0
62
 5
 0
LINE
8
default
6
CONTINUOUS
10
-360.580
20
 224.810
30
 104.808
11
-361.265
21
 219.067
31
 103.919
39
 0
62
 5
 0
LINE
8
default
6
CONTINUOUS
10
 361.265
20
 219.067
30
 103.919
11
 361.951
21
 213.182
31
 103.029
39
 0
62
 5
 0
LINE
8
default
6
CONTINUOUS
10
-361.265
20
 219.067
30
 103.919
11
-361.951
21
 213.182
31
 103.029
39
 0
62
 5
 0
LINE
8
default
6
CONTINUOUS
10
 361.951
20
 213.182
30
 103.029
11
 362.635
21
 207.182
31
 102.139
39
 0
62
 5
 0
LINE
8
default
6
CONTINUOUS
10
-361.951
20
 213.182
30
 103.029
11
-362.635
21
 207.182
31
 102.139
39
 0
62
 5
 0
LINE
8
default
6
CONTINUOUS
10
 362.635
20
 207.182
30
 102.139
11
 363.314
21
 201.093
31
 101.259
39
 0
62
 5
 0
LINE
8
default
6
CONTINUOUS
10
-362.635
20
 207.182
30
 102.139
11
-363.314
21
 201.093
31
 101.259
39
 0
62
 5
 0
LINE
8
default
6
CONTINUOUS
10
 363.314
20
 201.093
30
 101.259
11
 363.985
21
 194.938
31
 100.388
39
 0
62
 5
 0
LINE
8
default
6
CONTINUOUS
10
-363.314
20
 201.093
30
 101.259
11
-363.985
21
 194.938
31
 100.388
39
 0
62
 5
 0
LINE
8
default
6
CONTINUOUS
10
 363.985
20
 194.938
30
 100.388
11
 364.645
21
 188.738
31
  99.531
39
 0
62
 5
 0
LINE
8
default
6
CONTINUOUS
10
-363.985
20
 194.938
30
 100.388
11
-364.645
21
 188.738
31
  99.531
39
 0
62
 5
 0
LINE
8
default
6
CONTINUOUS
10
 364.645
20
 188.738
30
  99.531
11
 365.292
21
 182.514
31
  98.690
39
 0
62
 5
 0
LINE
8
default
6
CONTINUOUS
10
-364.645
20
 188.738
30
  99.531
11
-365.292
21
 182.514
31
  98.690
39
 0
62
 5
 0
LINE
8
default
6
CONTINUOUS
10
 365.292
20
 182.514
30
  98.690
11
 365.927
21
 176.281
31
  97.866
39
 0
62
 5
 0
LINE
8
default
6
CONTINUOUS
10
-365.292
20
 182.514
30
  98.690
11
-365.927
21
 176.281
31
  97.866
39
 0
62
 5
 0
LINE
8
default
6
CONTINUOUS
10
 365.927
20
 176.281
30
  97.866
11
 366.543
21
 170.060
31
  97.066
39
 0
62
 5
 0
LINE
8
default
6
CONTINUOUS
10
-365.927
20
 176.281
30
  97.866
11
-366.543
21
 170.060
31
  97.066
39
 0
62
 5
 0
LINE
8
default
6
CONTINUOUS
10
 366.543
20
 170.060
30
  97.066
11
 367.140
21
 163.866
31
  96.291
39
 0
62
 5
 0
LINE
8
default
6
CONTINUOUS
10
-366.543
20
 170.060
30
  97.066
11
-367.140
21
 163.866
31
  96.291
39
 0
62
 5
 0
LINE
8
default
6
CONTINUOUS
10
 367.140
20
 163.866
30
  96.291
11
 367.715
21
 157.716
31
  95.545
39
 0
62
 5
 0
LINE
8
default
6
CONTINUOUS
10
-367.140
20
 163.866
30
  96.291
11
-367.715
21
 157.716
31
  95.545
39
 0
62
 5
 0
LINE
8
default
6
CONTINUOUS
10
 367.715
20
 157.716
30
  95.545
11
 368.267
21
 151.622
31
  94.827
39
 0
62
 5
 0
LINE
8
default
6
CONTINUOUS
10
-367.715
20
 157.716
30
  95.545
11
-368.267
21
 151.622
31
  94.827
39
 0
62
 5
 0
LINE
8
default
6
CONTINUOUS
10
 368.267
20
 151.622
30
  94.827
11
 368.796
21
 145.598
31
  94.141
39
 0
62
 5
 0
LINE
8
default
6
CONTINUOUS
10
-368.267
20
 151.622
30
  94.827
11
-368.796
21
 145.598
31
  94.141
39
 0
62
 5
 0
LINE
8
default
6
CONTINUOUS
10
 368.796
20
 145.598
30
  94.141
11
 369.296
21
 139.662
31
  93.492
39
 0
62
 5
 0
LINE
8
default
6
CONTINUOUS
10
-368.796
20
 145.598
30
  94.141
11
-369.296
21
 139.662
31
  93.492
39
 0
62
 5
 0
LINE
8
default
6
CONTINUOUS
10
 369.296
20
 139.662
30
  93.492
11
 369.765
21
 133.821
31
  92.883
39
 0
62
 5
 0
LINE
8
default
6
CONTINUOUS
10
-369.296
20
 139.662
30
  93.492
11
-369.765
21
 133.821
31
  92.883
39
 0
62
 5
 0
LINE
8
default
6
CONTINUOUS
10
 369.765
20
 133.821
30
  92.883
11
 370.201
21
 128.091
31
  92.316
39
 0
62
 5
 0
LINE
8
default
6
CONTINUOUS
10
-369.765
20
 133.821
30
  92.883
11
-370.201
21
 128.091
31
  92.316
39
 0
62
 5
 0
LINE
8
default
6
CONTINUOUS
10
 370.201
20
 128.091
30
  92.316
11
 370.603
21
 122.483
31
  91.795
39
 0
62
 5
 0
LINE
8
default
6
CONTINUOUS
10
-370.201
20
 128.091
30
  92.316
11
-370.603
21
 122.483
31
  91.795
39
 0
62
 5
 0
LINE
8
default
6
CONTINUOUS
10
 370.603
20
 122.483
30
  91.795
11
 370.967
21
 117.010
31
  91.322
39
 0
62
 5
 0
LINE
8
default
6
CONTINUOUS
10
-370.603
20
 122.483
30
  91.795
11
-370.967
21
 117.010
31
  91.322
39
 0
62
 5
 0
LINE
8
default
6
CONTINUOUS
10
 370.967
20
 117.010
30
  91.322
11
 371.290
21
 111.680
31
  90.903
39
 0
62
 5
 0
LINE
8
default
6
CONTINUOUS
10
-370.967
20
 117.010
30
  91.322
11
-371.290
21
 111.680
31
  90.903
39
 0
62
 5
 0
LINE
8
default
6
CONTINUOUS
10
 371.290
20
 111.680
30
  90.903
11
 371.568
21
 106.503
31
  90.542
39
 0
62
 5
 0
LINE
8
default
6
CONTINUOUS
10
-371.290
20
 111.680
30
  90.903
11
-371.568
21
 106.503
31
  90.542
39
 0
62
 5
 0
LINE
8
default
6
CONTINUOUS
10
 371.568
20
 106.503
30
  90.542
11
 371.800
21
 101.493
31
  90.241
39
 0
62
 5
 0
LINE
8
default
6
CONTINUOUS
10
-371.568
20
 106.503
30
  90.542
11
-371.800
21
 101.493
31
  90.241
39
 0
62
 5
 0
LINE
8
default
6
CONTINUOUS
10
 371.800
20
 101.493
30
  90.241
11
 371.969
21
  96.657
31
  90.021
39
 0
62
 5
 0
LINE
8
default
6
CONTINUOUS
10
-371.800
20
 101.493
30
  90.241
11
-371.969
21
  96.657
31
  90.021
39
 0
62
 5
 0
LINE
8
default
6
CONTINUOUS
10
 371.969
20
  96.657
30
  90.021
11
 372.058
21
  92.007
31
  89.906
39
 0
62
 5
 0
LINE
8
default
6
CONTINUOUS
10
-371.969
20
  96.657
30
  90.021
11
-372.058
21
  92.007
31
  89.906
39
 0
62
 5
 0
LINE
8
default
6
CONTINUOUS
10
 372.058
20
  92.007
30
  89.906
11
 372.050
21
  87.549
31
  89.917
39
 0
62
 5
 0
LINE
8
default
6
CONTINUOUS
10
-372.058
20
  92.007
30
  89.906
11
-372.050
21
  87.549
31
  89.917
39
 0
62
 5
 0
LINE
8
default
6
CONTINUOUS
10
 372.050
20
  87.549
30
  89.917
11
 371.931
21
  83.295
31
  90.070
39
 0
62
 5
 0
LINE
8
default
6
CONTINUOUS
10
-372.050
20
  87.549
30
  89.917
11
-371.931
21
  83.295
31
  90.070
39
 0
62
 5
 0
LINE
8
default
6
CONTINUOUS
10
 371.931
20
  83.295
30
  90.070
11
 371.694
21
  79.251
31
  90.378
39
 0
62
 5
 0
LINE
8
default
6
CONTINUOUS
10
-371.931
20
  83.295
30
  90.070
11
-371.694
21
  79.251
31
  90.378
39
 0
62
 5
 0
LINE
8
default
6
CONTINUOUS
10
 371.694
20
  79.251
30
  90.378
11
 371.329
21
  75.426
31
  90.852
39
 0
62
 5
 0
LINE
8
default
6
CONTINUOUS
10
-371.694
20
  79.251
30
  90.378
11
-371.329
21
  75.426
31
  90.852
39
 0
62
 5
 0
LINE
8
default
6
CONTINUOUS
10
 371.329
20
  75.426
30
  90.852
11
 370.830
21
  71.829
31
  91.500
39
 0
62
 5
 0
LINE
8
default
6
CONTINUOUS
10
-371.329
20
  75.426
30
  90.852
11
-370.830
21
  71.829
31
  91.500
39
 0
62
 5
 0
LINE
8
default
6
CONTINUOUS
10
 370.830
20
  71.829
30
  91.500
11
 370.198
21
  68.470
31
  92.321
39
 0
62
 5
 0
LINE
8
default
6
CONTINUOUS
10
-370.830
20
  71.829
30
  91.500
11
-370.198
21
  68.470
31
  92.321
39
 0
62
 5
 0
LINE
8
default
6
CONTINUOUS
10
 370.198
20
  68.470
30
  92.321
11
 369.438
21
  65.357
31
  93.307
39
 0
62
 5
 0
LINE
8
default
6
CONTINUOUS
10
-370.198
20
  68.470
30
  92.321
11
-369.438
21
  65.357
31
  93.307
39
 0
62
 5
 0
LINE
8
default
6
CONTINUOUS
10
 369.438
20
  65.357
30
  93.307
11
 368.566
21
  62.495
31
  94.439
39
 0
62
 5
 0
LINE
8
default
6
CONTINUOUS
10
-369.438
20
  65.357
30
  93.307
11
-368.566
21
  62.495
31
  94.439
39
 0
62
 5
 0
LINE
8
default
6
CONTINUOUS
10
 368.566
20
  62.495
30
  94.439
11
 367.601
21
  59.899
31
  95.693
39
 0
62
 5
 0
LINE
8
default
6
CONTINUOUS
10
-368.566
20
  62.495
30
  94.439
11
-367.601
21
  59.899
31
  95.693
39
 0
62
 5
 0
LINE
8
default
6
CONTINUOUS
10
 367.601
20
  59.899
30
  95.693
11
 366.559
21
  57.573
31
  97.045
39
 0
62
 5
 0
LINE
8
default
6
CONTINUOUS
10
-367.601
20
  59.899
30
  95.693
11
-366.559
21
  57.573
31
  97.045
39
 0
62
 5
 0
LINE
8
default
6
CONTINUOUS
10
 366.559
20
  57.573
30
  97.045
11
 365.466
21
  55.526
31
  98.464
39
 0
62
 5
 0
LINE
8
default
6
CONTINUOUS
10
-366.559
20
  57.573
30
  97.045
11
-365.466
21
  55.526
31
  98.464
39
 0
62
 5
 0
LINE
8
default
6
CONTINUOUS
10
 365.466
20
  55.526
30
  98.464
11
 364.338
21
  53.766
31
  99.929
39
 0
62
 5
 0
LINE
8
default
6
CONTINUOUS
10
-365.466
20
  55.526
30
  98.464
11
-364.338
21
  53.766
31
  99.929
39
 0
62
 5
 0
LINE
8
default
6
CONTINUOUS
10
 364.338
20
  53.766
30
  99.929
11
 363.180
21
  52.300
31
 101.432
39
 0
62
 5
 0
LINE
8
default
6
CONTINUOUS
10
-364.338
20
  53.766
30
  99.929
11
-363.180
21
  52.300
31
 101.432
39
 0
62
 5
 0
LINE
8
default
6
CONTINUOUS
10
 363.180
20
  52.300
30
 101.432
11
 362.060
21
  51.141
31
 102.887
39
 0
62
 5
 0
LINE
8
default
6
CONTINUOUS
10
-363.180
20
  52.300
30
 101.432
11
-362.060
21
  51.141
31
 102.887
39
 0
62
 5
 0
LINE
8
default
6
CONTINUOUS
10
 362.060
20
  51.141
30
 102.887
11
 360.785
21
  50.288
31
 104.542
39
 0
62
 5
 0
LINE
8
default
6
CONTINUOUS
10
-362.060
20
  51.141
30
 102.887
11
-360.785
21
  50.288
31
 104.542
39
 0
62
 5
 0
LINE
8
default
6
CONTINUOUS
10
 360.785
20
  50.288
30
 104.542
11
 359.680
21
  49.758
31
 105.977
39
 0
62
 5
 0
LINE
8
default
6
CONTINUOUS
10
-360.785
20
  50.288
30
 104.542
11
-359.680
21
  49.758
31
 105.977
39
 0
62
 5
 0
LINE
8
default
6
CONTINUOUS
10
 359.680
20
  49.758
30
 105.977
11
 358.368
21
  49.545
31
 107.680
39
 0
62
 5
 0
LINE
8
default
6
CONTINUOUS
10
-359.680
20
  49.758
30
 105.977
11
-358.368
21
  49.545
31
 107.680
39
 0
62
 5
 0
LINE
8
default
6
CONTINUOUS
10
 358.368
20
  49.545
30
 107.680
11
 357.540
21
  49.683
31
 108.755
39
 0
62
 5
 0
LINE
8
default
6
CONTINUOUS
10
-358.368
20
  49.545
30
 107.680
11
-357.540
21
  49.683
31
 108.755
39
 0
62
 5
 0
LINE
8
default
6
CONTINUOUS
10
 357.540
20
  49.683
30
 108.755
11
 356.733
21
  50.146
31
 109.803
39
 0
62
 5
 0
LINE
8
default
6
CONTINUOUS
10
-357.540
20
  49.683
30
 108.755
11
-356.733
21
  50.146
31
 109.803
39
 0
62
 5
 0
LINE
8
default
6
CONTINUOUS
10
 356.733
20
  50.146
30
 109.803
11
 356.047
21
  50.930
31
 110.693
39
 0
62
 5
 0
LINE
8
default
6
CONTINUOUS
10
-356.733
20
  50.146
30
 109.803
11
-356.047
21
  50.930
31
 110.693
39
 0
62
 5
 0
LINE
8
default
6
CONTINUOUS
10
 356.047
20
  50.930
30
 110.693
11
 355.304
21
  51.991
31
 111.658
39
 0
62
 5
 0
LINE
8
default
6
CONTINUOUS
10
-356.047
20
  50.930
30
 110.693
11
-355.304
21
  51.991
31
 111.658
39
 0
62
 5
 0
LINE
8
default
6
CONTINUOUS
10
 355.304
20
  51.991
30
 111.658
11
 355.281
21
  52.024
31
 111.689
39
 0
62
 1
 0
LINE
8
default
6
CONTINUOUS
10
-355.304
20
  51.991
30
 111.658
11
-355.281
21
  52.024
31
 111.689
39
 0
62
 1
 0
LINE
8
default
6
CONTINUOUS
10
 355.281
20
  52.024
30
 111.689
11
 354.623
21
  53.425
31
 112.542
39
 0
62
 1
 0
LINE
8
default
6
CONTINUOUS
10
-355.281
20
  52.024
30
 111.689
11
-354.623
21
  53.425
31
 112.542
39
 0
62
 1
 0
LINE
8
default
6
CONTINUOUS
10
 354.623
20
  53.425
30
 112.542
11
 353.922
21
  55.120
31
 113.453
39
 0
62
 1
 0
LINE
8
default
6
CONTINUOUS
10
-354.623
20
  53.425
30
 112.542
11
-353.922
21
  55.120
31
 113.453
39
 0
62
 1
 0
LINE
8
default
6
CONTINUOUS
10
 353.922
20
  55.120
30
 113.453
11
 353.263
21
  57.107
31
 114.308
39
 0
62
 1
 0
LINE
8
default
6
CONTINUOUS
10
-353.922
20
  55.120
30
 113.453
11
-353.263
21
  57.107
31
 114.308
39
 0
62
 1
 0
LINE
8
default
6
CONTINUOUS
10
 353.263
20
  57.107
30
 114.308
11
 352.621
21
  59.374
31
 115.142
39
 0
62
 1
 0
LINE
8
default
6
CONTINUOUS
10
-353.263
20
  57.107
30
 114.308
11
-352.621
21
  59.374
31
 115.142
39
 0
62
 1
 0
LINE
8
default
6
CONTINUOUS
10
 352.621
20
  59.374
30
 115.142
11
 352.220
21
  61.020
31
 115.662
39
 0
62
 1
 0
LINE
8
default
6
CONTINUOUS
10
-352.621
20
  59.374
30
 115.142
11
-352.220
21
  61.020
31
 115.662
39
 0
62
 1
 0
LINE
8
default
6
CONTINUOUS
10
 352.220
20
  61.020
30
 115.662
11
 352.001
21
  61.917
31
 115.946
39
 0
62
 3
 0
LINE
8
default
6
CONTINUOUS
10
-352.220
20
  61.020
30
 115.662
11
-352.001
21
  61.917
31
 115.946
39
 0
62
 3
 0
LINE
8
default
6
CONTINUOUS
10
 352.001
20
  61.917
30
 115.946
11
 351.415
21
  64.726
31
 116.707
39
 0
62
 3
 0
LINE
8
default
6
CONTINUOUS
10
-352.001
20
  61.917
30
 115.946
11
-351.415
21
  64.726
31
 116.707
39
 0
62
 3
 0
LINE
8
default
6
CONTINUOUS
10
 351.415
20
  64.726
30
 116.707
11
 350.871
21
  67.794
31
 117.414
39
 0
62
 3
 0
LINE
8
default
6
CONTINUOUS
10
-351.415
20
  64.726
30
 116.707
11
-350.871
21
  67.794
31
 117.414
39
 0
62
 3
 0
LINE
8
default
6
CONTINUOUS
10
 350.871
20
  67.794
30
 117.414
11
 350.375
21
  71.116
31
 118.058
39
 0
62
 3
 0
LINE
8
default
6
CONTINUOUS
10
-350.871
20
  67.794
30
 117.414
11
-350.375
21
  71.116
31
 118.058
39
 0
62
 3
 0
LINE
8
default
6
CONTINUOUS
10
 350.375
20
  71.116
30
 118.058
11
 349.934
21
  74.677
31
 118.630
39
 0
62
 3
 0
LINE
8
default
6
CONTINUOUS
10
-350.375
20
  71.116
30
 118.058
11
-349.934
21
  74.677
31
 118.630
39
 0
62
 3
 0
LINE
8
default
6
CONTINUOUS
10
 349.934
20
  74.677
30
 118.630
11
 349.551
21
  78.476
31
 119.127
39
 0
62
 3
 0
LINE
8
default
6
CONTINUOUS
10
-349.934
20
  74.677
30
 118.630
11
-349.551
21
  78.476
31
 119.127
39
 0
62
 3
 0
LINE
8
default
6
CONTINUOUS
10
 349.551
20
  78.476
30
 119.127
11
 349.233
21
  82.501
31
 119.540
39
 0
62
 3
 0
LINE
8
default
6
CONTINUOUS
10
-349.551
20
  78.476
30
 119.127
11
-349.233
21
  82.501
31
 119.540
39
 0
62
 3
 0
LINE
8
default
6
CONTINUOUS
10
 349.233
20
  82.501
30
 119.540
11
 348.978
21
  86.744
31
 119.871
39
 0
62
 3
 0
LINE
8
default
6
CONTINUOUS
10
-349.233
20
  82.501
30
 119.540
11
-348.978
21
  86.744
31
 119.871
39
 0
62
 3
 0
LINE
8
default
6
CONTINUOUS
10
 348.978
20
  86.744
30
 119.871
11
 348.787
21
  91.193
31
 120.120
39
 0
62
 3
 0
LINE
8
default
6
CONTINUOUS
10
-348.978
20
  86.744
30
 119.871
11
-348.787
21
  91.193
31
 120.120
39
 0
62
 3
 0
LINE
8
default
6
CONTINUOUS
10
 348.787
20
  91.193
30
 120.120
11
 348.659
21
  95.843
31
 120.285
39
 0
62
 3
 0
LINE
8
default
6
CONTINUOUS
10
-348.787
20
  91.193
30
 120.120
11
-348.659
21
  95.843
31
 120.285
39
 0
62
 3
 0
LINE
8
default
6
CONTINUOUS
10
 348.659
20
  95.843
30
 120.285
11
 348.589
21
 100.681
31
 120.377
39
 0
62
 3
 0
LINE
8
default
6
CONTINUOUS
10
-348.659
20
  95.843
30
 120.285
11
-348.589
21
 100.681
31
 120.377
39
 0
62
 3
 0
LINE
8
default
6
CONTINUOUS
10
 348.589
20
 100.681
30
 120.377
11
 348.572
21
 105.698
31
 120.399
39
 0
62
 3
 0
LINE
8
default
6
CONTINUOUS
10
-348.589
20
 100.681
30
 120.377
11
-348.572
21
 105.698
31
 120.399
39
 0
62
 3
 0
LINE
8
default
6
CONTINUOUS
10
 348.572
20
 105.698
30
 120.399
11
 348.607
21
 110.883
31
 120.353
39
 0
62
 3
 0
LINE
8
default
6
CONTINUOUS
10
-348.572
20
 105.698
30
 120.399
11
-348.607
21
 110.883
31
 120.353
39
 0
62
 3
 0
LINE
8
default
6
CONTINUOUS
10
 348.607
20
 110.883
30
 120.353
11
 348.690
21
 116.229
31
 120.246
39
 0
62
 3
 0
LINE
8
default
6
CONTINUOUS
10
-348.607
20
 110.883
30
 120.353
11
-348.690
21
 116.229
31
 120.246
39
 0
62
 3
 0
LINE
8
default
6
CONTINUOUS
10
 348.690
20
 116.229
30
 120.246
11
 348.816
21
 121.721
31
 120.082
39
 0
62
 3
 0
LINE
8
default
6
CONTINUOUS
10
-348.690
20
 116.229
30
 120.246
11
-348.816
21
 121.721
31
 120.082
39
 0
62
 3
 0
LINE
8
default
6
CONTINUOUS
10
 348.816
20
 121.721
30
 120.082
11
 348.985
21
 127.348
31
 119.863
39
 0
62
 3
 0
LINE
8
default
6
CONTINUOUS
10
-348.816
20
 121.721
30
 120.082
11
-348.985
21
 127.348
31
 119.863
39
 0
62
 3
 0
LINE
8
default
6
CONTINUOUS
10
 348.985
20
 127.348
30
 119.863
11
 349.188
21
 133.101
31
 119.599
39
 0
62
 3
 0
LINE
8
default
6
CONTINUOUS
10
-348.985
20
 127.348
30
 119.863
11
-349.188
21
 133.101
31
 119.599
39
 0
62
 3
 0
LINE
8
default
6
CONTINUOUS
10
 349.188
20
 133.101
30
 119.599
11
 349.426
21
 138.966
31
 119.290
39
 0
62
 3
 0
LINE
8
default
6
CONTINUOUS
10
-349.188
20
 133.101
30
 119.599
11
-349.426
21
 138.966
31
 119.290
39
 0
62
 3
 0
LINE
8
default
6
CONTINUOUS
10
 349.426
20
 138.966
30
 119.290
11
 349.693
21
 144.930
31
 118.943
39
 0
62
 3
 0
LINE
8
default
6
CONTINUOUS
10
-349.426
20
 138.966
30
 119.290
11
-349.693
21
 144.930
31
 118.943
39
 0
62
 3
 0
LINE
8
default
6
CONTINUOUS
10
 349.693
20
 144.930
30
 118.943
11
 349.981
21
 150.981
31
 118.570
39
 0
62
 3
 0
LINE
8
default
6
CONTINUOUS
10
-349.693
20
 144.930
30
 118.943
11
-349.981
21
 150.981
31
 118.570
39
 0
62
 3
 0
LINE
8
default
6
CONTINUOUS
10
 349.981
20
 150.981
30
 118.570
11
 350.291
21
 157.103
31
 118.167
39
 0
62
 3
 0
LINE
8
default
6
CONTINUOUS
10
-349.981
20
 150.981
30
 118.570
11
-350.291
21
 157.103
31
 118.167
39
 0
62
 3
 0
LINE
8
default
6
CONTINUOUS
10
 350.291
20
 157.103
30
 118.167
11
 350.629
21
 163.288
31
 117.728
39
 0
62
 3
 0
LINE
8
default
6
CONTINUOUS
10
-350.291
20
 157.103
30
 118.167
11
-350.629
21
 163.288
31
 117.728
39
 0
62
 3
 0
LINE
8
default
6
CONTINUOUS
10
 350.629
20
 163.288
30
 117.728
11
 350.991
21
 169.514
31
 117.258
39
 0
62
 3
 0
LINE
8
default
6
CONTINUOUS
10
-350.629
20
 163.288
30
 117.728
11
-350.991
21
 169.514
31
 117.258
39
 0
62
 3
 0
LINE
8
default
6
CONTINUOUS
10
 350.991
20
 169.514
30
 117.258
11
 351.369
21
 175.770
31
 116.767
39
 0
62
 3
 0
LINE
8
default
6
CONTINUOUS
10
-350.991
20
 169.514
30
 117.258
11
-351.369
21
 175.770
31
 116.767
39
 0
62
 3
 0
LINE
8
default
6
CONTINUOUS
10
 351.369
20
 175.770
30
 116.767
11
 351.758
21
 182.037
31
 116.262
39
 0
62
 3
 0
LINE
8
default
6
CONTINUOUS
10
-351.369
20
 175.770
30
 116.767
11
-351.758
21
 182.037
31
 116.262
39
 0
62
 3
 0
LINE
8
default
6
CONTINUOUS
10
 351.758
20
 182.037
30
 116.262
11
 352.149
21
 188.298
31
 115.754
39
 0
62
 3
 0
LINE
8
default
6
CONTINUOUS
10
-351.758
20
 182.037
30
 116.262
11
-352.149
21
 188.298
31
 115.754
39
 0
62
 3
 0
LINE
8
default
6
CONTINUOUS
10
 352.149
20
 188.298
30
 115.754
11
 352.536
21
 194.535
31
 115.252
39
 0
62
 3
 0
LINE
8
default
6
CONTINUOUS
10
-352.149
20
 188.298
30
 115.754
11
-352.536
21
 194.535
31
 115.252
39
 0
62
 3
 0
LINE
8
default
6
CONTINUOUS
10
 352.536
20
 194.535
30
 115.252
11
 352.910
21
 200.727
31
 114.767
39
 0
62
 3
 0
LINE
8
default
6
CONTINUOUS
10
-352.536
20
 194.535
30
 115.252
11
-352.910
21
 200.727
31
 114.767
39
 0
62
 3
 0
LINE
8
default
6
CONTINUOUS
10
 352.910
20
 200.727
30
 114.767
11
 353.264
21
 206.851
31
 114.307
39
 0
62
 3
 0
LINE
8
default
6
CONTINUOUS
10
-352.910
20
 200.727
30
 114.767
11
-353.264
21
 206.851
31
 114.307
39
 0
62
 3
 0
LINE
8
default
6
CONTINUOUS
10
 353.264
20
 206.851
30
 114.307
11
 353.593
21
 212.887
31
 113.879
39
 0
62
 3
 0
LINE
8
default
6
CONTINUOUS
10
-353.264
20
 206.851
30
 114.307
11
-353.593
21
 212.887
31
 113.879
39
 0
62
 3
 0
LINE
8
default
6
CONTINUOUS
10
 353.593
20
 212.887
30
 113.879
11
 353.895
21
 218.807
31
 113.488
39
 0
62
 3
 0
LINE
8
default
6
CONTINUOUS
10
-353.593
20
 212.887
30
 113.879
11
-353.895
21
 218.807
31
 113.488
39
 0
62
 3
 0
LINE
8
default
6
CONTINUOUS
10
 353.895
20
 218.807
30
 113.488
11
 354.167
21
 224.584
31
 113.134
39
 0
62
 3
 0
LINE
8
default
6
CONTINUOUS
10
-353.895
20
 218.807
30
 113.488
11
-354.167
21
 224.584
31
 113.134
39
 0
62
 3
 0
LINE
8
default
6
CONTINUOUS
10
 354.167
20
 224.584
30
 113.134
11
 354.413
21
 230.185
31
 112.815
39
 0
62
 3
 0
LINE
8
default
6
CONTINUOUS
10
-354.167
20
 224.584
30
 113.134
11
-354.413
21
 230.185
31
 112.815
39
 0
62
 3
 0
LINE
8
default
6
CONTINUOUS
10
 354.413
20
 230.185
30
 112.815
11
 354.637
21
 235.576
31
 112.524
39
 0
62
 3
 0
LINE
8
default
6
CONTINUOUS
10
-354.413
20
 230.185
30
 112.815
11
-354.637
21
 235.576
31
 112.524
39
 0
62
 3
 0
LINE
8
default
6
CONTINUOUS
10
 354.637
20
 235.576
30
 112.524
11
 354.846
21
 240.714
31
 112.253
39
 0
62
 3
 0
LINE
8
default
6
CONTINUOUS
10
-354.637
20
 235.576
30
 112.524
11
-354.846
21
 240.714
31
 112.253
39
 0
62
 3
 0
LINE
8
default
6
CONTINUOUS
10
 354.846
20
 240.714
30
 112.253
11
 355.040
21
 245.552
31
 112.001
39
 0
62
 3
 0
LINE
8
default
6
CONTINUOUS
10
-354.846
20
 240.714
30
 112.253
11
-355.040
21
 245.552
31
 112.001
39
 0
62
 3
 0
LINE
8
default
6
CONTINUOUS
10
 355.040
20
 245.552
30
 112.001
11
 355.220
21
 250.028
31
 111.767
39
 0
62
 3
 0
LINE
8
default
6
CONTINUOUS
10
-355.040
20
 245.552
30
 112.001
11
-355.220
21
 250.028
31
 111.767
39
 0
62
 3
 0
LINE
8
default
6
CONTINUOUS
10
 355.220
20
 250.028
30
 111.767
11
 355.388
21
 254.062
31
 111.549
39
 0
62
 3
 0
LINE
8
default
6
CONTINUOUS
10
-355.220
20
 250.028
30
 111.767
11
-355.388
21
 254.062
31
 111.549
39
 0
62
 3
 0
LINE
8
default
6
CONTINUOUS
10
 355.388
20
 254.062
30
 111.549
11
 355.539
21
 257.544
31
 111.353
39
 0
62
 3
 0
LINE
8
default
6
CONTINUOUS
10
-355.388
20
 254.062
30
 111.549
11
-355.539
21
 257.544
31
 111.353
39
 0
62
 3
 0
LINE
8
default
6
CONTINUOUS
10
 355.539
20
 257.544
30
 111.353
11
 355.663
21
 260.289
31
 111.192
39
 0
62
 3
 0
LINE
8
default
6
CONTINUOUS
10
-355.539
20
 257.544
30
 111.353
11
-355.663
21
 260.289
31
 111.192
39
 0
62
 3
 0
LINE
8
default
6
CONTINUOUS
10
 355.663
20
 260.289
30
 111.192
11
 355.733
21
 261.821
31
 111.101
39
 0
62
 3
 0
LINE
8
default
6
CONTINUOUS
10
-355.663
20
 260.289
30
 111.192
11
-355.733
21
 261.821
31
 111.101
39
 0
62
 3
 0
LINE
8
default
6
CONTINUOUS
10
 384.954
20
 255.056
30
 136.807
11
 385.181
21
 253.696
31
 136.571
39
 0
62
 5
 0
LINE
8
default
6
CONTINUOUS
10
-384.954
20
 255.056
30
 136.807
11
-385.181
21
 253.696
31
 136.571
39
 0
62
 5
 0
LINE
8
default
6
CONTINUOUS
10
 385.181
20
 253.696
30
 136.571
11
 385.583
21
 251.255
31
 136.150
39
 0
62
 5
 0
LINE
8
default
6
CONTINUOUS
10
-385.181
20
 253.696
30
 136.571
11
-385.583
21
 251.255
31
 136.150
39
 0
62
 5
 0
LINE
8
default
6
CONTINUOUS
10
 385.583
20
 251.255
30
 136.150
11
 386.085
21
 248.159
31
 135.627
39
 0
62
 5
 0
LINE
8
default
6
CONTINUOUS
10
-385.583
20
 251.255
30
 136.150
11
-386.085
21
 248.159
31
 135.627
39
 0
62
 5
 0
LINE
8
default
6
CONTINUOUS
10
 386.085
20
 248.159
30
 135.627
11
 386.655
21
 244.573
31
 135.032
39
 0
62
 5
 0
LINE
8
default
6
CONTINUOUS
10
-386.085
20
 248.159
30
 135.627
11
-386.655
21
 244.573
31
 135.032
39
 0
62
 5
 0
LINE
8
default
6
CONTINUOUS
10
 386.655
20
 244.573
30
 135.032
11
 387.274
21
 240.592
31
 134.386
39
 0
62
 5
 0
LINE
8
default
6
CONTINUOUS
10
-386.655
20
 244.573
30
 135.032
11
-387.274
21
 240.592
31
 134.386
39
 0
62
 5
 0
LINE
8
default
6
CONTINUOUS
10
 387.274
20
 240.592
30
 134.386
11
 387.929
21
 236.290
31
 133.702
39
 0
62
 5
 0
LINE
8
default
6
CONTINUOUS
10
-387.274
20
 240.592
30
 134.386
11
-387.929
21
 236.290
31
 133.702
39
 0
62
 5
 0
LINE
8
default
6
CONTINUOUS
10
 387.929
20
 236.290
30
 133.702
11
 388.609
21
 231.718
31
 132.993
39
 0
62
 5
 0
LINE
8
default
6
CONTINUOUS
10
-387.929
20
 236.290
30
 133.702
11
-388.609
21
 231.718
31
 132.993
39
 0
62
 5
 0
LINE
8
default
6
CONTINUOUS
10
 388.609
20
 231.718
30
 132.993
11
 389.307
21
 226.923
31
 132.264
39
 0
62
 5
 0
LINE
8
default
6
CONTINUOUS
10
-388.609
20
 231.718
30
 132.993
11
-389.307
21
 226.923
31
 132.264
39
 0
62
 5
 0
LINE
8
default
6
CONTINUOUS
10
 389.307
20
 226.923
30
 132.264
11
 390.017
21
 221.940
31
 131.523
39
 0
62
 5
 0
LINE
8
default
6
CONTINUOUS
10
-389.307
20
 226.923
30
 132.264
11
-390.017
21
 221.940
31
 131.523
39
 0
62
 5
 0
LINE
8
default
6
CONTINUOUS
10
 390.017
20
 221.940
30
 131.523
11
 390.734
21
 216.800
31
 130.775
39
 0
62
 5
 0
LINE
8
default
6
CONTINUOUS
10
-390.017
20
 221.940
30
 131.523
11
-390.734
21
 216.800
31
 130.775
39
 0
62
 5
 0
LINE
8
default
6
CONTINUOUS
10
 390.734
20
 216.800
30
 130.775
11
 391.452
21
 211.534
31
 130.025
39
 0
62
 5
 0
LINE
8
default
6
CONTINUOUS
10
-390.734
20
 216.800
30
 130.775
11
-391.452
21
 211.534
31
 130.025
39
 0
62
 5
 0
LINE
8
default
6
CONTINUOUS
10
 391.452
20
 211.534
30
 130.025
11
 392.171
21
 206.164
31
 129.275
39
 0
62
 5
 0
LINE
8
default
6
CONTINUOUS
10
-391.452
20
 211.534
30
 130.025
11
-392.171
21
 206.164
31
 129.275
39
 0
62
 5
 0
LINE
8
default
6
CONTINUOUS
10
 392.171
20
 206.164
30
 129.275
11
 392.882
21
 200.715
31
 128.532
39
 0
62
 5
 0
LINE
8
default
6
CONTINUOUS
10
-392.171
20
 206.164
30
 129.275
11
-392.882
21
 200.715
31
 128.532
39
 0
62
 5
 0
LINE
8
default
6
CONTINUOUS
10
 392.882
20
 200.715
30
 128.532
11
 393.587
21
 195.206
31
 127.797
39
 0
62
 5
 0
LINE
8
default
6
CONTINUOUS
10
-392.882
20
 200.715
30
 128.532
11
-393.587
21
 195.206
31
 127.797
39
 0
62
 5
 0
LINE
8
default
6
CONTINUOUS
10
 393.587
20
 195.206
30
 127.797
11
 394.281
21
 189.657
31
 127.073
39
 0
62
 5
 0
LINE
8
default
6
CONTINUOUS
10
-393.587
20
 195.206
30
 127.797
11
-394.281
21
 189.657
31
 127.073
39
 0
62
 5
 0
LINE
8
default
6
CONTINUOUS
10
 394.281
20
 189.657
30
 127.073
11
 394.962
21
 184.086
31
 126.362
39
 0
62
 5
 0
LINE
8
default
6
CONTINUOUS
10
-394.281
20
 189.657
30
 127.073
11
-394.962
21
 184.086
31
 126.362
39
 0
62
 5
 0
LINE
8
default
6
CONTINUOUS
10
 394.962
20
 184.086
30
 126.362
11
 395.630
21
 178.507
31
 125.665
39
 0
62
 5
 0
LINE
8
default
6
CONTINUOUS
10
-394.962
20
 184.086
30
 126.362
11
-395.630
21
 178.507
31
 125.665
39
 0
62
 5
 0
LINE
8
default
6
CONTINUOUS
10
 395.630
20
 178.507
30
 125.665
11
 396.279
21
 172.939
31
 124.987
39
 0
62
 5
 0
LINE
8
default
6
CONTINUOUS
10
-395.630
20
 178.507
30
 125.665
11
-396.279
21
 172.939
31
 124.987
39
 0
62
 5
 0
LINE
8
default
6
CONTINUOUS
10
 396.279
20
 172.939
30
 124.987
11
 396.909
21
 167.395
31
 124.330
39
 0
62
 5
 0
LINE
8
default
6
CONTINUOUS
10
-396.279
20
 172.939
30
 124.987
11
-396.909
21
 167.395
31
 124.330
39
 0
62
 5
 0
LINE
8
default
6
CONTINUOUS
10
 396.909
20
 167.395
30
 124.330
11
 397.516
21
 161.890
31
 123.696
39
 0
62
 5
 0
LINE
8
default
6
CONTINUOUS
10
-396.909
20
 167.395
30
 124.330
11
-397.516
21
 161.890
31
 123.696
39
 0
62
 5
 0
LINE
8
default
6
CONTINUOUS
10
 397.516
20
 161.890
30
 123.696
11
 398.100
21
 156.436
31
 123.087
39
 0
62
 5
 0
LINE
8
default
6
CONTINUOUS
10
-397.516
20
 161.890
30
 123.696
11
-398.100
21
 156.436
31
 123.087
39
 0
62
 5
 0
LINE
8
default
6
CONTINUOUS
10
 398.100
20
 156.436
30
 123.087
11
 398.659
21
 151.043
31
 122.503
39
 0
62
 5
 0
LINE
8
default
6
CONTINUOUS
10
-398.100
20
 156.436
30
 123.087
11
-398.659
21
 151.043
31
 122.503
39
 0
62
 5
 0
LINE
8
default
6
CONTINUOUS
10
 398.659
20
 151.043
30
 122.503
11
 399.190
21
 145.730
31
 121.950
39
 0
62
 5
 0
LINE
8
default
6
CONTINUOUS
10
-398.659
20
 151.043
30
 122.503
11
-399.190
21
 145.730
31
 121.950
39
 0
62
 5
 0
LINE
8
default
6
CONTINUOUS
10
 399.190
20
 145.730
30
 121.950
11
 399.688
21
 140.500
31
 121.429
39
 0
62
 5
 0
LINE
8
default
6
CONTINUOUS
10
-399.190
20
 145.730
30
 121.950
11
-399.688
21
 140.500
31
 121.429
39
 0
62
 5
 0
LINE
8
default
6
CONTINUOUS
10
 399.688
20
 140.500
30
 121.429
11
 400.153
21
 135.370
31
 120.944
39
 0
62
 5
 0
LINE
8
default
6
CONTINUOUS
10
-399.688
20
 140.500
30
 121.429
11
-400.153
21
 135.370
31
 120.944
39
 0
62
 5
 0
LINE
8
default
6
CONTINUOUS
10
 400.153
20
 135.370
30
 120.944
11
 400.582
21
 130.350
31
 120.497
39
 0
62
 5
 0
LINE
8
default
6
CONTINUOUS
10
-400.153
20
 135.370
30
 120.944
11
-400.582
21
 130.350
31
 120.497
39
 0
62
 5
 0
LINE
8
default
6
CONTINUOUS
10
 400.582
20
 130.350
30
 120.497
11
 400.973
21
 125.449
31
 120.089
39
 0
62
 5
 0
LINE
8
default
6
CONTINUOUS
10
-400.582
20
 130.350
30
 120.497
11
-400.973
21
 125.449
31
 120.089
39
 0
62
 5
 0
LINE
8
default
6
CONTINUOUS
10
 400.973
20
 125.449
30
 120.089
11
 401.320
21
 120.677
31
 119.726
39
 0
62
 5
 0
LINE
8
default
6
CONTINUOUS
10
-400.973
20
 125.449
30
 120.089
11
-401.320
21
 120.677
31
 119.726
39
 0
62
 5
 0
LINE
8
default
6
CONTINUOUS
10
 401.320
20
 120.677
30
 119.726
11
 401.622
21
 116.041
31
 119.410
39
 0
62
 5
 0
LINE
8
default
6
CONTINUOUS
10
-401.320
20
 120.677
30
 119.726
11
-401.622
21
 116.041
31
 119.410
39
 0
62
 5
 0
LINE
8
default
6
CONTINUOUS
10
 401.622
20
 116.041
30
 119.410
11
 401.877
21
 111.554
31
 119.145
39
 0
62
 5
 0
LINE
8
default
6
CONTINUOUS
10
-401.622
20
 116.041
30
 119.410
11
-401.877
21
 111.554
31
 119.145
39
 0
62
 5
 0
LINE
8
default
6
CONTINUOUS
10
 401.877
20
 111.554
30
 119.145
11
 402.066
21
 107.223
31
 118.947
39
 0
62
 5
 0
LINE
8
default
6
CONTINUOUS
10
-401.877
20
 111.554
30
 119.145
11
-402.066
21
 107.223
31
 118.947
39
 0
62
 5
 0
LINE
8
default
6
CONTINUOUS
10
 402.066
20
 107.223
30
 118.947
11
 402.174
21
 103.057
31
 118.835
39
 0
62
 5
 0
LINE
8
default
6
CONTINUOUS
10
-402.066
20
 107.223
30
 118.947
11
-402.174
21
 103.057
31
 118.835
39
 0
62
 5
 0
LINE
8
default
6
CONTINUOUS
10
 402.174
20
 103.057
30
 118.835
11
 402.183
21
  99.063
31
 118.826
39
 0
62
 5
 0
LINE
8
default
6
CONTINUOUS
10
-402.174
20
 103.057
30
 118.835
11
-402.183
21
  99.063
31
 118.826
39
 0
62
 5
 0
LINE
8
default
6
CONTINUOUS
10
 402.183
20
  99.063
30
 118.826
11
 402.078
21
  95.251
31
 118.934
39
 0
62
 5
 0
LINE
8
default
6
CONTINUOUS
10
-402.183
20
  99.063
30
 118.826
11
-402.078
21
  95.251
31
 118.934
39
 0
62
 5
 0
LINE
8
default
6
CONTINUOUS
10
 402.078
20
  95.251
30
 118.934
11
 401.852
21
  91.625
31
 119.170
39
 0
62
 5
 0
LINE
8
default
6
CONTINUOUS
10
-402.078
20
  95.251
30
 118.934
11
-401.852
21
  91.625
31
 119.170
39
 0
62
 5
 0
LINE
8
default
6
CONTINUOUS
10
 401.852
20
  91.625
30
 119.170
11
 401.496
21
  88.196
31
 119.542
39
 0
62
 5
 0
LINE
8
default
6
CONTINUOUS
10
-401.852
20
  91.625
30
 119.170
11
-401.496
21
  88.196
31
 119.542
39
 0
62
 5
 0
LINE
8
default
6
CONTINUOUS
10
 401.496
20
  88.196
30
 119.542
11
 401.002
21
  84.969
31
 120.057
39
 0
62
 5
 0
LINE
8
default
6
CONTINUOUS
10
-401.496
20
  88.196
30
 119.542
11
-401.002
21
  84.969
31
 120.057
39
 0
62
 5
 0
LINE
8
default
6
CONTINUOUS
10
 401.002
20
  84.969
30
 120.057
11
 400.373
21
  81.953
31
 120.715
39
 0
62
 5
 0
LINE
8
default
6
CONTINUOUS
10
-401.002
20
  84.969
30
 120.057
11
-400.373
21
  81.953
31
 120.715
39
 0
62
 5
 0
LINE
8
default
6
CONTINUOUS
10
 400.373
20
  81.953
30
 120.715
11
 399.613
21
  79.157
31
 121.508
39
 0
62
 5
 0
LINE
8
default
6
CONTINUOUS
10
-400.373
20
  81.953
30
 120.715
11
-399.613
21
  79.157
31
 121.508
39
 0
62
 5
 0
LINE
8
default
6
CONTINUOUS
10
 399.613
20
  79.157
30
 121.508
11
 398.738
21
  76.585
31
 122.420
39
 0
62
 5
 0
LINE
8
default
6
CONTINUOUS
10
-399.613
20
  79.157
30
 121.508
11
-398.738
21
  76.585
31
 122.420
39
 0
62
 5
 0
LINE
8
default
6
CONTINUOUS
10
 398.738
20
  76.585
30
 122.420
11
 397.767
21
  74.251
31
 123.434
39
 0
62
 5
 0
LINE
8
default
6
CONTINUOUS
10
-398.738
20
  76.585
30
 122.420
11
-397.767
21
  74.251
31
 123.434
39
 0
62
 5
 0
LINE
8
default
6
CONTINUOUS
10
 397.767
20
  74.251
30
 123.434
11
 396.718
21
  72.158
31
 124.529
39
 0
62
 5
 0
LINE
8
default
6
CONTINUOUS
10
-397.767
20
  74.251
30
 123.434
11
-396.718
21
  72.158
31
 124.529
39
 0
62
 5
 0
LINE
8
default
6
CONTINUOUS
10
 396.718
20
  72.158
30
 124.529
11
 395.616
21
  70.314
31
 125.680
39
 0
62
 5
 0
LINE
8
default
6
CONTINUOUS
10
-396.718
20
  72.158
30
 124.529
11
-395.616
21
  70.314
31
 125.680
39
 0
62
 5
 0
LINE
8
default
6
CONTINUOUS
10
 395.616
20
  70.314
30
 125.680
11
 394.475
21
  68.727
31
 126.870
39
 0
62
 5
 0
LINE
8
default
6
CONTINUOUS
10
-395.616
20
  70.314
30
 125.680
11
-394.475
21
  68.727
31
 126.870
39
 0
62
 5
 0
LINE
8
default
6
CONTINUOUS
10
 394.475
20
  68.727
30
 126.870
11
 393.306
21
  67.404
31
 128.091
39
 0
62
 5
 0
LINE
8
default
6
CONTINUOUS
10
-394.475
20
  68.727
30
 126.870
11
-393.306
21
  67.404
31
 128.091
39
 0
62
 5
 0
LINE
8
default
6
CONTINUOUS
10
 393.306
20
  67.404
30
 128.091
11
 392.171
21
  66.356
31
 129.274
39
 0
62
 5
 0
LINE
8
default
6
CONTINUOUS
10
-393.306
20
  67.404
30
 128.091
11
-392.171
21
  66.356
31
 129.274
39
 0
62
 5
 0
LINE
8
default
6
CONTINUOUS
10
 392.171
20
  66.356
30
 129.274
11
 390.880
21
  65.579
31
 130.623
39
 0
62
 5
 0
LINE
8
default
6
CONTINUOUS
10
-392.171
20
  66.356
30
 129.274
11
-390.880
21
  65.579
31
 130.623
39
 0
62
 5
 0
LINE
8
default
6
CONTINUOUS
10
 390.880
20
  65.579
30
 130.623
11
 389.759
21
  65.095
31
 131.792
39
 0
62
 5
 0
LINE
8
default
6
CONTINUOUS
10
-390.880
20
  65.579
30
 130.623
11
-389.759
21
  65.095
31
 131.792
39
 0
62
 5
 0
LINE
8
default
6
CONTINUOUS
10
 389.759
20
  65.095
30
 131.792
11
 388.428
21
  64.892
31
 133.182
39
 0
62
 5
 0
LINE
8
default
6
CONTINUOUS
10
-389.759
20
  65.095
30
 131.792
11
-388.428
21
  64.892
31
 133.182
39
 0
62
 5
 0
LINE
8
default
6
CONTINUOUS
10
 388.428
20
  64.892
30
 133.182
11
 387.586
21
  65.008
31
 134.061
39
 0
62
 5
 0
LINE
8
default
6
CONTINUOUS
10
-388.428
20
  64.892
30
 133.182
11
-387.586
21
  65.008
31
 134.061
39
 0
62
 5
 0
LINE
8
default
6
CONTINUOUS
10
 387.586
20
  65.008
30
 134.061
11
 386.764
21
  65.417
31
 134.918
39
 0
62
 5
 0
LINE
8
default
6
CONTINUOUS
10
-387.586
20
  65.008
30
 134.061
11
-386.764
21
  65.417
31
 134.918
39
 0
62
 5
 0
LINE
8
default
6
CONTINUOUS
10
 386.764
20
  65.417
30
 134.918
11
 386.065
21
  66.113
31
 135.648
39
 0
62
 5
 0
LINE
8
default
6
CONTINUOUS
10
-386.764
20
  65.417
30
 134.918
11
-386.065
21
  66.113
31
 135.648
39
 0
62
 5
 0
LINE
8
default
6
CONTINUOUS
10
 386.065
20
  66.113
30
 135.648
11
 385.306
21
  67.057
31
 136.440
39
 0
62
 5
 0
LINE
8
default
6
CONTINUOUS
10
-386.065
20
  66.113
30
 135.648
11
-385.306
21
  67.057
31
 136.440
39
 0
62
 5
 0
LINE
8
default
6
CONTINUOUS
10
 385.306
20
  67.057
30
 136.440
11
 385.282
21
  67.086
31
 136.465
39
 0
62
 1
 0
LINE
8
default
6
CONTINUOUS
10
-385.306
20
  67.057
30
 136.440
11
-385.282
21
  67.086
31
 136.465
39
 0
62
 1
 0
LINE
8
default
6
CONTINUOUS
10
 385.282
20
  67.086
30
 136.465
11
 384.609
21
  68.335
31
 137.168
39
 0
62
 1
 0
LINE
8
default
6
CONTINUOUS
10
-385.282
20
  67.086
30
 136.465
11
-384.609
21
  68.335
31
 137.168
39
 0
62
 1
 0
LINE
8
default
6
CONTINUOUS
10
 384.609
20
  68.335
30
 137.168
11
 383.890
21
  69.847
31
 137.918
39
 0
62
 1
 0
LINE
8
default
6
CONTINUOUS
10
-384.609
20
  68.335
30
 137.168
11
-383.890
21
  69.847
31
 137.918
39
 0
62
 1
 0
LINE
8
default
6
CONTINUOUS
10
 383.890
20
  69.847
30
 137.918
11
 383.214
21
  71.622
31
 138.624
39
 0
62
 1
 0
LINE
8
default
6
CONTINUOUS
10
-383.890
20
  69.847
30
 137.918
11
-383.214
21
  71.622
31
 138.624
39
 0
62
 1
 0
LINE
8
default
6
CONTINUOUS
10
 383.214
20
  71.622
30
 138.624
11
 382.553
21
  73.648
31
 139.313
39
 0
62
 1
 0
LINE
8
default
6
CONTINUOUS
10
-383.214
20
  71.622
30
 138.624
11
-382.553
21
  73.648
31
 139.313
39
 0
62
 1
 0
LINE
8
default
6
CONTINUOUS
10
 382.553
20
  73.648
30
 139.313
11
 382.139
21
  75.118
31
 139.745
39
 0
62
 1
 0
LINE
8
default
6
CONTINUOUS
10
-382.553
20
  73.648
30
 139.313
11
-382.139
21
  75.118
31
 139.745
39
 0
62
 1
 0
LINE
8
default
6
CONTINUOUS
10
 382.139
20
  75.118
30
 139.745
11
 381.913
21
  75.920
31
 139.981
39
 0
62
 3
 0
LINE
8
default
6
CONTINUOUS
10
-382.139
20
  75.118
30
 139.745
11
-381.913
21
  75.920
31
 139.981
39
 0
62
 3
 0
LINE
8
default
6
CONTINUOUS
10
 381.913
20
  75.920
30
 139.981
11
 381.308
21
  78.432
31
 140.612
39
 0
62
 3
 0
LINE
8
default
6
CONTINUOUS
10
-381.913
20
  75.920
30
 139.981
11
-381.308
21
  78.432
31
 140.612
39
 0
62
 3
 0
LINE
8
default
6
CONTINUOUS
10
 381.308
20
  78.432
30
 140.612
11
 380.743
21
  81.176
31
 141.202
39
 0
62
 3
 0
LINE
8
default
6
CONTINUOUS
10
-381.308
20
  78.432
30
 140.612
11
-380.743
21
  81.176
31
 141.202
39
 0
62
 3
 0
LINE
8
default
6
CONTINUOUS
10
 380.743
20
  81.176
30
 141.202
11
 380.227
21
  84.147
31
 141.741
39
 0
62
 3
 0
LINE
8
default
6
CONTINUOUS
10
-380.743
20
  81.176
30
 141.202
11
-380.227
21
  84.147
31
 141.741
39
 0
62
 3
 0
LINE
8
default
6
CONTINUOUS
10
 380.227
20
  84.147
30
 141.741
11
 379.766
21
  87.334
31
 142.222
39
 0
62
 3
 0
LINE
8
default
6
CONTINUOUS
10
-380.227
20
  84.147
30
 141.741
11
-379.766
21
  87.334
31
 142.222
39
 0
62
 3
 0
LINE
8
default
6
CONTINUOUS
10
 379.766
20
  87.334
30
 142.222
11
 379.363
21
  90.735
31
 142.643
39
 0
62
 3
 0
LINE
8
default
6
CONTINUOUS
10
-379.766
20
  87.334
30
 142.222
11
-379.363
21
  90.735
31
 142.643
39
 0
62
 3
 0
LINE
8
default
6
CONTINUOUS
10
 379.363
20
  90.735
30
 142.643
11
 379.024
21
  94.337
31
 142.996
39
 0
62
 3
 0
LINE
8
default
6
CONTINUOUS
10
-379.363
20
  90.735
30
 142.643
11
-379.024
21
  94.337
31
 142.996
39
 0
62
 3
 0
LINE
8
default
6
CONTINUOUS
10
 379.024
20
  94.337
30
 142.996
11
 378.750
21
  98.137
31
 143.283
39
 0
62
 3
 0
LINE
8
default
6
CONTINUOUS
10
-379.024
20
  94.337
30
 142.996
11
-378.750
21
  98.137
31
 143.283
39
 0
62
 3
 0
LINE
8
default
6
CONTINUOUS
10
 378.750
20
  98.137
30
 143.283
11
 378.539
21
 102.121
31
 143.503
39
 0
62
 3
 0
LINE
8
default
6
CONTINUOUS
10
-378.750
20
  98.137
30
 143.283
11
-378.539
21
 102.121
31
 143.503
39
 0
62
 3
 0
LINE
8
default
6
CONTINUOUS
10
 378.539
20
 102.121
30
 143.503
11
 378.391
21
 106.287
31
 143.657
39
 0
62
 3
 0
LINE
8
default
6
CONTINUOUS
10
-378.539
20
 102.121
30
 143.503
11
-378.391
21
 106.287
31
 143.657
39
 0
62
 3
 0
LINE
8
default
6
CONTINUOUS
10
 378.391
20
 106.287
30
 143.657
11
 378.302
21
 110.620
31
 143.750
39
 0
62
 3
 0
LINE
8
default
6
CONTINUOUS
10
-378.391
20
 106.287
30
 143.657
11
-378.302
21
 110.620
31
 143.750
39
 0
62
 3
 0
LINE
8
default
6
CONTINUOUS
10
 378.302
20
 110.620
30
 143.750
11
 378.266
21
 115.116
31
 143.788
39
 0
62
 3
 0
LINE
8
default
6
CONTINUOUS
10
-378.302
20
 110.620
30
 143.750
11
-378.266
21
 115.116
31
 143.788
39
 0
62
 3
 0
LINE
8
default
6
CONTINUOUS
10
 378.266
20
 115.116
30
 143.788
11
 378.282
21
 119.761
31
 143.771
39
 0
62
 3
 0
LINE
8
default
6
CONTINUOUS
10
-378.266
20
 115.116
30
 143.788
11
-378.282
21
 119.761
31
 143.771
39
 0
62
 3
 0
LINE
8
default
6
CONTINUOUS
10
 378.282
20
 119.761
30
 143.771
11
 378.346
21
 124.552
31
 143.704
39
 0
62
 3
 0
LINE
8
default
6
CONTINUOUS
10
-378.282
20
 119.761
30
 143.771
11
-378.346
21
 124.552
31
 143.704
39
 0
62
 3
 0
LINE
8
default
6
CONTINUOUS
10
 378.346
20
 124.552
30
 143.704
11
 378.454
21
 129.473
31
 143.592
39
 0
62
 3
 0
LINE
8
default
6
CONTINUOUS
10
-378.346
20
 124.552
30
 143.704
11
-378.454
21
 129.473
31
 143.592
39
 0
62
 3
 0
LINE
8
default
6
CONTINUOUS
10
 378.454
20
 129.473
30
 143.592
11
 378.604
21
 134.516
31
 143.435
39
 0
62
 3
 0
LINE
8
default
6
CONTINUOUS
10
-378.454
20
 129.473
30
 143.592
11
-378.604
21
 134.516
31
 143.435
39
 0
62
 3
 0
LINE
8
default
6
CONTINUOUS
10
 378.604
20
 134.516
30
 143.435
11
 378.789
21
 139.672
31
 143.242
39
 0
62
 3
 0
LINE
8
default
6
CONTINUOUS
10
-378.604
20
 134.516
30
 143.435
11
-378.789
21
 139.672
31
 143.242
39
 0
62
 3
 0
LINE
8
default
6
CONTINUOUS
10
 378.789
20
 139.672
30
 143.242
11
 379.009
21
 144.929
31
 143.012
39
 0
62
 3
 0
LINE
8
default
6
CONTINUOUS
10
-378.789
20
 139.672
30
 143.242
11
-379.009
21
 144.929
31
 143.012
39
 0
62
 3
 0
LINE
8
default
6
CONTINUOUS
10
 379.009
20
 144.929
30
 143.012
11
 379.257
21
 150.274
31
 142.753
39
 0
62
 3
 0
LINE
8
default
6
CONTINUOUS
10
-379.009
20
 144.929
30
 143.012
11
-379.257
21
 150.274
31
 142.753
39
 0
62
 3
 0
LINE
8
default
6
CONTINUOUS
10
 379.257
20
 150.274
30
 142.753
11
 379.527
21
 155.699
31
 142.471
39
 0
62
 3
 0
LINE
8
default
6
CONTINUOUS
10
-379.257
20
 150.274
30
 142.753
11
-379.527
21
 155.699
31
 142.471
39
 0
62
 3
 0
LINE
8
default
6
CONTINUOUS
10
 379.527
20
 155.699
30
 142.471
11
 379.819
21
 161.187
31
 142.167
39
 0
62
 3
 0
LINE
8
default
6
CONTINUOUS
10
-379.527
20
 155.699
30
 142.471
11
-379.819
21
 161.187
31
 142.167
39
 0
62
 3
 0
LINE
8
default
6
CONTINUOUS
10
 379.819
20
 161.187
30
 142.167
11
 380.139
21
 166.731
31
 141.833
39
 0
62
 3
 0
LINE
8
default
6
CONTINUOUS
10
-379.819
20
 161.187
30
 142.167
11
-380.139
21
 166.731
31
 141.833
39
 0
62
 3
 0
LINE
8
default
6
CONTINUOUS
10
 380.139
20
 166.731
30
 141.833
11
 380.483
21
 172.312
31
 141.473
39
 0
62
 3
 0
LINE
8
default
6
CONTINUOUS
10
-380.139
20
 166.731
30
 141.833
11
-380.483
21
 172.312
31
 141.473
39
 0
62
 3
 0
LINE
8
default
6
CONTINUOUS
10
 380.483
20
 172.312
30
 141.473
11
 380.844
21
 177.920
31
 141.096
39
 0
62
 3
 0
LINE
8
default
6
CONTINUOUS
10
-380.483
20
 172.312
30
 141.473
11
-380.844
21
 177.920
31
 141.096
39
 0
62
 3
 0
LINE
8
default
6
CONTINUOUS
10
 380.844
20
 177.920
30
 141.096
11
 381.216
21
 183.539
31
 140.709
39
 0
62
 3
 0
LINE
8
default
6
CONTINUOUS
10
-380.844
20
 177.920
30
 141.096
11
-381.216
21
 183.539
31
 140.709
39
 0
62
 3
 0
LINE
8
default
6
CONTINUOUS
10
 381.216
20
 183.539
30
 140.709
11
 381.590
21
 189.152
31
 140.318
39
 0
62
 3
 0
LINE
8
default
6
CONTINUOUS
10
-381.216
20
 183.539
30
 140.709
11
-381.590
21
 189.152
31
 140.318
39
 0
62
 3
 0
LINE
8
default
6
CONTINUOUS
10
 381.590
20
 189.152
30
 140.318
11
 381.959
21
 194.743
31
 139.933
39
 0
62
 3
 0
LINE
8
default
6
CONTINUOUS
10
-381.590
20
 189.152
30
 140.318
11
-381.959
21
 194.743
31
 139.933
39
 0
62
 3
 0
LINE
8
default
6
CONTINUOUS
10
 381.959
20
 194.743
30
 139.933
11
 382.316
21
 200.294
31
 139.561
39
 0
62
 3
 0
LINE
8
default
6
CONTINUOUS
10
-381.959
20
 194.743
30
 139.933
11
-382.316
21
 200.294
31
 139.561
39
 0
62
 3
 0
LINE
8
default
6
CONTINUOUS
10
 382.316
20
 200.294
30
 139.561
11
 382.652
21
 205.784
31
 139.209
39
 0
62
 3
 0
LINE
8
default
6
CONTINUOUS
10
-382.316
20
 200.294
30
 139.561
11
-382.652
21
 205.784
31
 139.209
39
 0
62
 3
 0
LINE
8
default
6
CONTINUOUS
10
 382.652
20
 205.784
30
 139.209
11
 382.964
21
 211.195
31
 138.884
39
 0
62
 3
 0
LINE
8
default
6
CONTINUOUS
10
-382.652
20
 205.784
30
 139.209
11
-382.964
21
 211.195
31
 138.884
39
 0
62
 3
 0
LINE
8
default
6
CONTINUOUS
10
 382.964
20
 211.195
30
 138.884
11
 383.248
21
 216.501
31
 138.588
39
 0
62
 3
 0
LINE
8
default
6
CONTINUOUS
10
-382.964
20
 211.195
30
 138.884
11
-383.248
21
 216.501
31
 138.588
39
 0
62
 3
 0
LINE
8
default
6
CONTINUOUS
10
 383.248
20
 216.501
30
 138.588
11
 383.504
21
 221.680
31
 138.321
39
 0
62
 3
 0
LINE
8
default
6
CONTINUOUS
10
-383.248
20
 216.501
30
 138.588
11
-383.504
21
 221.680
31
 138.321
39
 0
62
 3
 0
LINE
8
default
6
CONTINUOUS
10
 383.504
20
 221.680
30
 138.321
11
 383.732
21
 226.701
31
 138.083
39
 0
62
 3
 0
LINE
8
default
6
CONTINUOUS
10
-383.504
20
 221.680
30
 138.321
11
-383.732
21
 226.701
31
 138.083
39
 0
62
 3
 0
LINE
8
default
6
CONTINUOUS
10
 383.732
20
 226.701
30
 138.083
11
 383.940
21
 231.533
31
 137.866
39
 0
62
 3
 0
LINE
8
default
6
CONTINUOUS
10
-383.732
20
 226.701
30
 138.083
11
-383.940
21
 231.533
31
 137.866
39
 0
62
 3
 0
LINE
8
default
6
CONTINUOUS
10
 383.940
20
 231.533
30
 137.866
11
 384.132
21
 236.138
31
 137.665
39
 0
62
 3
 0
LINE
8
default
6
CONTINUOUS
10
-383.940
20
 231.533
30
 137.866
11
-384.132
21
 236.138
31
 137.665
39
 0
62
 3
 0
LINE
8
default
6
CONTINUOUS
10
 384.132
20
 236.138
30
 137.665
11
 384.311
21
 240.474
31
 137.478
39
 0
62
 3
 0
LINE
8
default
6
CONTINUOUS
10
-384.132
20
 236.138
30
 137.665
11
-384.311
21
 240.474
31
 137.478
39
 0
62
 3
 0
LINE
8
default
6
CONTINUOUS
10
 384.311
20
 240.474
30
 137.478
11
 384.477
21
 244.486
31
 137.305
39
 0
62
 3
 0
LINE
8
default
6
CONTINUOUS
10
-384.311
20
 240.474
30
 137.478
11
-384.477
21
 244.486
31
 137.305
39
 0
62
 3
 0
LINE
8
default
6
CONTINUOUS
10
 384.477
20
 244.486
30
 137.305
11
 384.632
21
 248.102
31
 137.143
39
 0
62
 3
 0
LINE
8
default
6
CONTINUOUS
10
-384.477
20
 244.486
30
 137.305
11
-384.632
21
 248.102
31
 137.143
39
 0
62
 3
 0
LINE
8
default
6
CONTINUOUS
10
 384.632
20
 248.102
30
 137.143
11
 384.773
21
 251.222
31
 136.996
39
 0
62
 3
 0
LINE
8
default
6
CONTINUOUS
10
-384.632
20
 248.102
30
 137.143
11
-384.773
21
 251.222
31
 136.996
39
 0
62
 3
 0
LINE
8
default
6
CONTINUOUS
10
 384.773
20
 251.222
30
 136.996
11
 384.889
21
 253.683
31
 136.875
39
 0
62
 3
 0
LINE
8
default
6
CONTINUOUS
10
-384.773
20
 251.222
30
 136.996
11
-384.889
21
 253.683
31
 136.875
39
 0
62
 3
 0
LINE
8
default
6
CONTINUOUS
10
 384.889
20
 253.683
30
 136.875
11
 384.954
21
 255.056
31
 136.807
39
 0
62
 3
 0
LINE
8
default
6
CONTINUOUS
10
-384.889
20
 253.683
30
 136.875
11
-384.954
21
 255.056
31
 136.807
39
 0
62
 3
 0
LINE
8
default
6
CONTINUOUS
10
 410.285
20
 247.339
30
 163.576
11
 410.506
21
 246.166
31
 163.387
39
 0
62
 5
 0
LINE
8
default
6
CONTINUOUS
10
-410.285
20
 247.339
30
 163.576
11
-410.506
21
 246.166
31
 163.387
39
 0
62
 5
 0
LINE
8
default
6
CONTINUOUS
10
 410.506
20
 246.166
30
 163.387
11
 410.901
21
 244.060
31
 163.052
39
 0
62
 5
 0
LINE
8
default
6
CONTINUOUS
10
-410.506
20
 246.166
30
 163.387
11
-410.901
21
 244.060
31
 163.052
39
 0
62
 5
 0
LINE
8
default
6
CONTINUOUS
10
 410.901
20
 244.060
30
 163.052
11
 411.393
21
 241.389
31
 162.634
39
 0
62
 5
 0
LINE
8
default
6
CONTINUOUS
10
-410.901
20
 244.060
30
 163.052
11
-411.393
21
 241.389
31
 162.634
39
 0
62
 5
 0
LINE
8
default
6
CONTINUOUS
10
 411.393
20
 241.389
30
 162.634
11
 411.952
21
 238.295
31
 162.159
39
 0
62
 5
 0
LINE
8
default
6
CONTINUOUS
10
-411.393
20
 241.389
30
 162.634
11
-411.952
21
 238.295
31
 162.159
39
 0
62
 5
 0
LINE
8
default
6
CONTINUOUS
10
 411.952
20
 238.295
30
 162.159
11
 412.560
21
 234.861
31
 161.642
39
 0
62
 5
 0
LINE
8
default
6
CONTINUOUS
10
-411.952
20
 238.295
30
 162.159
11
-412.560
21
 234.861
31
 161.642
39
 0
62
 5
 0
LINE
8
default
6
CONTINUOUS
10
 412.560
20
 234.861
30
 161.642
11
 413.203
21
 231.149
31
 161.095
39
 0
62
 5
 0
LINE
8
default
6
CONTINUOUS
10
-412.560
20
 234.861
30
 161.642
11
-413.203
21
 231.149
31
 161.095
39
 0
62
 5
 0
LINE
8
default
6
CONTINUOUS
10
 413.203
20
 231.149
30
 161.095
11
 413.872
21
 227.204
31
 160.527
39
 0
62
 5
 0
LINE
8
default
6
CONTINUOUS
10
-413.203
20
 231.149
30
 161.095
11
-413.872
21
 227.204
31
 160.527
39
 0
62
 5
 0
LINE
8
default
6
CONTINUOUS
10
 413.872
20
 227.204
30
 160.527
11
 414.559
21
 223.066
31
 159.943
39
 0
62
 5
 0
LINE
8
default
6
CONTINUOUS
10
-413.872
20
 227.204
30
 160.527
11
-414.559
21
 223.066
31
 159.943
39
 0
62
 5
 0
LINE
8
default
6
CONTINUOUS
10
 414.559
20
 223.066
30
 159.943
11
 415.258
21
 218.766
31
 159.349
39
 0
62
 5
 0
LINE
8
default
6
CONTINUOUS
10
-414.559
20
 223.066
30
 159.943
11
-415.258
21
 218.766
31
 159.349
39
 0
62
 5
 0
LINE
8
default
6
CONTINUOUS
10
 415.258
20
 218.766
30
 159.349
11
 415.964
21
 214.332
31
 158.749
39
 0
62
 5
 0
LINE
8
default
6
CONTINUOUS
10
-415.258
20
 218.766
30
 159.349
11
-415.964
21
 214.332
31
 158.749
39
 0
62
 5
 0
LINE
8
default
6
CONTINUOUS
10
 415.964
20
 214.332
30
 158.749
11
 416.672
21
 209.787
31
 158.147
39
 0
62
 5
 0
LINE
8
default
6
CONTINUOUS
10
-415.964
20
 214.332
30
 158.749
11
-416.672
21
 209.787
31
 158.147
39
 0
62
 5
 0
LINE
8
default
6
CONTINUOUS
10
 416.672
20
 209.787
30
 158.147
11
 417.381
21
 205.153
31
 157.545
39
 0
62
 5
 0
LINE
8
default
6
CONTINUOUS
10
-416.672
20
 209.787
30
 158.147
11
-417.381
21
 205.153
31
 157.545
39
 0
62
 5
 0
LINE
8
default
6
CONTINUOUS
10
 417.381
20
 205.153
30
 157.545
11
 418.084
21
 200.450
31
 156.947
39
 0
62
 5
 0
LINE
8
default
6
CONTINUOUS
10
-417.381
20
 205.153
30
 157.545
11
-418.084
21
 200.450
31
 156.947
39
 0
62
 5
 0
LINE
8
default
6
CONTINUOUS
10
 418.084
20
 200.450
30
 156.947
11
 418.780
21
 195.696
31
 156.355
39
 0
62
 5
 0
LINE
8
default
6
CONTINUOUS
10
-418.084
20
 200.450
30
 156.947
11
-418.780
21
 195.696
31
 156.355
39
 0
62
 5
 0
LINE
8
default
6
CONTINUOUS
10
 418.780
20
 195.696
30
 156.355
11
 419.467
21
 190.907
31
 155.772
39
 0
62
 5
 0
LINE
8
default
6
CONTINUOUS
10
-418.780
20
 195.696
30
 156.355
11
-419.467
21
 190.907
31
 155.772
39
 0
62
 5
 0
LINE
8
default
6
CONTINUOUS
10
 419.467
20
 190.907
30
 155.772
11
 420.141
21
 186.099
31
 155.199
39
 0
62
 5
 0
LINE
8
default
6
CONTINUOUS
10
-419.467
20
 190.907
30
 155.772
11
-420.141
21
 186.099
31
 155.199
39
 0
62
 5
 0
LINE
8
default
6
CONTINUOUS
10
 420.141
20
 186.099
30
 155.199
11
 420.802
21
 181.284
31
 154.637
39
 0
62
 5
 0
LINE
8
default
6
CONTINUOUS
10
-420.141
20
 186.099
30
 155.199
11
-420.802
21
 181.284
31
 154.637
39
 0
62
 5
 0
LINE
8
default
6
CONTINUOUS
10
 420.802
20
 181.284
30
 154.637
11
 421.447
21
 176.478
31
 154.089
39
 0
62
 5
 0
LINE
8
default
6
CONTINUOUS
10
-420.802
20
 181.284
30
 154.637
11
-421.447
21
 176.478
31
 154.089
39
 0
62
 5
 0
LINE
8
default
6
CONTINUOUS
10
 421.447
20
 176.478
30
 154.089
11
 422.071
21
 171.693
31
 153.558
39
 0
62
 5
 0
LINE
8
default
6
CONTINUOUS
10
-421.447
20
 176.478
30
 154.089
11
-422.071
21
 171.693
31
 153.558
39
 0
62
 5
 0
LINE
8
default
6
CONTINUOUS
10
 422.071
20
 171.693
30
 153.558
11
 422.675
21
 166.941
31
 153.045
39
 0
62
 5
 0
LINE
8
default
6
CONTINUOUS
10
-422.071
20
 171.693
30
 153.558
11
-422.675
21
 166.941
31
 153.045
39
 0
62
 5
 0
LINE
8
default
6
CONTINUOUS
10
 422.675
20
 166.941
30
 153.045
11
 423.256
21
 162.233
31
 152.551
39
 0
62
 5
 0
LINE
8
default
6
CONTINUOUS
10
-422.675
20
 166.941
30
 153.045
11
-423.256
21
 162.233
31
 152.551
39
 0
62
 5
 0
LINE
8
default
6
CONTINUOUS
10
 423.256
20
 162.233
30
 152.551
11
 423.814
21
 157.578
31
 152.077
39
 0
62
 5
 0
LINE
8
default
6
CONTINUOUS
10
-423.256
20
 162.233
30
 152.551
11
-423.814
21
 157.578
31
 152.077
39
 0
62
 5
 0
LINE
8
default
6
CONTINUOUS
10
 423.814
20
 157.578
30
 152.077
11
 424.343
21
 152.991
31
 151.627
39
 0
62
 5
 0
LINE
8
default
6
CONTINUOUS
10
-423.814
20
 157.578
30
 152.077
11
-424.343
21
 152.991
31
 151.627
39
 0
62
 5
 0
LINE
8
default
6
CONTINUOUS
10
 424.343
20
 152.991
30
 151.627
11
 424.842
21
 148.477
31
 151.204
39
 0
62
 5
 0
LINE
8
default
6
CONTINUOUS
10
-424.343
20
 152.991
30
 151.627
11
-424.842
21
 148.477
31
 151.204
39
 0
62
 5
 0
LINE
8
default
6
CONTINUOUS
10
 424.842
20
 148.477
30
 151.204
11
 425.308
21
 144.048
31
 150.807
39
 0
62
 5
 0
LINE
8
default
6
CONTINUOUS
10
-424.842
20
 148.477
30
 151.204
11
-425.308
21
 144.048
31
 150.807
39
 0
62
 5
 0
LINE
8
default
6
CONTINUOUS
10
 425.308
20
 144.048
30
 150.807
11
 425.740
21
 139.713
31
 150.440
39
 0
62
 5
 0
LINE
8
default
6
CONTINUOUS
10
-425.308
20
 144.048
30
 150.807
11
-425.740
21
 139.713
31
 150.440
39
 0
62
 5
 0
LINE
8
default
6
CONTINUOUS
10
 425.740
20
 139.713
30
 150.440
11
 426.135
21
 135.482
31
 150.105
39
 0
62
 5
 0
LINE
8
default
6
CONTINUOUS
10
-425.740
20
 139.713
30
 150.440
11
-426.135
21
 135.482
31
 150.105
39
 0
62
 5
 0
LINE
8
default
6
CONTINUOUS
10
 426.135
20
 135.482
30
 150.105
11
 426.488
21
 131.361
31
 149.804
39
 0
62
 5
 0
LINE
8
default
6
CONTINUOUS
10
-426.135
20
 135.482
30
 150.105
11
-426.488
21
 131.361
31
 149.804
39
 0
62
 5
 0
LINE
8
default
6
CONTINUOUS
10
 426.488
20
 131.361
30
 149.804
11
 426.797
21
 127.357
31
 149.542
39
 0
62
 5
 0
LINE
8
default
6
CONTINUOUS
10
-426.488
20
 131.361
30
 149.804
11
-426.797
21
 127.357
31
 149.542
39
 0
62
 5
 0
LINE
8
default
6
CONTINUOUS
10
 426.797
20
 127.357
30
 149.542
11
 427.060
21
 123.482
31
 149.318
39
 0
62
 5
 0
LINE
8
default
6
CONTINUOUS
10
-426.797
20
 127.357
30
 149.542
11
-427.060
21
 123.482
31
 149.318
39
 0
62
 5
 0
LINE
8
default
6
CONTINUOUS
10
 427.060
20
 123.482
30
 149.318
11
 427.261
21
 119.741
31
 149.148
39
 0
62
 5
 0
LINE
8
default
6
CONTINUOUS
10
-427.060
20
 123.482
30
 149.318
11
-427.261
21
 119.741
31
 149.148
39
 0
62
 5
 0
LINE
8
default
6
CONTINUOUS
10
 427.261
20
 119.741
30
 149.148
11
 427.383
21
 116.142
31
 149.044
39
 0
62
 5
 0
LINE
8
default
6
CONTINUOUS
10
-427.261
20
 119.741
30
 149.148
11
-427.383
21
 116.142
31
 149.044
39
 0
62
 5
 0
LINE
8
default
6
CONTINUOUS
10
 427.383
20
 116.142
30
 149.044
11
 427.410
21
 112.691
31
 149.021
39
 0
62
 5
 0
LINE
8
default
6
CONTINUOUS
10
-427.383
20
 116.142
30
 149.044
11
-427.410
21
 112.691
31
 149.021
39
 0
62
 5
 0
LINE
8
default
6
CONTINUOUS
10
 427.410
20
 112.691
30
 149.021
11
 427.328
21
 109.396
31
 149.091
39
 0
62
 5
 0
LINE
8
default
6
CONTINUOUS
10
-427.410
20
 112.691
30
 149.021
11
-427.328
21
 109.396
31
 149.091
39
 0
62
 5
 0
LINE
8
default
6
CONTINUOUS
10
 427.328
20
 109.396
30
 149.091
11
 427.130
21
 106.261
31
 149.259
39
 0
62
 5
 0
LINE
8
default
6
CONTINUOUS
10
-427.328
20
 109.396
30
 149.091
11
-427.130
21
 106.261
31
 149.259
39
 0
62
 5
 0
LINE
8
default
6
CONTINUOUS
10
 427.130
20
 106.261
30
 149.259
11
 426.807
21
 103.294
31
 149.533
39
 0
62
 5
 0
LINE
8
default
6
CONTINUOUS
10
-427.130
20
 106.261
30
 149.259
11
-426.807
21
 103.294
31
 149.533
39
 0
62
 5
 0
LINE
8
default
6
CONTINUOUS
10
 426.807
20
 103.294
30
 149.533
11
 426.352
21
 100.501
31
 149.920
39
 0
62
 5
 0
LINE
8
default
6
CONTINUOUS
10
-426.807
20
 103.294
30
 149.533
11
-426.352
21
 100.501
31
 149.920
39
 0
62
 5
 0
LINE
8
default
6
CONTINUOUS
10
 426.352
20
 100.501
30
 149.920
11
 425.767
21
  97.890
31
 150.417
39
 0
62
 5
 0
LINE
8
default
6
CONTINUOUS
10
-426.352
20
 100.501
30
 149.920
11
-425.767
21
  97.890
31
 150.417
39
 0
62
 5
 0
LINE
8
default
6
CONTINUOUS
10
 425.767
20
  97.890
30
 150.417
11
 425.057
21
  95.467
31
 151.021
39
 0
62
 5
 0
LINE
8
default
6
CONTINUOUS
10
-425.767
20
  97.890
30
 150.417
11
-425.057
21
  95.467
31
 151.021
39
 0
62
 5
 0
LINE
8
default
6
CONTINUOUS
10
 425.057
20
  95.467
30
 151.021
11
 424.236
21
  93.237
31
 151.718
39
 0
62
 5
 0
LINE
8
default
6
CONTINUOUS
10
-425.057
20
  95.467
30
 151.021
11
-424.236
21
  93.237
31
 151.718
39
 0
62
 5
 0
LINE
8
default
6
CONTINUOUS
10
 424.236
20
  93.237
30
 151.718
11
 423.323
21
  91.211
31
 152.495
39
 0
62
 5
 0
LINE
8
default
6
CONTINUOUS
10
-424.236
20
  93.237
30
 151.718
11
-423.323
21
  91.211
31
 152.495
39
 0
62
 5
 0
LINE
8
default
6
CONTINUOUS
10
 423.323
20
  91.211
30
 152.495
11
 422.334
21
  89.393
31
 153.335
39
 0
62
 5
 0
LINE
8
default
6
CONTINUOUS
10
-423.323
20
  91.211
30
 152.495
11
-422.334
21
  89.393
31
 153.335
39
 0
62
 5
 0
LINE
8
default
6
CONTINUOUS
10
 422.334
20
  89.393
30
 153.335
11
 421.293
21
  87.790
31
 154.220
39
 0
62
 5
 0
LINE
8
default
6
CONTINUOUS
10
-422.334
20
  89.393
30
 153.335
11
-421.293
21
  87.790
31
 154.220
39
 0
62
 5
 0
LINE
8
default
6
CONTINUOUS
10
 421.293
20
  87.790
30
 154.220
11
 420.216
21
  86.408
31
 155.135
39
 0
62
 5
 0
LINE
8
default
6
CONTINUOUS
10
-421.293
20
  87.790
30
 154.220
11
-420.216
21
  86.408
31
 155.135
39
 0
62
 5
 0
LINE
8
default
6
CONTINUOUS
10
 420.216
20
  86.408
30
 155.135
11
 419.108
21
  85.254
31
 156.077
39
 0
62
 5
 0
LINE
8
default
6
CONTINUOUS
10
-420.216
20
  86.408
30
 155.135
11
-419.108
21
  85.254
31
 156.077
39
 0
62
 5
 0
LINE
8
default
6
CONTINUOUS
10
 419.108
20
  85.254
30
 156.077
11
 418.034
21
  84.339
31
 156.990
39
 0
62
 5
 0
LINE
8
default
6
CONTINUOUS
10
-419.108
20
  85.254
30
 156.077
11
-418.034
21
  84.339
31
 156.990
39
 0
62
 5
 0
LINE
8
default
6
CONTINUOUS
10
 418.034
20
  84.339
30
 156.990
11
 416.808
21
  83.656
31
 158.032
39
 0
62
 5
 0
LINE
8
default
6
CONTINUOUS
10
-418.034
20
  84.339
30
 156.990
11
-416.808
21
  83.656
31
 158.032
39
 0
62
 5
 0
LINE
8
default
6
CONTINUOUS
10
 416.808
20
  83.656
30
 158.032
11
 415.743
21
  83.228
31
 158.936
39
 0
62
 5
 0
LINE
8
default
6
CONTINUOUS
10
-416.808
20
  83.656
30
 158.032
11
-415.743
21
  83.228
31
 158.936
39
 0
62
 5
 0
LINE
8
default
6
CONTINUOUS
10
 415.743
20
  83.228
30
 158.936
11
 414.477
21
  83.041
31
 160.012
39
 0
62
 5
 0
LINE
8
default
6
CONTINUOUS
10
-415.743
20
  83.228
30
 158.936
11
-414.477
21
  83.041
31
 160.012
39
 0
62
 5
 0
LINE
8
default
6
CONTINUOUS
10
 414.477
20
  83.041
30
 160.012
11
 413.675
21
  83.134
31
 160.694
39
 0
62
 5
 0
LINE
8
default
6
CONTINUOUS
10
-414.477
20
  83.041
30
 160.012
11
-413.675
21
  83.134
31
 160.694
39
 0
62
 5
 0
LINE
8
default
6
CONTINUOUS
10
 413.675
20
  83.134
30
 160.694
11
 412.892
21
  83.479
31
 161.360
39
 0
62
 5
 0
LINE
8
default
6
CONTINUOUS
10
-413.675
20
  83.134
30
 160.694
11
-412.892
21
  83.479
31
 161.360
39
 0
62
 5
 0
LINE
8
default
6
CONTINUOUS
10
 412.892
20
  83.479
30
 161.360
11
 412.223
21
  84.075
31
 161.929
39
 0
62
 5
 0
LINE
8
default
6
CONTINUOUS
10
-412.892
20
  83.479
30
 161.360
11
-412.223
21
  84.075
31
 161.929
39
 0
62
 5
 0
LINE
8
default
6
CONTINUOUS
10
 412.223
20
  84.075
30
 161.929
11
 411.496
21
  84.883
31
 162.546
39
 0
62
 5
 0
LINE
8
default
6
CONTINUOUS
10
-412.223
20
  84.075
30
 161.929
11
-411.496
21
  84.883
31
 162.546
39
 0
62
 5
 0
LINE
8
default
6
CONTINUOUS
10
 411.496
20
  84.883
30
 162.546
11
 411.473
21
  84.909
31
 162.566
39
 0
62
 1
 0
LINE
8
default
6
CONTINUOUS
10
-411.496
20
  84.883
30
 162.546
11
-411.473
21
  84.909
31
 162.566
39
 0
62
 1
 0
LINE
8
default
6
CONTINUOUS
10
 411.473
20
  84.909
30
 162.566
11
 410.827
21
  85.982
31
 163.115
39
 0
62
 1
 0
LINE
8
default
6
CONTINUOUS
10
-411.473
20
  84.909
30
 162.566
11
-410.827
21
  85.982
31
 163.115
39
 0
62
 1
 0
LINE
8
default
6
CONTINUOUS
10
 410.827
20
  85.982
30
 163.115
11
 410.135
21
  87.283
31
 163.703
39
 0
62
 1
 0
LINE
8
default
6
CONTINUOUS
10
-410.827
20
  85.982
30
 163.115
11
-410.135
21
  87.283
31
 163.703
39
 0
62
 1
 0
LINE
8
default
6
CONTINUOUS
10
 410.135
20
  87.283
30
 163.703
11
 409.484
21
  88.810
31
 164.257
39
 0
62
 1
 0
LINE
8
default
6
CONTINUOUS
10
-410.135
20
  87.283
30
 163.703
11
-409.484
21
  88.810
31
 164.257
39
 0
62
 1
 0
LINE
8
default
6
CONTINUOUS
10
 409.484
20
  88.810
30
 164.257
11
 408.845
21
  90.555
31
 164.799
39
 0
62
 1
 0
LINE
8
default
6
CONTINUOUS
10
-409.484
20
  88.810
30
 164.257
11
-408.845
21
  90.555
31
 164.799
39
 0
62
 1
 0
LINE
8
default
6
CONTINUOUS
10
 408.845
20
  90.555
30
 164.799
11
 408.444
21
  91.822
31
 165.140
39
 0
62
 1
 0
LINE
8
default
6
CONTINUOUS
10
-408.845
20
  90.555
30
 164.799
11
-408.444
21
  91.822
31
 165.140
39
 0
62
 1
 0
LINE
8
default
6
CONTINUOUS
10
 408.444
20
  91.822
30
 165.140
11
 408.226
21
  92.513
31
 165.325
39
 0
62
 3
 0
LINE
8
default
6
CONTINUOUS
10
-408.444
20
  91.822
30
 165.140
11
-408.226
21
  92.513
31
 165.325
39
 0
62
 3
 0
LINE
8
default
6
CONTINUOUS
10
 408.226
20
  92.513
30
 165.325
11
 407.638
21
  94.678
31
 165.825
39
 0
62
 3
 0
LINE
8
default
6
CONTINUOUS
10
-408.226
20
  92.513
30
 165.325
11
-407.638
21
  94.678
31
 165.825
39
 0
62
 3
 0
LINE
8
default
6
CONTINUOUS
10
 407.638
20
  94.678
30
 165.825
11
 407.088
21
  97.044
31
 166.293
39
 0
62
 3
 0
LINE
8
default
6
CONTINUOUS
10
-407.638
20
  94.678
30
 165.825
11
-407.088
21
  97.044
31
 166.293
39
 0
62
 3
 0
LINE
8
default
6
CONTINUOUS
10
 407.088
20
  97.044
30
 166.293
11
 406.582
21
  99.607
31
 166.722
39
 0
62
 3
 0
LINE
8
default
6
CONTINUOUS
10
-407.088
20
  97.044
30
 166.293
11
-406.582
21
  99.607
31
 166.722
39
 0
62
 3
 0
LINE
8
default
6
CONTINUOUS
10
 406.582
20
  99.607
30
 166.722
11
 406.129
21
 102.357
31
 167.108
39
 0
62
 3
 0
LINE
8
default
6
CONTINUOUS
10
-406.582
20
  99.607
30
 166.722
11
-406.129
21
 102.357
31
 167.108
39
 0
62
 3
 0
LINE
8
default
6
CONTINUOUS
10
 406.129
20
 102.357
30
 167.108
11
 405.729
21
 105.292
31
 167.447
39
 0
62
 3
 0
LINE
8
default
6
CONTINUOUS
10
-406.129
20
 102.357
30
 167.108
11
-405.729
21
 105.292
31
 167.447
39
 0
62
 3
 0
LINE
8
default
6
CONTINUOUS
10
 405.729
20
 105.292
30
 167.447
11
 405.390
21
 108.403
31
 167.735
39
 0
62
 3
 0
LINE
8
default
6
CONTINUOUS
10
-405.729
20
 105.292
30
 167.447
11
-405.390
21
 108.403
31
 167.735
39
 0
62
 3
 0
LINE
8
default
6
CONTINUOUS
10
 405.390
20
 108.403
30
 167.735
11
 405.111
21
 111.683
31
 167.973
39
 0
62
 3
 0
LINE
8
default
6
CONTINUOUS
10
-405.390
20
 108.403
30
 167.735
11
-405.111
21
 111.683
31
 167.973
39
 0
62
 3
 0
LINE
8
default
6
CONTINUOUS
10
 405.111
20
 111.683
30
 167.973
11
 404.892
21
 115.124
31
 168.159
39
 0
62
 3
 0
LINE
8
default
6
CONTINUOUS
10
-405.111
20
 111.683
30
 167.973
11
-404.892
21
 115.124
31
 168.159
39
 0
62
 3
 0
LINE
8
default
6
CONTINUOUS
10
 404.892
20
 115.124
30
 168.159
11
 404.732
21
 118.723
31
 168.295
39
 0
62
 3
 0
LINE
8
default
6
CONTINUOUS
10
-404.892
20
 115.124
30
 168.159
11
-404.732
21
 118.723
31
 168.295
39
 0
62
 3
 0
LINE
8
default
6
CONTINUOUS
10
 404.732
20
 118.723
30
 168.295
11
 404.627
21
 122.467
31
 168.384
39
 0
62
 3
 0
LINE
8
default
6
CONTINUOUS
10
-404.732
20
 118.723
30
 168.295
11
-404.627
21
 122.467
31
 168.384
39
 0
62
 3
 0
LINE
8
default
6
CONTINUOUS
10
 404.627
20
 122.467
30
 168.384
11
 404.571
21
 126.351
31
 168.431
39
 0
62
 3
 0
LINE
8
default
6
CONTINUOUS
10
-404.627
20
 122.467
30
 168.384
11
-404.571
21
 126.351
31
 168.431
39
 0
62
 3
 0
LINE
8
default
6
CONTINUOUS
10
 404.571
20
 126.351
30
 168.431
11
 404.565
21
 130.366
31
 168.436
39
 0
62
 3
 0
LINE
8
default
6
CONTINUOUS
10
-404.571
20
 126.351
30
 168.431
11
-404.565
21
 130.366
31
 168.436
39
 0
62
 3
 0
LINE
8
default
6
CONTINUOUS
10
 404.565
20
 130.366
30
 168.436
11
 404.604
21
 134.506
31
 168.404
39
 0
62
 3
 0
LINE
8
default
6
CONTINUOUS
10
-404.565
20
 130.366
30
 168.436
11
-404.604
21
 134.506
31
 168.404
39
 0
62
 3
 0
LINE
8
default
6
CONTINUOUS
10
 404.604
20
 134.506
30
 168.404
11
 404.683
21
 138.760
31
 168.336
39
 0
62
 3
 0
LINE
8
default
6
CONTINUOUS
10
-404.604
20
 134.506
30
 168.404
11
-404.683
21
 138.760
31
 168.336
39
 0
62
 3
 0
LINE
8
default
6
CONTINUOUS
10
 404.683
20
 138.760
30
 168.336
11
 404.803
21
 143.119
31
 168.235
39
 0
62
 3
 0
LINE
8
default
6
CONTINUOUS
10
-404.683
20
 138.760
30
 168.336
11
-404.803
21
 143.119
31
 168.235
39
 0
62
 3
 0
LINE
8
default
6
CONTINUOUS
10
 404.803
20
 143.119
30
 168.235
11
 404.955
21
 147.576
31
 168.106
39
 0
62
 3
 0
LINE
8
default
6
CONTINUOUS
10
-404.803
20
 143.119
30
 168.235
11
-404.955
21
 147.576
31
 168.106
39
 0
62
 3
 0
LINE
8
default
6
CONTINUOUS
10
 404.955
20
 147.576
30
 168.106
11
 405.139
21
 152.121
31
 167.949
39
 0
62
 3
 0
LINE
8
default
6
CONTINUOUS
10
-404.955
20
 147.576
30
 168.106
11
-405.139
21
 152.121
31
 167.949
39
 0
62
 3
 0
LINE
8
default
6
CONTINUOUS
10
 405.139
20
 152.121
30
 167.949
11
 405.351
21
 156.742
31
 167.769
39
 0
62
 3
 0
LINE
8
default
6
CONTINUOUS
10
-405.139
20
 152.121
30
 167.949
11
-405.351
21
 156.742
31
 167.769
39
 0
62
 3
 0
LINE
8
default
6
CONTINUOUS
10
 405.351
20
 156.742
30
 167.769
11
 405.582
21
 161.432
31
 167.572
39
 0
62
 3
 0
LINE
8
default
6
CONTINUOUS
10
-405.351
20
 156.742
30
 167.769
11
-405.582
21
 161.432
31
 167.572
39
 0
62
 3
 0
LINE
8
default
6
CONTINUOUS
10
 405.582
20
 161.432
30
 167.572
11
 405.835
21
 166.177
31
 167.358
39
 0
62
 3
 0
LINE
8
default
6
CONTINUOUS
10
-405.582
20
 161.432
30
 167.572
11
-405.835
21
 166.177
31
 167.358
39
 0
62
 3
 0
LINE
8
default
6
CONTINUOUS
10
 405.835
20
 166.177
30
 167.358
11
 406.114
21
 170.970
31
 167.121
39
 0
62
 3
 0
LINE
8
default
6
CONTINUOUS
10
-405.835
20
 166.177
30
 167.358
11
-406.114
21
 170.970
31
 167.121
39
 0
62
 3
 0
LINE
8
default
6
CONTINUOUS
10
 406.114
20
 170.970
30
 167.121
11
 406.415
21
 175.796
31
 166.864
39
 0
62
 3
 0
LINE
8
default
6
CONTINUOUS
10
-406.114
20
 170.970
30
 167.121
11
-406.415
21
 175.796
31
 166.864
39
 0
62
 3
 0
LINE
8
default
6
CONTINUOUS
10
 406.415
20
 175.796
30
 166.864
11
 406.733
21
 180.646
31
 166.595
39
 0
62
 3
 0
LINE
8
default
6
CONTINUOUS
10
-406.415
20
 175.796
30
 166.864
11
-406.733
21
 180.646
31
 166.595
39
 0
62
 3
 0
LINE
8
default
6
CONTINUOUS
10
 406.733
20
 180.646
30
 166.595
11
 407.060
21
 185.505
31
 166.316
39
 0
62
 3
 0
LINE
8
default
6
CONTINUOUS
10
-406.733
20
 180.646
30
 166.595
11
-407.060
21
 185.505
31
 166.316
39
 0
62
 3
 0
LINE
8
default
6
CONTINUOUS
10
 407.060
20
 185.505
30
 166.316
11
 407.390
21
 190.358
31
 166.036
39
 0
62
 3
 0
LINE
8
default
6
CONTINUOUS
10
-407.060
20
 185.505
30
 166.316
11
-407.390
21
 190.358
31
 166.036
39
 0
62
 3
 0
LINE
8
default
6
CONTINUOUS
10
 407.390
20
 190.358
30
 166.036
11
 407.715
21
 195.193
31
 165.760
39
 0
62
 3
 0
LINE
8
default
6
CONTINUOUS
10
-407.390
20
 190.358
30
 166.036
11
-407.715
21
 195.193
31
 165.760
39
 0
62
 3
 0
LINE
8
default
6
CONTINUOUS
10
 407.715
20
 195.193
30
 165.760
11
 408.029
21
 199.994
31
 165.493
39
 0
62
 3
 0
LINE
8
default
6
CONTINUOUS
10
-407.715
20
 195.193
30
 165.760
11
-408.029
21
 199.994
31
 165.493
39
 0
62
 3
 0
LINE
8
default
6
CONTINUOUS
10
 408.029
20
 199.994
30
 165.493
11
 408.324
21
 204.740
31
 165.242
39
 0
62
 3
 0
LINE
8
default
6
CONTINUOUS
10
-408.029
20
 199.994
30
 165.493
11
-408.324
21
 204.740
31
 165.242
39
 0
62
 3
 0
LINE
8
default
6
CONTINUOUS
10
 408.324
20
 204.740
30
 165.242
11
 408.595
21
 209.419
31
 165.011
39
 0
62
 3
 0
LINE
8
default
6
CONTINUOUS
10
-408.324
20
 204.740
30
 165.242
11
-408.595
21
 209.419
31
 165.011
39
 0
62
 3
 0
LINE
8
default
6
CONTINUOUS
10
 408.595
20
 209.419
30
 165.011
11
 408.840
21
 214.007
31
 164.803
39
 0
62
 3
 0
LINE
8
default
6
CONTINUOUS
10
-408.595
20
 209.419
30
 165.011
11
-408.840
21
 214.007
31
 164.803
39
 0
62
 3
 0
LINE
8
default
6
CONTINUOUS
10
 408.840
20
 214.007
30
 164.803
11
 409.060
21
 218.484
31
 164.617
39
 0
62
 3
 0
LINE
8
default
6
CONTINUOUS
10
-408.840
20
 214.007
30
 164.803
11
-409.060
21
 218.484
31
 164.617
39
 0
62
 3
 0
LINE
8
default
6
CONTINUOUS
10
 409.060
20
 218.484
30
 164.617
11
 409.253
21
 222.825
31
 164.452
39
 0
62
 3
 0
LINE
8
default
6
CONTINUOUS
10
-409.060
20
 218.484
30
 164.617
11
-409.253
21
 222.825
31
 164.452
39
 0
62
 3
 0
LINE
8
default
6
CONTINUOUS
10
 409.253
20
 222.825
30
 164.452
11
 409.429
21
 227.002
31
 164.303
39
 0
62
 3
 0
LINE
8
default
6
CONTINUOUS
10
-409.253
20
 222.825
30
 164.452
11
-409.429
21
 227.002
31
 164.303
39
 0
62
 3
 0
LINE
8
default
6
CONTINUOUS
10
 409.429
20
 227.002
30
 164.303
11
 409.590
21
 230.983
31
 164.166
39
 0
62
 3
 0
LINE
8
default
6
CONTINUOUS
10
-409.429
20
 227.002
30
 164.303
11
-409.590
21
 230.983
31
 164.166
39
 0
62
 3
 0
LINE
8
default
6
CONTINUOUS
10
 409.590
20
 230.983
30
 164.166
11
 409.740
21
 234.732
31
 164.038
39
 0
62
 3
 0
LINE
8
default
6
CONTINUOUS
10
-409.590
20
 230.983
30
 164.166
11
-409.740
21
 234.732
31
 164.038
39
 0
62
 3
 0
LINE
8
default
6
CONTINUOUS
10
 409.740
20
 234.732
30
 164.038
11
 409.880
21
 238.200
31
 163.920
39
 0
62
 3
 0
LINE
8
default
6
CONTINUOUS
10
-409.740
20
 234.732
30
 164.038
11
-409.880
21
 238.200
31
 163.920
39
 0
62
 3
 0
LINE
8
default
6
CONTINUOUS
10
 409.880
20
 238.200
30
 163.920
11
 410.011
21
 241.326
31
 163.809
39
 0
62
 3
 0
LINE
8
default
6
CONTINUOUS
10
-409.880
20
 238.200
30
 163.920
11
-410.011
21
 241.326
31
 163.809
39
 0
62
 3
 0
LINE
8
default
6
CONTINUOUS
10
 410.011
20
 241.326
30
 163.809
11
 410.130
21
 244.024
31
 163.707
39
 0
62
 3
 0
LINE
8
default
6
CONTINUOUS
10
-410.011
20
 241.326
30
 163.809
11
-410.130
21
 244.024
31
 163.707
39
 0
62
 3
 0
LINE
8
default
6
CONTINUOUS
10
 410.130
20
 244.024
30
 163.707
11
 410.229
21
 246.152
31
 163.623
39
 0
62
 3
 0
LINE
8
default
6
CONTINUOUS
10
-410.130
20
 244.024
30
 163.707
11
-410.229
21
 246.152
31
 163.623
39
 0
62
 3
 0
LINE
8
default
6
CONTINUOUS
10
 410.229
20
 246.152
30
 163.623
11
 410.285
21
 247.339
31
 163.576
39
 0
62
 3
 0
LINE
8
default
6
CONTINUOUS
10
-410.229
20
 246.152
30
 163.623
11
-410.285
21
 247.339
31
 163.576
39
 0
62
 3
 0
LINE
8
default
6
CONTINUOUS
10
 428.626
20
 239.093
30
 189.014
11
 428.839
21
 238.126
31
 188.888
39
 0
62
 5
 0
LINE
8
default
6
CONTINUOUS
10
-428.626
20
 239.093
30
 189.014
11
-428.839
21
 238.126
31
 188.888
39
 0
62
 5
 0
LINE
8
default
6
CONTINUOUS
10
 428.839
20
 238.126
30
 188.888
11
 429.220
21
 236.391
31
 188.665
39
 0
62
 5
 0
LINE
8
default
6
CONTINUOUS
10
-428.839
20
 238.126
30
 188.888
11
-429.220
21
 236.391
31
 188.665
39
 0
62
 5
 0
LINE
8
default
6
CONTINUOUS
10
 429.220
20
 236.391
30
 188.665
11
 429.694
21
 234.190
31
 188.386
39
 0
62
 5
 0
LINE
8
default
6
CONTINUOUS
10
-429.220
20
 236.391
30
 188.665
11
-429.694
21
 234.190
31
 188.386
39
 0
62
 5
 0
LINE
8
default
6
CONTINUOUS
10
 429.694
20
 234.190
30
 188.386
11
 430.234
21
 231.641
31
 188.069
39
 0
62
 5
 0
LINE
8
default
6
CONTINUOUS
10
-429.694
20
 234.190
30
 188.386
11
-430.234
21
 231.641
31
 188.069
39
 0
62
 5
 0
LINE
8
default
6
CONTINUOUS
10
 430.234
20
 231.641
30
 188.069
11
 430.821
21
 228.811
31
 187.725
39
 0
62
 5
 0
LINE
8
default
6
CONTINUOUS
10
-430.234
20
 231.641
30
 188.069
11
-430.821
21
 228.811
31
 187.725
39
 0
62
 5
 0
LINE
8
default
6
CONTINUOUS
10
 430.821
20
 228.811
30
 187.725
11
 431.443
21
 225.753
31
 187.359
39
 0
62
 5
 0
LINE
8
default
6
CONTINUOUS
10
-430.821
20
 228.811
30
 187.725
11
-431.443
21
 225.753
31
 187.359
39
 0
62
 5
 0
LINE
8
default
6
CONTINUOUS
10
 431.443
20
 225.753
30
 187.359
11
 432.089
21
 222.502
31
 186.979
39
 0
62
 5
 0
LINE
8
default
6
CONTINUOUS
10
-431.443
20
 225.753
30
 187.359
11
-432.089
21
 222.502
31
 186.979
39
 0
62
 5
 0
LINE
8
default
6
CONTINUOUS
10
 432.089
20
 222.502
30
 186.979
11
 432.754
21
 219.092
31
 186.589
39
 0
62
 5
 0
LINE
8
default
6
CONTINUOUS
10
-432.089
20
 222.502
30
 186.979
11
-432.754
21
 219.092
31
 186.589
39
 0
62
 5
 0
LINE
8
default
6
CONTINUOUS
10
 432.754
20
 219.092
30
 186.589
11
 433.431
21
 215.548
31
 186.191
39
 0
62
 5
 0
LINE
8
default
6
CONTINUOUS
10
-432.754
20
 219.092
30
 186.589
11
-433.431
21
 215.548
31
 186.191
39
 0
62
 5
 0
LINE
8
default
6
CONTINUOUS
10
 433.431
20
 215.548
30
 186.191
11
 434.115
21
 211.893
31
 185.789
39
 0
62
 5
 0
LINE
8
default
6
CONTINUOUS
10
-433.431
20
 215.548
30
 186.191
11
-434.115
21
 211.893
31
 185.789
39
 0
62
 5
 0
LINE
8
default
6
CONTINUOUS
10
 434.115
20
 211.893
30
 185.789
11
 434.803
21
 208.148
31
 185.385
39
 0
62
 5
 0
LINE
8
default
6
CONTINUOUS
10
-434.115
20
 211.893
30
 185.789
11
-434.803
21
 208.148
31
 185.385
39
 0
62
 5
 0
LINE
8
default
6
CONTINUOUS
10
 434.803
20
 208.148
30
 185.385
11
 435.491
21
 204.329
31
 184.981
39
 0
62
 5
 0
LINE
8
default
6
CONTINUOUS
10
-434.803
20
 208.148
30
 185.385
11
-435.491
21
 204.329
31
 184.981
39
 0
62
 5
 0
LINE
8
default
6
CONTINUOUS
10
 435.491
20
 204.329
30
 184.981
11
 436.174
21
 200.452
31
 184.580
39
 0
62
 5
 0
LINE
8
default
6
CONTINUOUS
10
-435.491
20
 204.329
30
 184.981
11
-436.174
21
 200.452
31
 184.580
39
 0
62
 5
 0
LINE
8
default
6
CONTINUOUS
10
 436.174
20
 200.452
30
 184.580
11
 436.851
21
 196.534
31
 184.183
39
 0
62
 5
 0
LINE
8
default
6
CONTINUOUS
10
-436.174
20
 200.452
30
 184.580
11
-436.851
21
 196.534
31
 184.183
39
 0
62
 5
 0
LINE
8
default
6
CONTINUOUS
10
 436.851
20
 196.534
30
 184.183
11
 437.519
21
 192.586
31
 183.790
39
 0
62
 5
 0
LINE
8
default
6
CONTINUOUS
10
-436.851
20
 196.534
30
 184.183
11
-437.519
21
 192.586
31
 183.790
39
 0
62
 5
 0
LINE
8
default
6
CONTINUOUS
10
 437.519
20
 192.586
30
 183.790
11
 438.175
21
 188.623
31
 183.405
39
 0
62
 5
 0
LINE
8
default
6
CONTINUOUS
10
-437.519
20
 192.586
30
 183.790
11
-438.175
21
 188.623
31
 183.405
39
 0
62
 5
 0
LINE
8
default
6
CONTINUOUS
10
 438.175
20
 188.623
30
 183.405
11
 438.821
21
 184.654
31
 183.026
39
 0
62
 5
 0
LINE
8
default
6
CONTINUOUS
10
-438.175
20
 188.623
30
 183.405
11
-438.821
21
 184.654
31
 183.026
39
 0
62
 5
 0
LINE
8
default
6
CONTINUOUS
10
 438.821
20
 184.654
30
 183.026
11
 439.449
21
 180.692
31
 182.656
39
 0
62
 5
 0
LINE
8
default
6
CONTINUOUS
10
-438.821
20
 184.654
30
 183.026
11
-439.449
21
 180.692
31
 182.656
39
 0
62
 5
 0
LINE
8
default
6
CONTINUOUS
10
 439.449
20
 180.692
30
 182.656
11
 440.060
21
 176.747
31
 182.298
39
 0
62
 5
 0
LINE
8
default
6
CONTINUOUS
10
-439.449
20
 180.692
30
 182.656
11
-440.060
21
 176.747
31
 182.298
39
 0
62
 5
 0
LINE
8
default
6
CONTINUOUS
10
 440.060
20
 176.747
30
 182.298
11
 440.650
21
 172.829
31
 181.951
39
 0
62
 5
 0
LINE
8
default
6
CONTINUOUS
10
-440.060
20
 176.747
30
 182.298
11
-440.650
21
 172.829
31
 181.951
39
 0
62
 5
 0
LINE
8
default
6
CONTINUOUS
10
 440.650
20
 172.829
30
 181.951
11
 441.220
21
 168.948
31
 181.617
39
 0
62
 5
 0
LINE
8
default
6
CONTINUOUS
10
-440.650
20
 172.829
30
 181.951
11
-441.220
21
 168.948
31
 181.617
39
 0
62
 5
 0
LINE
8
default
6
CONTINUOUS
10
 441.220
20
 168.948
30
 181.617
11
 441.766
21
 165.110
31
 181.295
39
 0
62
 5
 0
LINE
8
default
6
CONTINUOUS
10
-441.220
20
 168.948
30
 181.617
11
-441.766
21
 165.110
31
 181.295
39
 0
62
 5
 0
LINE
8
default
6
CONTINUOUS
10
 441.766
20
 165.110
30
 181.295
11
 442.287
21
 161.327
31
 180.990
39
 0
62
 5
 0
LINE
8
default
6
CONTINUOUS
10
-441.766
20
 165.110
30
 181.295
11
-442.287
21
 161.327
31
 180.990
39
 0
62
 5
 0
LINE
8
default
6
CONTINUOUS
10
 442.287
20
 161.327
30
 180.990
11
 442.778
21
 157.605
31
 180.701
39
 0
62
 5
 0
LINE
8
default
6
CONTINUOUS
10
-442.287
20
 161.327
30
 180.990
11
-442.778
21
 157.605
31
 180.701
39
 0
62
 5
 0
LINE
8
default
6
CONTINUOUS
10
 442.778
20
 157.605
30
 180.701
11
 443.238
21
 153.953
31
 180.431
39
 0
62
 5
 0
LINE
8
default
6
CONTINUOUS
10
-442.778
20
 157.605
30
 180.701
11
-443.238
21
 153.953
31
 180.431
39
 0
62
 5
 0
LINE
8
default
6
CONTINUOUS
10
 443.238
20
 153.953
30
 180.431
11
 443.666
21
 150.378
31
 180.180
39
 0
62
 5
 0
LINE
8
default
6
CONTINUOUS
10
-443.238
20
 153.953
30
 180.431
11
-443.666
21
 150.378
31
 180.180
39
 0
62
 5
 0
LINE
8
default
6
CONTINUOUS
10
 443.666
20
 150.378
30
 180.180
11
 444.058
21
 146.889
31
 179.949
39
 0
62
 5
 0
LINE
8
default
6
CONTINUOUS
10
-443.666
20
 150.378
30
 180.180
11
-444.058
21
 146.889
31
 179.949
39
 0
62
 5
 0
LINE
8
default
6
CONTINUOUS
10
 444.058
20
 146.889
30
 179.949
11
 444.411
21
 143.490
31
 179.742
39
 0
62
 5
 0
LINE
8
default
6
CONTINUOUS
10
-444.058
20
 146.889
30
 179.949
11
-444.411
21
 143.490
31
 179.742
39
 0
62
 5
 0
LINE
8
default
6
CONTINUOUS
10
 444.411
20
 143.490
30
 179.742
11
 444.722
21
 140.188
31
 179.559
39
 0
62
 5
 0
LINE
8
default
6
CONTINUOUS
10
-444.411
20
 143.490
30
 179.742
11
-444.722
21
 140.188
31
 179.559
39
 0
62
 5
 0
LINE
8
default
6
CONTINUOUS
10
 444.722
20
 140.188
30
 179.559
11
 444.990
21
 136.991
31
 179.402
39
 0
62
 5
 0
LINE
8
default
6
CONTINUOUS
10
-444.722
20
 140.188
30
 179.559
11
-444.990
21
 136.991
31
 179.402
39
 0
62
 5
 0
LINE
8
default
6
CONTINUOUS
10
 444.990
20
 136.991
30
 179.402
11
 445.198
21
 133.904
31
 179.280
39
 0
62
 5
 0
LINE
8
default
6
CONTINUOUS
10
-444.990
20
 136.991
30
 179.402
11
-445.198
21
 133.904
31
 179.280
39
 0
62
 5
 0
LINE
8
default
6
CONTINUOUS
10
 445.198
20
 133.904
30
 179.280
11
 445.332
21
 130.934
31
 179.201
39
 0
62
 5
 0
LINE
8
default
6
CONTINUOUS
10
-445.198
20
 133.904
30
 179.280
11
-445.332
21
 130.934
31
 179.201
39
 0
62
 5
 0
LINE
8
default
6
CONTINUOUS
10
 445.332
20
 130.934
30
 179.201
11
 445.376
21
 128.086
31
 179.175
39
 0
62
 5
 0
LINE
8
default
6
CONTINUOUS
10
-445.332
20
 130.934
30
 179.201
11
-445.376
21
 128.086
31
 179.175
39
 0
62
 5
 0
LINE
8
default
6
CONTINUOUS
10
 445.376
20
 128.086
30
 179.175
11
 445.319
21
 125.365
31
 179.209
39
 0
62
 5
 0
LINE
8
default
6
CONTINUOUS
10
-445.376
20
 128.086
30
 179.175
11
-445.319
21
 125.365
31
 179.209
39
 0
62
 5
 0
LINE
8
default
6
CONTINUOUS
10
 445.319
20
 125.365
30
 179.209
11
 445.151
21
 122.775
31
 179.307
39
 0
62
 5
 0
LINE
8
default
6
CONTINUOUS
10
-445.319
20
 125.365
30
 179.209
11
-445.151
21
 122.775
31
 179.307
39
 0
62
 5
 0
LINE
8
default
6
CONTINUOUS
10
 445.151
20
 122.775
30
 179.307
11
 444.866
21
 120.323
31
 179.475
39
 0
62
 5
 0
LINE
8
default
6
CONTINUOUS
10
-445.151
20
 122.775
30
 179.307
11
-444.866
21
 120.323
31
 179.475
39
 0
62
 5
 0
LINE
8
default
6
CONTINUOUS
10
 444.866
20
 120.323
30
 179.475
11
 444.457
21
 118.013
31
 179.715
39
 0
62
 5
 0
LINE
8
default
6
CONTINUOUS
10
-444.866
20
 120.323
30
 179.475
11
-444.457
21
 118.013
31
 179.715
39
 0
62
 5
 0
LINE
8
default
6
CONTINUOUS
10
 444.457
20
 118.013
30
 179.715
11
 443.925
21
 115.853
31
 180.028
39
 0
62
 5
 0
LINE
8
default
6
CONTINUOUS
10
-444.457
20
 118.013
30
 179.715
11
-443.925
21
 115.853
31
 180.028
39
 0
62
 5
 0
LINE
8
default
6
CONTINUOUS
10
 443.925
20
 115.853
30
 180.028
11
 443.275
21
 113.847
31
 180.409
39
 0
62
 5
 0
LINE
8
default
6
CONTINUOUS
10
-443.925
20
 115.853
30
 180.028
11
-443.275
21
 113.847
31
 180.409
39
 0
62
 5
 0
LINE
8
default
6
CONTINUOUS
10
 443.275
20
 113.847
30
 180.409
11
 442.521
21
 111.999
31
 180.852
39
 0
62
 5
 0
LINE
8
default
6
CONTINUOUS
10
-443.275
20
 113.847
30
 180.409
11
-442.521
21
 111.999
31
 180.852
39
 0
62
 5
 0
LINE
8
default
6
CONTINUOUS
10
 442.521
20
 111.999
30
 180.852
11
 441.679
21
 110.319
31
 181.347
39
 0
62
 5
 0
LINE
8
default
6
CONTINUOUS
10
-442.521
20
 111.999
30
 180.852
11
-441.679
21
 110.319
31
 181.347
39
 0
62
 5
 0
LINE
8
default
6
CONTINUOUS
10
 441.679
20
 110.319
30
 181.347
11
 440.766
21
 108.809
31
 181.883
39
 0
62
 5
 0
LINE
8
default
6
CONTINUOUS
10
-441.679
20
 110.319
30
 181.347
11
-440.766
21
 108.809
31
 181.883
39
 0
62
 5
 0
LINE
8
default
6
CONTINUOUS
10
 440.766
20
 108.809
30
 181.883
11
 439.802
21
 107.477
31
 182.449
39
 0
62
 5
 0
LINE
8
default
6
CONTINUOUS
10
-440.766
20
 108.809
30
 181.883
11
-439.802
21
 107.477
31
 182.449
39
 0
62
 5
 0
LINE
8
default
6
CONTINUOUS
10
 439.802
20
 107.477
30
 182.449
11
 438.803
21
 106.327
31
 183.036
39
 0
62
 5
 0
LINE
8
default
6
CONTINUOUS
10
-439.802
20
 107.477
30
 182.449
11
-438.803
21
 106.327
31
 183.036
39
 0
62
 5
 0
LINE
8
default
6
CONTINUOUS
10
 438.803
20
 106.327
30
 183.036
11
 437.775
21
 105.365
31
 183.640
39
 0
62
 5
 0
LINE
8
default
6
CONTINUOUS
10
-438.803
20
 106.327
30
 183.036
11
-437.775
21
 105.365
31
 183.640
39
 0
62
 5
 0
LINE
8
default
6
CONTINUOUS
10
 437.775
20
 105.365
30
 183.640
11
 436.777
21
 104.600
31
 184.226
39
 0
62
 5
 0
LINE
8
default
6
CONTINUOUS
10
-437.775
20
 105.365
30
 183.640
11
-436.777
21
 104.600
31
 184.226
39
 0
62
 5
 0
LINE
8
default
6
CONTINUOUS
10
 436.777
20
 104.600
30
 184.226
11
 435.635
21
 104.027
31
 184.897
39
 0
62
 5
 0
LINE
8
default
6
CONTINUOUS
10
-436.777
20
 104.600
30
 184.226
11
-435.635
21
 104.027
31
 184.897
39
 0
62
 5
 0
LINE
8
default
6
CONTINUOUS
10
 435.635
20
 104.027
30
 184.897
11
 434.644
21
 103.664
31
 185.479
39
 0
62
 5
 0
LINE
8
default
6
CONTINUOUS
10
-435.635
20
 104.027
30
 184.897
11
-434.644
21
 103.664
31
 185.479
39
 0
62
 5
 0
LINE
8
default
6
CONTINUOUS
10
 434.644
20
 103.664
30
 185.479
11
 433.462
21
 103.499
31
 186.173
39
 0
62
 5
 0
LINE
8
default
6
CONTINUOUS
10
-434.644
20
 103.664
30
 185.479
11
-433.462
21
 103.499
31
 186.173
39
 0
62
 5
 0
LINE
8
default
6
CONTINUOUS
10
 433.462
20
 103.499
30
 186.173
11
 432.712
21
 103.569
31
 186.614
39
 0
62
 5
 0
LINE
8
default
6
CONTINUOUS
10
-433.462
20
 103.499
30
 186.173
11
-432.712
21
 103.569
31
 186.614
39
 0
62
 5
 0
LINE
8
default
6
CONTINUOUS
10
 432.712
20
 103.569
30
 186.614
11
 431.978
21
 103.847
31
 187.045
39
 0
62
 5
 0
LINE
8
default
6
CONTINUOUS
10
-432.712
20
 103.569
30
 186.614
11
-431.978
21
 103.847
31
 187.045
39
 0
62
 5
 0
LINE
8
default
6
CONTINUOUS
10
 431.978
20
 103.847
30
 187.045
11
 431.350
21
 104.333
31
 187.414
39
 0
62
 5
 0
LINE
8
default
6
CONTINUOUS
10
-431.978
20
 103.847
30
 187.045
11
-431.350
21
 104.333
31
 187.414
39
 0
62
 5
 0
LINE
8
default
6
CONTINUOUS
10
 431.350
20
 104.333
30
 187.414
11
 430.666
21
 104.994
31
 187.815
39
 0
62
 5
 0
LINE
8
default
6
CONTINUOUS
10
-431.350
20
 104.333
30
 187.414
11
-430.666
21
 104.994
31
 187.815
39
 0
62
 5
 0
LINE
8
default
6
CONTINUOUS
10
 430.666
20
 104.994
30
 187.815
11
 430.645
21
 105.015
31
 187.828
39
 0
62
 1
 0
LINE
8
default
6
CONTINUOUS
10
-430.666
20
 104.994
30
 187.815
11
-430.645
21
 105.015
31
 187.828
39
 0
62
 1
 0
LINE
8
default
6
CONTINUOUS
10
 430.645
20
 105.015
30
 187.828
11
 430.035
21
 105.896
31
 188.186
39
 0
62
 1
 0
LINE
8
default
6
CONTINUOUS
10
-430.645
20
 105.015
30
 187.828
11
-430.035
21
 105.896
31
 188.186
39
 0
62
 1
 0
LINE
8
default
6
CONTINUOUS
10
 430.035
20
 105.896
30
 188.186
11
 429.382
21
 106.963
31
 188.570
39
 0
62
 1
 0
LINE
8
default
6
CONTINUOUS
10
-430.035
20
 105.896
30
 188.186
11
-429.382
21
 106.963
31
 188.570
39
 0
62
 1
 0
LINE
8
default
6
CONTINUOUS
10
 429.382
20
 106.963
30
 188.570
11
 428.765
21
 108.219
31
 188.932
39
 0
62
 1
 0
LINE
8
default
6
CONTINUOUS
10
-429.382
20
 106.963
30
 188.570
11
-428.765
21
 108.219
31
 188.932
39
 0
62
 1
 0
LINE
8
default
6
CONTINUOUS
10
 428.765
20
 108.219
30
 188.932
11
 428.158
21
 109.654
31
 189.288
39
 0
62
 1
 0
LINE
8
default
6
CONTINUOUS
10
-428.765
20
 108.219
30
 188.932
11
-428.158
21
 109.654
31
 189.288
39
 0
62
 1
 0
LINE
8
default
6
CONTINUOUS
10
 428.158
20
 109.654
30
 189.288
11
 427.777
21
 110.696
31
 189.512
39
 0
62
 1
 0
LINE
8
default
6
CONTINUOUS
10
-428.158
20
 109.654
30
 189.288
11
-427.777
21
 110.696
31
 189.512
39
 0
62
 1
 0
LINE
8
default
6
CONTINUOUS
10
 427.777
20
 110.696
30
 189.512
11
 427.569
21
 111.265
31
 189.634
39
 0
62
 3
 0
LINE
8
default
6
CONTINUOUS
10
-427.777
20
 110.696
30
 189.512
11
-427.569
21
 111.265
31
 189.634
39
 0
62
 3
 0
LINE
8
default
6
CONTINUOUS
10
 427.569
20
 111.265
30
 189.634
11
 427.008
21
 113.047
31
 189.964
39
 0
62
 3
 0
LINE
8
default
6
CONTINUOUS
10
-427.569
20
 111.265
30
 189.634
11
-427.008
21
 113.047
31
 189.964
39
 0
62
 3
 0
LINE
8
default
6
CONTINUOUS
10
 427.008
20
 113.047
30
 189.964
11
 426.480
21
 114.996
31
 190.274
39
 0
62
 3
 0
LINE
8
default
6
CONTINUOUS
10
-427.008
20
 113.047
30
 189.964
11
-426.480
21
 114.996
31
 190.274
39
 0
62
 3
 0
LINE
8
default
6
CONTINUOUS
10
 426.480
20
 114.996
30
 190.274
11
 425.994
21
 117.107
31
 190.560
39
 0
62
 3
 0
LINE
8
default
6
CONTINUOUS
10
-426.480
20
 114.996
30
 190.274
11
-425.994
21
 117.107
31
 190.560
39
 0
62
 3
 0
LINE
8
default
6
CONTINUOUS
10
 425.994
20
 117.107
30
 190.560
11
 425.555
21
 119.374
31
 190.818
39
 0
62
 3
 0
LINE
8
default
6
CONTINUOUS
10
-425.994
20
 117.107
30
 190.560
11
-425.555
21
 119.374
31
 190.818
39
 0
62
 3
 0
LINE
8
default
6
CONTINUOUS
10
 425.555
20
 119.374
30
 190.818
11
 425.165
21
 121.793
31
 191.047
39
 0
62
 3
 0
LINE
8
default
6
CONTINUOUS
10
-425.555
20
 119.374
30
 190.818
11
-425.165
21
 121.793
31
 191.047
39
 0
62
 3
 0
LINE
8
default
6
CONTINUOUS
10
 425.165
20
 121.793
30
 191.047
11
 424.831
21
 124.358
31
 191.243
39
 0
62
 3
 0
LINE
8
default
6
CONTINUOUS
10
-425.165
20
 121.793
30
 191.047
11
-424.831
21
 124.358
31
 191.243
39
 0
62
 3
 0
LINE
8
default
6
CONTINUOUS
10
 424.831
20
 124.358
30
 191.243
11
 424.552
21
 127.064
31
 191.407
39
 0
62
 3
 0
LINE
8
default
6
CONTINUOUS
10
-424.831
20
 124.358
30
 191.243
11
-424.552
21
 127.064
31
 191.407
39
 0
62
 3
 0
LINE
8
default
6
CONTINUOUS
10
 424.552
20
 127.064
30
 191.407
11
 424.328
21
 129.902
31
 191.538
39
 0
62
 3
 0
LINE
8
default
6
CONTINUOUS
10
-424.552
20
 127.064
30
 191.407
11
-424.328
21
 129.902
31
 191.538
39
 0
62
 3
 0
LINE
8
default
6
CONTINUOUS
10
 424.328
20
 129.902
30
 191.538
11
 424.159
21
 132.872
31
 191.638
39
 0
62
 3
 0
LINE
8
default
6
CONTINUOUS
10
-424.328
20
 129.902
30
 191.538
11
-424.159
21
 132.872
31
 191.638
39
 0
62
 3
 0
LINE
8
default
6
CONTINUOUS
10
 424.159
20
 132.872
30
 191.638
11
 424.039
21
 135.961
31
 191.708
39
 0
62
 3
 0
LINE
8
default
6
CONTINUOUS
10
-424.159
20
 132.872
30
 191.638
11
-424.039
21
 135.961
31
 191.708
39
 0
62
 3
 0
LINE
8
default
6
CONTINUOUS
10
 424.039
20
 135.961
30
 191.708
11
 423.966
21
 139.167
31
 191.751
39
 0
62
 3
 0
LINE
8
default
6
CONTINUOUS
10
-424.039
20
 135.961
30
 191.708
11
-423.966
21
 139.167
31
 191.751
39
 0
62
 3
 0
LINE
8
default
6
CONTINUOUS
10
 423.966
20
 139.167
30
 191.751
11
 423.938
21
 142.482
31
 191.767
39
 0
62
 3
 0
LINE
8
default
6
CONTINUOUS
10
-423.966
20
 139.167
30
 191.751
11
-423.938
21
 142.482
31
 191.767
39
 0
62
 3
 0
LINE
8
default
6
CONTINUOUS
10
 423.938
20
 142.482
30
 191.767
11
 423.951
21
 145.900
31
 191.760
39
 0
62
 3
 0
LINE
8
default
6
CONTINUOUS
10
-423.938
20
 142.482
30
 191.767
11
-423.951
21
 145.900
31
 191.760
39
 0
62
 3
 0
LINE
8
default
6
CONTINUOUS
10
 423.951
20
 145.900
30
 191.760
11
 424.001
21
 149.412
31
 191.730
39
 0
62
 3
 0
LINE
8
default
6
CONTINUOUS
10
-423.951
20
 145.900
30
 191.760
11
-424.001
21
 149.412
31
 191.730
39
 0
62
 3
 0
LINE
8
default
6
CONTINUOUS
10
 424.001
20
 149.412
30
 191.730
11
 424.088
21
 153.011
31
 191.679
39
 0
62
 3
 0
LINE
8
default
6
CONTINUOUS
10
-424.001
20
 149.412
30
 191.730
11
-424.088
21
 153.011
31
 191.679
39
 0
62
 3
 0
LINE
8
default
6
CONTINUOUS
10
 424.088
20
 153.011
30
 191.679
11
 424.205
21
 156.692
31
 191.610
39
 0
62
 3
 0
LINE
8
default
6
CONTINUOUS
10
-424.088
20
 153.011
30
 191.679
11
-424.205
21
 156.692
31
 191.610
39
 0
62
 3
 0
LINE
8
default
6
CONTINUOUS
10
 424.205
20
 156.692
30
 191.610
11
 424.352
21
 160.445
31
 191.524
39
 0
62
 3
 0
LINE
8
default
6
CONTINUOUS
10
-424.205
20
 156.692
30
 191.610
11
-424.352
21
 160.445
31
 191.524
39
 0
62
 3
 0
LINE
8
default
6
CONTINUOUS
10
 424.352
20
 160.445
30
 191.524
11
 424.524
21
 164.262
31
 191.423
39
 0
62
 3
 0
LINE
8
default
6
CONTINUOUS
10
-424.352
20
 160.445
30
 191.524
11
-424.524
21
 164.262
31
 191.423
39
 0
62
 3
 0
LINE
8
default
6
CONTINUOUS
10
 424.524
20
 164.262
30
 191.423
11
 424.714
21
 168.136
31
 191.312
39
 0
62
 3
 0
LINE
8
default
6
CONTINUOUS
10
-424.524
20
 164.262
30
 191.423
11
-424.714
21
 168.136
31
 191.312
39
 0
62
 3
 0
LINE
8
default
6
CONTINUOUS
10
 424.714
20
 168.136
30
 191.312
11
 424.923
21
 172.055
31
 191.189
39
 0
62
 3
 0
LINE
8
default
6
CONTINUOUS
10
-424.714
20
 168.136
30
 191.312
11
-424.923
21
 172.055
31
 191.189
39
 0
62
 3
 0
LINE
8
default
6
CONTINUOUS
10
 424.923
20
 172.055
30
 191.189
11
 425.157
21
 176.014
31
 191.051
39
 0
62
 3
 0
LINE
8
default
6
CONTINUOUS
10
-424.923
20
 172.055
30
 191.189
11
-425.157
21
 176.014
31
 191.051
39
 0
62
 3
 0
LINE
8
default
6
CONTINUOUS
10
 425.157
20
 176.014
30
 191.051
11
 425.412
21
 180.001
31
 190.902
39
 0
62
 3
 0
LINE
8
default
6
CONTINUOUS
10
-425.157
20
 176.014
30
 191.051
11
-425.412
21
 180.001
31
 190.902
39
 0
62
 3
 0
LINE
8
default
6
CONTINUOUS
10
 425.412
20
 180.001
30
 190.902
11
 425.681
21
 184.007
31
 190.744
39
 0
62
 3
 0
LINE
8
default
6
CONTINUOUS
10
-425.412
20
 180.001
30
 190.902
11
-425.681
21
 184.007
31
 190.744
39
 0
62
 3
 0
LINE
8
default
6
CONTINUOUS
10
 425.681
20
 184.007
30
 190.744
11
 425.959
21
 188.021
31
 190.580
39
 0
62
 3
 0
LINE
8
default
6
CONTINUOUS
10
-425.681
20
 184.007
30
 190.744
11
-425.959
21
 188.021
31
 190.580
39
 0
62
 3
 0
LINE
8
default
6
CONTINUOUS
10
 425.959
20
 188.021
30
 190.580
11
 426.240
21
 192.030
31
 190.415
39
 0
62
 3
 0
LINE
8
default
6
CONTINUOUS
10
-425.959
20
 188.021
30
 190.580
11
-426.240
21
 192.030
31
 190.415
39
 0
62
 3
 0
LINE
8
default
6
CONTINUOUS
10
 426.240
20
 192.030
30
 190.415
11
 426.517
21
 196.024
31
 190.252
39
 0
62
 3
 0
LINE
8
default
6
CONTINUOUS
10
-426.240
20
 192.030
30
 190.415
11
-426.517
21
 196.024
31
 190.252
39
 0
62
 3
 0
LINE
8
default
6
CONTINUOUS
10
 426.517
20
 196.024
30
 190.252
11
 426.783
21
 199.990
31
 190.096
39
 0
62
 3
 0
LINE
8
default
6
CONTINUOUS
10
-426.517
20
 196.024
30
 190.252
11
-426.783
21
 199.990
31
 190.096
39
 0
62
 3
 0
LINE
8
default
6
CONTINUOUS
10
 426.783
20
 199.990
30
 190.096
11
 427.032
21
 203.911
31
 189.950
39
 0
62
 3
 0
LINE
8
default
6
CONTINUOUS
10
-426.783
20
 199.990
30
 190.096
11
-427.032
21
 203.911
31
 189.950
39
 0
62
 3
 0
LINE
8
default
6
CONTINUOUS
10
 427.032
20
 203.911
30
 189.950
11
 427.260
21
 207.775
31
 189.816
39
 0
62
 3
 0
LINE
8
default
6
CONTINUOUS
10
-427.032
20
 203.911
30
 189.950
11
-427.260
21
 207.775
31
 189.816
39
 0
62
 3
 0
LINE
8
default
6
CONTINUOUS
10
 427.260
20
 207.775
30
 189.816
11
 427.463
21
 211.565
31
 189.697
39
 0
62
 3
 0
LINE
8
default
6
CONTINUOUS
10
-427.260
20
 207.775
30
 189.816
11
-427.463
21
 211.565
31
 189.697
39
 0
62
 3
 0
LINE
8
default
6
CONTINUOUS
10
 427.463
20
 211.565
30
 189.697
11
 427.643
21
 215.262
31
 189.591
39
 0
62
 3
 0
LINE
8
default
6
CONTINUOUS
10
-427.463
20
 211.565
30
 189.697
11
-427.643
21
 215.262
31
 189.591
39
 0
62
 3
 0
LINE
8
default
6
CONTINUOUS
10
 427.643
20
 215.262
30
 189.591
11
 427.800
21
 218.848
31
 189.499
39
 0
62
 3
 0
LINE
8
default
6
CONTINUOUS
10
-427.643
20
 215.262
30
 189.591
11
-427.800
21
 218.848
31
 189.499
39
 0
62
 3
 0
LINE
8
default
6
CONTINUOUS
10
 427.800
20
 218.848
30
 189.499
11
 427.940
21
 222.298
31
 189.417
39
 0
62
 3
 0
LINE
8
default
6
CONTINUOUS
10
-427.800
20
 218.848
30
 189.499
11
-427.940
21
 222.298
31
 189.417
39
 0
62
 3
 0
LINE
8
default
6
CONTINUOUS
10
 427.940
20
 222.298
30
 189.417
11
 428.069
21
 225.585
31
 189.341
39
 0
62
 3
 0
LINE
8
default
6
CONTINUOUS
10
-427.940
20
 222.298
30
 189.417
11
-428.069
21
 225.585
31
 189.341
39
 0
62
 3
 0
LINE
8
default
6
CONTINUOUS
10
 428.069
20
 225.585
30
 189.341
11
 428.188
21
 228.681
31
 189.271
39
 0
62
 3
 0
LINE
8
default
6
CONTINUOUS
10
-428.069
20
 225.585
30
 189.341
11
-428.188
21
 228.681
31
 189.271
39
 0
62
 3
 0
LINE
8
default
6
CONTINUOUS
10
 428.188
20
 228.681
30
 189.271
11
 428.299
21
 231.545
31
 189.206
39
 0
62
 3
 0
LINE
8
default
6
CONTINUOUS
10
-428.188
20
 228.681
30
 189.271
11
-428.299
21
 231.545
31
 189.206
39
 0
62
 3
 0
LINE
8
default
6
CONTINUOUS
10
 428.299
20
 231.545
30
 189.206
11
 428.404
21
 234.127
31
 189.144
39
 0
62
 3
 0
LINE
8
default
6
CONTINUOUS
10
-428.299
20
 231.545
30
 189.206
11
-428.404
21
 234.127
31
 189.144
39
 0
62
 3
 0
LINE
8
default
6
CONTINUOUS
10
 428.404
20
 234.127
30
 189.144
11
 428.500
21
 236.355
31
 189.088
39
 0
62
 3
 0
LINE
8
default
6
CONTINUOUS
10
-428.404
20
 234.127
30
 189.144
11
-428.500
21
 236.355
31
 189.088
39
 0
62
 3
 0
LINE
8
default
6
CONTINUOUS
10
 428.500
20
 236.355
30
 189.088
11
 428.580
21
 238.113
31
 189.041
39
 0
62
 3
 0
LINE
8
default
6
CONTINUOUS
10
-428.500
20
 236.355
30
 189.088
11
-428.580
21
 238.113
31
 189.041
39
 0
62
 3
 0
LINE
8
default
6
CONTINUOUS
10
 428.580
20
 238.113
30
 189.041
11
 428.626
21
 239.093
31
 189.014
39
 0
62
 3
 0
LINE
8
default
6
CONTINUOUS
10
-428.580
20
 238.113
30
 189.041
11
-428.626
21
 239.093
31
 189.014
39
 0
62
 3
 0
LINE
8
default
6
CONTINUOUS
10
 439.835
20
 230.593
30
 213.664
11
 440.022
21
 229.862
31
 213.612
39
 0
62
 5
 0
LINE
8
default
6
CONTINUOUS
10
-439.835
20
 230.593
30
 213.664
11
-440.022
21
 229.862
31
 213.612
39
 0
62
 5
 0
LINE
8
default
6
CONTINUOUS
10
 440.022
20
 229.862
30
 213.612
11
 440.356
21
 228.550
31
 213.520
39
 0
62
 5
 0
LINE
8
default
6
CONTINUOUS
10
-440.022
20
 229.862
30
 213.612
11
-440.356
21
 228.550
31
 213.520
39
 0
62
 5
 0
LINE
8
default
6
CONTINUOUS
10
 440.356
20
 228.550
30
 213.520
11
 440.772
21
 226.885
31
 213.404
39
 0
62
 5
 0
LINE
8
default
6
CONTINUOUS
10
-440.356
20
 228.550
30
 213.520
11
-440.772
21
 226.885
31
 213.404
39
 0
62
 5
 0
LINE
8
default
6
CONTINUOUS
10
 440.772
20
 226.885
30
 213.404
11
 441.246
21
 224.957
31
 213.272
39
 0
62
 5
 0
LINE
8
default
6
CONTINUOUS
10
-440.772
20
 226.885
30
 213.404
11
-441.246
21
 224.957
31
 213.272
39
 0
62
 5
 0
LINE
8
default
6
CONTINUOUS
10
 441.246
20
 224.957
30
 213.272
11
 441.762
21
 222.817
31
 213.129
39
 0
62
 5
 0
LINE
8
default
6
CONTINUOUS
10
-441.246
20
 224.957
30
 213.272
11
-441.762
21
 222.817
31
 213.129
39
 0
62
 5
 0
LINE
8
default
6
CONTINUOUS
10
 441.762
20
 222.817
30
 213.129
11
 442.309
21
 220.503
31
 212.977
39
 0
62
 5
 0
LINE
8
default
6
CONTINUOUS
10
-441.762
20
 222.817
30
 213.129
11
-442.309
21
 220.503
31
 212.977
39
 0
62
 5
 0
LINE
8
default
6
CONTINUOUS
10
 442.309
20
 220.503
30
 212.977
11
 442.878
21
 218.044
31
 212.819
39
 0
62
 5
 0
LINE
8
default
6
CONTINUOUS
10
-442.309
20
 220.503
30
 212.977
11
-442.878
21
 218.044
31
 212.819
39
 0
62
 5
 0
LINE
8
default
6
CONTINUOUS
10
 442.878
20
 218.044
30
 212.819
11
 443.463
21
 215.464
31
 212.656
39
 0
62
 5
 0
LINE
8
default
6
CONTINUOUS
10
-442.878
20
 218.044
30
 212.819
11
-443.463
21
 215.464
31
 212.656
39
 0
62
 5
 0
LINE
8
default
6
CONTINUOUS
10
 443.463
20
 215.464
30
 212.656
11
 444.060
21
 212.783
31
 212.490
39
 0
62
 5
 0
LINE
8
default
6
CONTINUOUS
10
-443.463
20
 215.464
30
 212.656
11
-444.060
21
 212.783
31
 212.490
39
 0
62
 5
 0
LINE
8
default
6
CONTINUOUS
10
 444.060
20
 212.783
30
 212.490
11
 444.663
21
 210.018
31
 212.322
39
 0
62
 5
 0
LINE
8
default
6
CONTINUOUS
10
-444.060
20
 212.783
30
 212.490
11
-444.663
21
 210.018
31
 212.322
39
 0
62
 5
 0
LINE
8
default
6
CONTINUOUS
10
 444.663
20
 210.018
30
 212.322
11
 445.271
21
 207.184
31
 212.153
39
 0
62
 5
 0
LINE
8
default
6
CONTINUOUS
10
-444.663
20
 210.018
30
 212.322
11
-445.271
21
 207.184
31
 212.153
39
 0
62
 5
 0
LINE
8
default
6
CONTINUOUS
10
 445.271
20
 207.184
30
 212.153
11
 445.878
21
 204.294
31
 211.984
39
 0
62
 5
 0
LINE
8
default
6
CONTINUOUS
10
-445.271
20
 207.184
30
 212.153
11
-445.878
21
 204.294
31
 211.984
39
 0
62
 5
 0
LINE
8
default
6
CONTINUOUS
10
 445.878
20
 204.294
30
 211.984
11
 446.482
21
 201.361
31
 211.817
39
 0
62
 5
 0
LINE
8
default
6
CONTINUOUS
10
-445.878
20
 204.294
30
 211.984
11
-446.482
21
 201.361
31
 211.817
39
 0
62
 5
 0
LINE
8
default
6
CONTINUOUS
10
 446.482
20
 201.361
30
 211.817
11
 447.082
21
 198.396
31
 211.650
39
 0
62
 5
 0
LINE
8
default
6
CONTINUOUS
10
-446.482
20
 201.361
30
 211.817
11
-447.082
21
 198.396
31
 211.650
39
 0
62
 5
 0
LINE
8
default
6
CONTINUOUS
10
 447.082
20
 198.396
30
 211.650
11
 447.673
21
 195.409
31
 211.485
39
 0
62
 5
 0
LINE
8
default
6
CONTINUOUS
10
-447.082
20
 198.396
30
 211.650
11
-447.673
21
 195.409
31
 211.485
39
 0
62
 5
 0
LINE
8
default
6
CONTINUOUS
10
 447.673
20
 195.409
30
 211.485
11
 448.255
21
 192.410
31
 211.324
39
 0
62
 5
 0
LINE
8
default
6
CONTINUOUS
10
-447.673
20
 195.409
30
 211.485
11
-448.255
21
 192.410
31
 211.324
39
 0
62
 5
 0
LINE
8
default
6
CONTINUOUS
10
 448.255
20
 192.410
30
 211.324
11
 448.828
21
 189.406
31
 211.164
39
 0
62
 5
 0
LINE
8
default
6
CONTINUOUS
10
-448.255
20
 192.410
30
 211.324
11
-448.828
21
 189.406
31
 211.164
39
 0
62
 5
 0
LINE
8
default
6
CONTINUOUS
10
 448.828
20
 189.406
30
 211.164
11
 449.386
21
 186.408
31
 211.009
39
 0
62
 5
 0
LINE
8
default
6
CONTINUOUS
10
-448.828
20
 189.406
30
 211.164
11
-449.386
21
 186.408
31
 211.009
39
 0
62
 5
 0
LINE
8
default
6
CONTINUOUS
10
 449.386
20
 186.408
30
 211.009
11
 449.929
21
 183.422
31
 210.858
39
 0
62
 5
 0
LINE
8
default
6
CONTINUOUS
10
-449.386
20
 186.408
30
 211.009
11
-449.929
21
 183.422
31
 210.858
39
 0
62
 5
 0
LINE
8
default
6
CONTINUOUS
10
 449.929
20
 183.422
30
 210.858
11
 450.455
21
 180.457
31
 210.712
39
 0
62
 5
 0
LINE
8
default
6
CONTINUOUS
10
-449.929
20
 183.422
30
 210.858
11
-450.455
21
 180.457
31
 210.712
39
 0
62
 5
 0
LINE
8
default
6
CONTINUOUS
10
 450.455
20
 180.457
30
 210.712
11
 450.963
21
 177.519
31
 210.571
39
 0
62
 5
 0
LINE
8
default
6
CONTINUOUS
10
-450.455
20
 180.457
30
 210.712
11
-450.963
21
 177.519
31
 210.571
39
 0
62
 5
 0
LINE
8
default
6
CONTINUOUS
10
 450.963
20
 177.519
30
 210.571
11
 451.452
21
 174.614
31
 210.435
39
 0
62
 5
 0
LINE
8
default
6
CONTINUOUS
10
-450.963
20
 177.519
30
 210.571
11
-451.452
21
 174.614
31
 210.435
39
 0
62
 5
 0
LINE
8
default
6
CONTINUOUS
10
 451.452
20
 174.614
30
 210.435
11
 451.917
21
 171.751
31
 210.306
39
 0
62
 5
 0
LINE
8
default
6
CONTINUOUS
10
-451.452
20
 174.614
30
 210.435
11
-451.917
21
 171.751
31
 210.306
39
 0
62
 5
 0
LINE
8
default
6
CONTINUOUS
10
 451.917
20
 171.751
30
 210.306
11
 452.358
21
 168.933
31
 210.183
39
 0
62
 5
 0
LINE
8
default
6
CONTINUOUS
10
-451.917
20
 171.751
30
 210.306
11
-452.358
21
 168.933
31
 210.183
39
 0
62
 5
 0
LINE
8
default
6
CONTINUOUS
10
 452.358
20
 168.933
30
 210.183
11
 452.772
21
 166.168
31
 210.068
39
 0
62
 5
 0
LINE
8
default
6
CONTINUOUS
10
-452.358
20
 168.933
30
 210.183
11
-452.772
21
 166.168
31
 210.068
39
 0
62
 5
 0
LINE
8
default
6
CONTINUOUS
10
 452.772
20
 166.168
30
 210.068
11
 453.157
21
 163.461
31
 209.961
39
 0
62
 5
 0
LINE
8
default
6
CONTINUOUS
10
-452.772
20
 166.168
30
 210.068
11
-453.157
21
 163.461
31
 209.961
39
 0
62
 5
 0
LINE
8
default
6
CONTINUOUS
10
 453.157
20
 163.461
30
 209.961
11
 453.513
21
 160.819
31
 209.862
39
 0
62
 5
 0
LINE
8
default
6
CONTINUOUS
10
-453.157
20
 163.461
30
 209.961
11
-453.513
21
 160.819
31
 209.862
39
 0
62
 5
 0
LINE
8
default
6
CONTINUOUS
10
 453.513
20
 160.819
30
 209.862
11
 453.834
21
 158.245
31
 209.773
39
 0
62
 5
 0
LINE
8
default
6
CONTINUOUS
10
-453.513
20
 160.819
30
 209.862
11
-453.834
21
 158.245
31
 209.773
39
 0
62
 5
 0
LINE
8
default
6
CONTINUOUS
10
 453.834
20
 158.245
30
 209.773
11
 454.119
21
 155.745
31
 209.694
39
 0
62
 5
 0
LINE
8
default
6
CONTINUOUS
10
-453.834
20
 158.245
30
 209.773
11
-454.119
21
 155.745
31
 209.694
39
 0
62
 5
 0
LINE
8
default
6
CONTINUOUS
10
 454.119
20
 155.745
30
 209.694
11
 454.367
21
 153.324
31
 209.625
39
 0
62
 5
 0
LINE
8
default
6
CONTINUOUS
10
-454.119
20
 155.745
30
 209.694
11
-454.367
21
 153.324
31
 209.625
39
 0
62
 5
 0
LINE
8
default
6
CONTINUOUS
10
 454.367
20
 153.324
30
 209.625
11
 454.564
21
 150.985
31
 209.570
39
 0
62
 5
 0
LINE
8
default
6
CONTINUOUS
10
-454.367
20
 153.324
30
 209.625
11
-454.564
21
 150.985
31
 209.570
39
 0
62
 5
 0
LINE
8
default
6
CONTINUOUS
10
 454.564
20
 150.985
30
 209.570
11
 454.697
21
 148.735
31
 209.533
39
 0
62
 5
 0
LINE
8
default
6
CONTINUOUS
10
-454.564
20
 150.985
30
 209.570
11
-454.697
21
 148.735
31
 209.533
39
 0
62
 5
 0
LINE
8
default
6
CONTINUOUS
10
 454.697
20
 148.735
30
 209.533
11
 454.753
21
 146.576
31
 209.517
39
 0
62
 5
 0
LINE
8
default
6
CONTINUOUS
10
-454.697
20
 148.735
30
 209.533
11
-454.753
21
 146.576
31
 209.517
39
 0
62
 5
 0
LINE
8
default
6
CONTINUOUS
10
 454.753
20
 146.576
30
 209.517
11
 454.722
21
 144.513
31
 209.526
39
 0
62
 5
 0
LINE
8
default
6
CONTINUOUS
10
-454.753
20
 146.576
30
 209.517
11
-454.722
21
 144.513
31
 209.526
39
 0
62
 5
 0
LINE
8
default
6
CONTINUOUS
10
 454.722
20
 144.513
30
 209.526
11
 454.597
21
 142.548
31
 209.561
39
 0
62
 5
 0
LINE
8
default
6
CONTINUOUS
10
-454.722
20
 144.513
30
 209.526
11
-454.597
21
 142.548
31
 209.561
39
 0
62
 5
 0
LINE
8
default
6
CONTINUOUS
10
 454.597
20
 142.548
30
 209.561
11
 454.372
21
 140.688
31
 209.623
39
 0
62
 5
 0
LINE
8
default
6
CONTINUOUS
10
-454.597
20
 142.548
30
 209.561
11
-454.372
21
 140.688
31
 209.623
39
 0
62
 5
 0
LINE
8
default
6
CONTINUOUS
10
 454.372
20
 140.688
30
 209.623
11
 454.040
21
 138.933
31
 209.716
39
 0
62
 5
 0
LINE
8
default
6
CONTINUOUS
10
-454.372
20
 140.688
30
 209.623
11
-454.040
21
 138.933
31
 209.716
39
 0
62
 5
 0
LINE
8
default
6
CONTINUOUS
10
 454.040
20
 138.933
30
 209.716
11
 453.604
21
 137.291
31
 209.837
39
 0
62
 5
 0
LINE
8
default
6
CONTINUOUS
10
-454.040
20
 138.933
30
 209.716
11
-453.604
21
 137.291
31
 209.837
39
 0
62
 5
 0
LINE
8
default
6
CONTINUOUS
10
 453.604
20
 137.291
30
 209.837
11
 453.066
21
 135.765
31
 209.986
39
 0
62
 5
 0
LINE
8
default
6
CONTINUOUS
10
-453.604
20
 137.291
30
 209.837
11
-453.066
21
 135.765
31
 209.986
39
 0
62
 5
 0
LINE
8
default
6
CONTINUOUS
10
 453.066
20
 135.765
30
 209.986
11
 452.440
21
 134.359
31
 210.160
39
 0
62
 5
 0
LINE
8
default
6
CONTINUOUS
10
-453.066
20
 135.765
30
 209.986
11
-452.440
21
 134.359
31
 210.160
39
 0
62
 5
 0
LINE
8
default
6
CONTINUOUS
10
 452.440
20
 134.359
30
 210.160
11
 451.738
21
 133.078
31
 210.356
39
 0
62
 5
 0
LINE
8
default
6
CONTINUOUS
10
-452.440
20
 134.359
30
 210.160
11
-451.738
21
 133.078
31
 210.356
39
 0
62
 5
 0
LINE
8
default
6
CONTINUOUS
10
 451.738
20
 133.078
30
 210.356
11
 450.974
21
 131.927
31
 210.568
39
 0
62
 5
 0
LINE
8
default
6
CONTINUOUS
10
-451.738
20
 133.078
30
 210.356
11
-450.974
21
 131.927
31
 210.568
39
 0
62
 5
 0
LINE
8
default
6
CONTINUOUS
10
 450.974
20
 131.927
30
 210.568
11
 450.167
21
 130.909
31
 210.792
39
 0
62
 5
 0
LINE
8
default
6
CONTINUOUS
10
-450.974
20
 131.927
30
 210.568
11
-450.167
21
 130.909
31
 210.792
39
 0
62
 5
 0
LINE
8
default
6
CONTINUOUS
10
 450.167
20
 130.909
30
 210.792
11
 449.328
21
 130.030
31
 211.025
39
 0
62
 5
 0
LINE
8
default
6
CONTINUOUS
10
-450.167
20
 130.909
30
 210.792
11
-449.328
21
 130.030
31
 211.025
39
 0
62
 5
 0
LINE
8
default
6
CONTINUOUS
10
 449.328
20
 130.030
30
 211.025
11
 448.464
21
 129.293
31
 211.266
39
 0
62
 5
 0
LINE
8
default
6
CONTINUOUS
10
-449.328
20
 130.030
30
 211.025
11
-448.464
21
 129.293
31
 211.266
39
 0
62
 5
 0
LINE
8
default
6
CONTINUOUS
10
 448.464
20
 129.293
30
 211.266
11
 447.623
21
 128.705
31
 211.499
39
 0
62
 5
 0
LINE
8
default
6
CONTINUOUS
10
-448.464
20
 129.293
30
 211.266
11
-447.623
21
 128.705
31
 211.499
39
 0
62
 5
 0
LINE
8
default
6
CONTINUOUS
10
 447.623
20
 128.705
30
 211.499
11
 446.660
21
 128.261
31
 211.767
39
 0
62
 5
 0
LINE
8
default
6
CONTINUOUS
10
-447.623
20
 128.705
30
 211.499
11
-446.660
21
 128.261
31
 211.767
39
 0
62
 5
 0
LINE
8
default
6
CONTINUOUS
10
 446.660
20
 128.261
30
 211.767
11
 445.822
21
 127.978
31
 212.000
39
 0
62
 5
 0
LINE
8
default
6
CONTINUOUS
10
-446.660
20
 128.261
30
 211.767
11
-445.822
21
 127.978
31
 212.000
39
 0
62
 5
 0
LINE
8
default
6
CONTINUOUS
10
 445.822
20
 127.978
30
 212.000
11
 444.822
21
 127.843
31
 212.278
39
 0
62
 5
 0
LINE
8
default
6
CONTINUOUS
10
-445.822
20
 127.978
30
 212.000
11
-444.822
21
 127.843
31
 212.278
39
 0
62
 5
 0
LINE
8
default
6
CONTINUOUS
10
 444.822
20
 127.843
30
 212.278
11
 444.187
21
 127.891
31
 212.455
39
 0
62
 5
 0
LINE
8
default
6
CONTINUOUS
10
-444.822
20
 127.843
30
 212.278
11
-444.187
21
 127.891
31
 212.455
39
 0
62
 5
 0
LINE
8
default
6
CONTINUOUS
10
 444.187
20
 127.891
30
 212.455
11
 443.564
21
 128.096
31
 212.628
39
 0
62
 5
 0
LINE
8
default
6
CONTINUOUS
10
-444.187
20
 127.891
30
 212.455
11
-443.564
21
 128.096
31
 212.628
39
 0
62
 5
 0
LINE
8
default
6
CONTINUOUS
10
 443.564
20
 128.096
30
 212.628
11
 443.028
21
 128.459
31
 212.777
39
 0
62
 5
 0
LINE
8
default
6
CONTINUOUS
10
-443.564
20
 128.096
30
 212.628
11
-443.028
21
 128.459
31
 212.777
39
 0
62
 5
 0
LINE
8
default
6
CONTINUOUS
10
 443.028
20
 128.459
30
 212.777
11
 442.445
21
 128.955
31
 212.939
39
 0
62
 5
 0
LINE
8
default
6
CONTINUOUS
10
-443.028
20
 128.459
30
 212.777
11
-442.445
21
 128.955
31
 212.939
39
 0
62
 5
 0
LINE
8
default
6
CONTINUOUS
10
 442.445
20
 128.955
30
 212.939
11
 442.426
21
 128.971
31
 212.944
39
 0
62
 1
 0
LINE
8
default
6
CONTINUOUS
10
-442.445
20
 128.955
30
 212.939
11
-442.426
21
 128.971
31
 212.944
39
 0
62
 1
 0
LINE
8
default
6
CONTINUOUS
10
 442.426
20
 128.971
30
 212.944
11
 441.904
21
 129.634
31
 213.089
39
 0
62
 1
 0
LINE
8
default
6
CONTINUOUS
10
-442.426
20
 128.971
30
 212.944
11
-441.904
21
 129.634
31
 213.089
39
 0
62
 1
 0
LINE
8
default
6
CONTINUOUS
10
 441.904
20
 129.634
30
 213.089
11
 441.344
21
 130.438
31
 213.245
39
 0
62
 1
 0
LINE
8
default
6
CONTINUOUS
10
-441.904
20
 129.634
30
 213.089
11
-441.344
21
 130.438
31
 213.245
39
 0
62
 1
 0
LINE
8
default
6
CONTINUOUS
10
 441.344
20
 130.438
30
 213.245
11
 440.813
21
 131.384
31
 213.393
39
 0
62
 1
 0
LINE
8
default
6
CONTINUOUS
10
-441.344
20
 130.438
30
 213.245
11
-440.813
21
 131.384
31
 213.393
39
 0
62
 1
 0
LINE
8
default
6
CONTINUOUS
10
 440.813
20
 131.384
30
 213.393
11
 440.290
21
 132.467
31
 213.538
39
 0
62
 1
 0
LINE
8
default
6
CONTINUOUS
10
-440.813
20
 131.384
30
 213.393
11
-440.290
21
 132.467
31
 213.538
39
 0
62
 1
 0
LINE
8
default
6
CONTINUOUS
10
 440.290
20
 132.467
30
 213.538
11
 439.960
21
 133.255
31
 213.630
39
 0
62
 1
 0
LINE
8
default
6
CONTINUOUS
10
-440.290
20
 132.467
30
 213.538
11
-439.960
21
 133.255
31
 213.630
39
 0
62
 1
 0
LINE
8
default
6
CONTINUOUS
10
 439.960
20
 133.255
30
 213.630
11
 439.780
21
 133.684
31
 213.680
39
 0
62
 3
 0
LINE
8
default
6
CONTINUOUS
10
-439.960
20
 133.255
30
 213.630
11
-439.780
21
 133.684
31
 213.680
39
 0
62
 3
 0
LINE
8
default
6
CONTINUOUS
10
 439.780
20
 133.684
30
 213.680
11
 439.293
21
 135.031
31
 213.815
39
 0
62
 3
 0
LINE
8
default
6
CONTINUOUS
10
-439.780
20
 133.684
30
 213.680
11
-439.293
21
 135.031
31
 213.815
39
 0
62
 3
 0
LINE
8
default
6
CONTINUOUS
10
 439.293
20
 135.031
30
 213.815
11
 438.833
21
 136.503
31
 213.943
39
 0
62
 3
 0
LINE
8
default
6
CONTINUOUS
10
-439.293
20
 135.031
30
 213.815
11
-438.833
21
 136.503
31
 213.943
39
 0
62
 3
 0
LINE
8
default
6
CONTINUOUS
10
 438.833
20
 136.503
30
 213.943
11
 438.407
21
 138.101
31
 214.061
39
 0
62
 3
 0
LINE
8
default
6
CONTINUOUS
10
-438.833
20
 136.503
30
 213.943
11
-438.407
21
 138.101
31
 214.061
39
 0
62
 3
 0
LINE
8
default
6
CONTINUOUS
10
 438.407
20
 138.101
30
 214.061
11
 438.020
21
 139.815
31
 214.169
39
 0
62
 3
 0
LINE
8
default
6
CONTINUOUS
10
-438.407
20
 138.101
30
 214.061
11
-438.020
21
 139.815
31
 214.169
39
 0
62
 3
 0
LINE
8
default
6
CONTINUOUS
10
 438.020
20
 139.815
30
 214.169
11
 437.674
21
 141.646
31
 214.265
39
 0
62
 3
 0
LINE
8
default
6
CONTINUOUS
10
-438.020
20
 139.815
30
 214.169
11
-437.674
21
 141.646
31
 214.265
39
 0
62
 3
 0
LINE
8
default
6
CONTINUOUS
10
 437.674
20
 141.646
30
 214.265
11
 437.375
21
 143.587
31
 214.348
39
 0
62
 3
 0
LINE
8
default
6
CONTINUOUS
10
-437.674
20
 141.646
30
 214.265
11
-437.375
21
 143.587
31
 214.348
39
 0
62
 3
 0
LINE
8
default
6
CONTINUOUS
10
 437.375
20
 143.587
30
 214.348
11
 437.121
21
 145.636
31
 214.419
39
 0
62
 3
 0
LINE
8
default
6
CONTINUOUS
10
-437.375
20
 143.587
30
 214.348
11
-437.121
21
 145.636
31
 214.419
39
 0
62
 3
 0
LINE
8
default
6
CONTINUOUS
10
 437.121
20
 145.636
30
 214.419
11
 436.912
21
 147.787
31
 214.477
39
 0
62
 3
 0
LINE
8
default
6
CONTINUOUS
10
-437.121
20
 145.636
30
 214.419
11
-436.912
21
 147.787
31
 214.477
39
 0
62
 3
 0
LINE
8
default
6
CONTINUOUS
10
 436.912
20
 147.787
30
 214.477
11
 436.749
21
 150.036
31
 214.522
39
 0
62
 3
 0
LINE
8
default
6
CONTINUOUS
10
-436.912
20
 147.787
30
 214.477
11
-436.749
21
 150.036
31
 214.522
39
 0
62
 3
 0
LINE
8
default
6
CONTINUOUS
10
 436.749
20
 150.036
30
 214.522
11
 436.628
21
 152.377
31
 214.556
39
 0
62
 3
 0
LINE
8
default
6
CONTINUOUS
10
-436.749
20
 150.036
30
 214.522
11
-436.628
21
 152.377
31
 214.556
39
 0
62
 3
 0
LINE
8
default
6
CONTINUOUS
10
 436.628
20
 152.377
30
 214.556
11
 436.544
21
 154.807
31
 214.579
39
 0
62
 3
 0
LINE
8
default
6
CONTINUOUS
10
-436.628
20
 152.377
30
 214.556
11
-436.544
21
 154.807
31
 214.579
39
 0
62
 3
 0
LINE
8
default
6
CONTINUOUS
10
 436.544
20
 154.807
30
 214.579
11
 436.499
21
 157.319
31
 214.592
39
 0
62
 3
 0
LINE
8
default
6
CONTINUOUS
10
-436.544
20
 154.807
30
 214.579
11
-436.499
21
 157.319
31
 214.592
39
 0
62
 3
 0
LINE
8
default
6
CONTINUOUS
10
 436.499
20
 157.319
30
 214.592
11
 436.487
21
 159.910
31
 214.595
39
 0
62
 3
 0
LINE
8
default
6
CONTINUOUS
10
-436.499
20
 157.319
30
 214.592
11
-436.487
21
 159.910
31
 214.595
39
 0
62
 3
 0
LINE
8
default
6
CONTINUOUS
10
 436.487
20
 159.910
30
 214.595
11
 436.507
21
 162.573
31
 214.589
39
 0
62
 3
 0
LINE
8
default
6
CONTINUOUS
10
-436.487
20
 159.910
30
 214.595
11
-436.507
21
 162.573
31
 214.589
39
 0
62
 3
 0
LINE
8
default
6
CONTINUOUS
10
 436.507
20
 162.573
30
 214.589
11
 436.557
21
 165.303
31
 214.576
39
 0
62
 3
 0
LINE
8
default
6
CONTINUOUS
10
-436.507
20
 162.573
30
 214.589
11
-436.557
21
 165.303
31
 214.576
39
 0
62
 3
 0
LINE
8
default
6
CONTINUOUS
10
 436.557
20
 165.303
30
 214.576
11
 436.632
21
 168.094
31
 214.555
39
 0
62
 3
 0
LINE
8
default
6
CONTINUOUS
10
-436.557
20
 165.303
30
 214.576
11
-436.632
21
 168.094
31
 214.555
39
 0
62
 3
 0
LINE
8
default
6
CONTINUOUS
10
 436.632
20
 168.094
30
 214.555
11
 436.732
21
 170.940
31
 214.527
39
 0
62
 3
 0
LINE
8
default
6
CONTINUOUS
10
-436.632
20
 168.094
30
 214.555
11
-436.732
21
 170.940
31
 214.527
39
 0
62
 3
 0
LINE
8
default
6
CONTINUOUS
10
 436.732
20
 170.940
30
 214.527
11
 436.852
21
 173.835
31
 214.493
39
 0
62
 3
 0
LINE
8
default
6
CONTINUOUS
10
-436.732
20
 170.940
30
 214.527
11
-436.852
21
 173.835
31
 214.493
39
 0
62
 3
 0
LINE
8
default
6
CONTINUOUS
10
 436.852
20
 173.835
30
 214.493
11
 436.988
21
 176.773
31
 214.456
39
 0
62
 3
 0
LINE
8
default
6
CONTINUOUS
10
-436.852
20
 173.835
30
 214.493
11
-436.988
21
 176.773
31
 214.456
39
 0
62
 3
 0
LINE
8
default
6
CONTINUOUS
10
 436.988
20
 176.773
30
 214.456
11
 437.139
21
 179.745
31
 214.414
39
 0
62
 3
 0
LINE
8
default
6
CONTINUOUS
10
-436.988
20
 176.773
30
 214.456
11
-437.139
21
 179.745
31
 214.414
39
 0
62
 3
 0
LINE
8
default
6
CONTINUOUS
10
 437.139
20
 179.745
30
 214.414
11
 437.311
21
 182.749
31
 214.366
39
 0
62
 3
 0
LINE
8
default
6
CONTINUOUS
10
-437.139
20
 179.745
30
 214.414
11
-437.311
21
 182.749
31
 214.366
39
 0
62
 3
 0
LINE
8
default
6
CONTINUOUS
10
 437.311
20
 182.749
30
 214.366
11
 437.501
21
 185.773
31
 214.313
39
 0
62
 3
 0
LINE
8
default
6
CONTINUOUS
10
-437.311
20
 182.749
30
 214.366
11
-437.501
21
 185.773
31
 214.313
39
 0
62
 3
 0
LINE
8
default
6
CONTINUOUS
10
 437.501
20
 185.773
30
 214.313
11
 437.702
21
 188.812
31
 214.257
39
 0
62
 3
 0
LINE
8
default
6
CONTINUOUS
10
-437.501
20
 185.773
30
 214.313
11
-437.702
21
 188.812
31
 214.257
39
 0
62
 3
 0
LINE
8
default
6
CONTINUOUS
10
 437.702
20
 188.812
30
 214.257
11
 437.912
21
 191.856
31
 214.199
39
 0
62
 3
 0
LINE
8
default
6
CONTINUOUS
10
-437.702
20
 188.812
30
 214.257
11
-437.912
21
 191.856
31
 214.199
39
 0
62
 3
 0
LINE
8
default
6
CONTINUOUS
10
 437.912
20
 191.856
30
 214.199
11
 438.124
21
 194.898
31
 214.140
39
 0
62
 3
 0
LINE
8
default
6
CONTINUOUS
10
-437.912
20
 191.856
30
 214.199
11
-438.124
21
 194.898
31
 214.140
39
 0
62
 3
 0
LINE
8
default
6
CONTINUOUS
10
 438.124
20
 194.898
30
 214.140
11
 438.332
21
 197.928
31
 214.082
39
 0
62
 3
 0
LINE
8
default
6
CONTINUOUS
10
-438.124
20
 194.898
30
 214.140
11
-438.332
21
 197.928
31
 214.082
39
 0
62
 3
 0
LINE
8
default
6
CONTINUOUS
10
 438.332
20
 197.928
30
 214.082
11
 438.531
21
 200.936
31
 214.027
39
 0
62
 3
 0
LINE
8
default
6
CONTINUOUS
10
-438.332
20
 197.928
30
 214.082
11
-438.531
21
 200.936
31
 214.027
39
 0
62
 3
 0
LINE
8
default
6
CONTINUOUS
10
 438.531
20
 200.936
30
 214.027
11
 438.716
21
 203.911
31
 213.975
39
 0
62
 3
 0
LINE
8
default
6
CONTINUOUS
10
-438.531
20
 200.936
30
 214.027
11
-438.716
21
 203.911
31
 213.975
39
 0
62
 3
 0
LINE
8
default
6
CONTINUOUS
10
 438.716
20
 203.911
30
 213.975
11
 438.884
21
 206.842
31
 213.929
39
 0
62
 3
 0
LINE
8
default
6
CONTINUOUS
10
-438.716
20
 203.911
30
 213.975
11
-438.884
21
 206.842
31
 213.929
39
 0
62
 3
 0
LINE
8
default
6
CONTINUOUS
10
 438.884
20
 206.842
30
 213.929
11
 439.031
21
 209.716
31
 213.888
39
 0
62
 3
 0
LINE
8
default
6
CONTINUOUS
10
-438.884
20
 206.842
30
 213.929
11
-439.031
21
 209.716
31
 213.888
39
 0
62
 3
 0
LINE
8
default
6
CONTINUOUS
10
 439.031
20
 209.716
30
 213.888
11
 439.159
21
 212.521
31
 213.852
39
 0
62
 3
 0
LINE
8
default
6
CONTINUOUS
10
-439.031
20
 209.716
30
 213.888
11
-439.159
21
 212.521
31
 213.852
39
 0
62
 3
 0
LINE
8
default
6
CONTINUOUS
10
 439.159
20
 212.521
30
 213.852
11
 439.268
21
 215.240
31
 213.822
39
 0
62
 3
 0
LINE
8
default
6
CONTINUOUS
10
-439.159
20
 212.521
30
 213.852
11
-439.268
21
 215.240
31
 213.822
39
 0
62
 3
 0
LINE
8
default
6
CONTINUOUS
10
 439.268
20
 215.240
30
 213.822
11
 439.364
21
 217.856
31
 213.795
39
 0
62
 3
 0
LINE
8
default
6
CONTINUOUS
10
-439.268
20
 215.240
30
 213.822
11
-439.364
21
 217.856
31
 213.795
39
 0
62
 3
 0
LINE
8
default
6
CONTINUOUS
10
 439.364
20
 217.856
30
 213.795
11
 439.452
21
 220.349
31
 213.771
39
 0
62
 3
 0
LINE
8
default
6
CONTINUOUS
10
-439.364
20
 217.856
30
 213.795
11
-439.452
21
 220.349
31
 213.771
39
 0
62
 3
 0
LINE
8
default
6
CONTINUOUS
10
 439.452
20
 220.349
30
 213.771
11
 439.532
21
 222.697
31
 213.748
39
 0
62
 3
 0
LINE
8
default
6
CONTINUOUS
10
-439.452
20
 220.349
30
 213.771
11
-439.532
21
 222.697
31
 213.748
39
 0
62
 3
 0
LINE
8
default
6
CONTINUOUS
10
 439.532
20
 222.697
30
 213.748
11
 439.607
21
 224.869
31
 213.728
39
 0
62
 3
 0
LINE
8
default
6
CONTINUOUS
10
-439.532
20
 222.697
30
 213.748
11
-439.607
21
 224.869
31
 213.728
39
 0
62
 3
 0
LINE
8
default
6
CONTINUOUS
10
 439.607
20
 224.869
30
 213.728
11
 439.679
21
 226.827
31
 213.708
39
 0
62
 3
 0
LINE
8
default
6
CONTINUOUS
10
-439.607
20
 224.869
30
 213.728
11
-439.679
21
 226.827
31
 213.708
39
 0
62
 3
 0
LINE
8
default
6
CONTINUOUS
10
 439.679
20
 226.827
30
 213.708
11
 439.746
21
 228.517
31
 213.689
39
 0
62
 3
 0
LINE
8
default
6
CONTINUOUS
10
-439.679
20
 226.827
30
 213.708
11
-439.746
21
 228.517
31
 213.689
39
 0
62
 3
 0
LINE
8
default
6
CONTINUOUS
10
 439.746
20
 228.517
30
 213.689
11
 439.802
21
 229.850
31
 213.673
39
 0
62
 3
 0
LINE
8
default
6
CONTINUOUS
10
-439.746
20
 228.517
30
 213.689
11
-439.802
21
 229.850
31
 213.673
39
 0
62
 3
 0
LINE
8
default
6
CONTINUOUS
10
 439.802
20
 229.850
30
 213.673
11
 439.835
21
 230.593
31
 213.664
39
 0
62
 3
 0
LINE
8
default
6
CONTINUOUS
10
-439.802
20
 229.850
30
 213.673
11
-439.835
21
 230.593
31
 213.664
39
 0
62
 3
 0
LINE
8
default
6
CONTINUOUS
10
 439.096
20
 223.166
30
 237.730
11
 439.133
21
 222.698
31
 237.730
39
 0
62
 5
 0
LINE
8
default
6
CONTINUOUS
10
-439.096
20
 223.166
30
 237.730
11
-439.133
21
 222.698
31
 237.730
39
 0
62
 5
 0
LINE
8
default
6
CONTINUOUS
10
 439.133
20
 222.698
30
 237.730
11
 439.199
21
 221.858
31
 237.730
39
 0
62
 5
 0
LINE
8
default
6
CONTINUOUS
10
-439.133
20
 222.698
30
 237.730
11
-439.199
21
 221.858
31
 237.730
39
 0
62
 5
 0
LINE
8
default
6
CONTINUOUS
10
 439.199
20
 221.858
30
 237.730
11
 439.283
21
 220.793
31
 237.730
39
 0
62
 5
 0
LINE
8
default
6
CONTINUOUS
10
-439.199
20
 221.858
30
 237.730
11
-439.283
21
 220.793
31
 237.730
39
 0
62
 5
 0
LINE
8
default
6
CONTINUOUS
10
 439.283
20
 220.793
30
 237.730
11
 439.380
21
 219.560
31
 237.730
39
 0
62
 5
 0
LINE
8
default
6
CONTINUOUS
10
-439.283
20
 220.793
30
 237.730
11
-439.380
21
 219.560
31
 237.730
39
 0
62
 5
 0
LINE
8
default
6
CONTINUOUS
10
 439.380
20
 219.560
30
 237.730
11
 439.488
21
 218.191
31
 237.730
39
 0
62
 5
 0
LINE
8
default
6
CONTINUOUS
10
-439.380
20
 219.560
30
 237.730
11
-439.488
21
 218.191
31
 237.730
39
 0
62
 5
 0
LINE
8
default
6
CONTINUOUS
10
 439.488
20
 218.191
30
 237.730
11
 439.604
21
 216.711
31
 237.730
39
 0
62
 5
 0
LINE
8
default
6
CONTINUOUS
10
-439.488
20
 218.191
30
 237.730
11
-439.604
21
 216.711
31
 237.730
39
 0
62
 5
 0
LINE
8
default
6
CONTINUOUS
10
 439.604
20
 216.711
30
 237.730
11
 439.728
21
 215.140
31
 237.730
39
 0
62
 5
 0
LINE
8
default
6
CONTINUOUS
10
-439.604
20
 216.711
30
 237.730
11
-439.728
21
 215.140
31
 237.730
39
 0
62
 5
 0
LINE
8
default
6
CONTINUOUS
10
 439.728
20
 215.140
30
 237.730
11
 439.858
21
 213.491
31
 237.730
39
 0
62
 5
 0
LINE
8
default
6
CONTINUOUS
10
-439.728
20
 215.140
30
 237.730
11
-439.858
21
 213.491
31
 237.730
39
 0
62
 5
 0
LINE
8
default
6
CONTINUOUS
10
 439.858
20
 213.491
30
 237.730
11
 439.993
21
 211.778
31
 237.730
39
 0
62
 5
 0
LINE
8
default
6
CONTINUOUS
10
-439.858
20
 213.491
30
 237.730
11
-439.993
21
 211.778
31
 237.730
39
 0
62
 5
 0
LINE
8
default
6
CONTINUOUS
10
 439.993
20
 211.778
30
 237.730
11
 440.132
21
 210.012
31
 237.730
39
 0
62
 5
 0
LINE
8
default
6
CONTINUOUS
10
-439.993
20
 211.778
30
 237.730
11
-440.132
21
 210.012
31
 237.730
39
 0
62
 5
 0
LINE
8
default
6
CONTINUOUS
10
 440.132
20
 210.012
30
 237.730
11
 440.274
21
 208.202
31
 237.730
39
 0
62
 5
 0
LINE
8
default
6
CONTINUOUS
10
-440.132
20
 210.012
30
 237.730
11
-440.274
21
 208.202
31
 237.730
39
 0
62
 5
 0
LINE
8
default
6
CONTINUOUS
10
 440.274
20
 208.202
30
 237.730
11
 440.419
21
 206.357
31
 237.730
39
 0
62
 5
 0
LINE
8
default
6
CONTINUOUS
10
-440.274
20
 208.202
30
 237.730
11
-440.419
21
 206.357
31
 237.730
39
 0
62
 5
 0
LINE
8
default
6
CONTINUOUS
10
 440.419
20
 206.357
30
 237.730
11
 440.567
21
 204.484
31
 237.730
39
 0
62
 5
 0
LINE
8
default
6
CONTINUOUS
10
-440.419
20
 206.357
30
 237.730
11
-440.567
21
 204.484
31
 237.730
39
 0
62
 5
 0
LINE
8
default
6
CONTINUOUS
10
 440.567
20
 204.484
30
 237.730
11
 440.716
21
 202.592
31
 237.730
39
 0
62
 5
 0
LINE
8
default
6
CONTINUOUS
10
-440.567
20
 204.484
30
 237.730
11
-440.716
21
 202.592
31
 237.730
39
 0
62
 5
 0
LINE
8
default
6
CONTINUOUS
10
 440.716
20
 202.592
30
 237.730
11
 440.866
21
 200.685
31
 237.730
39
 0
62
 5
 0
LINE
8
default
6
CONTINUOUS
10
-440.716
20
 202.592
30
 237.730
11
-440.866
21
 200.685
31
 237.730
39
 0
62
 5
 0
LINE
8
default
6
CONTINUOUS
10
 440.866
20
 200.685
30
 237.730
11
 441.016
21
 198.772
31
 237.730
39
 0
62
 5
 0
LINE
8
default
6
CONTINUOUS
10
-440.866
20
 200.685
30
 237.730
11
-441.016
21
 198.772
31
 237.730
39
 0
62
 5
 0
LINE
8
default
6
CONTINUOUS
10
 441.016
20
 198.772
30
 237.730
11
 441.167
21
 196.856
31
 237.730
39
 0
62
 5
 0
LINE
8
default
6
CONTINUOUS
10
-441.016
20
 198.772
30
 237.730
11
-441.167
21
 196.856
31
 237.730
39
 0
62
 5
 0
LINE
8
default
6
CONTINUOUS
10
 441.167
20
 196.856
30
 237.730
11
 441.317
21
 194.944
31
 237.730
39
 0
62
 5
 0
LINE
8
default
6
CONTINUOUS
10
-441.167
20
 196.856
30
 237.730
11
-441.317
21
 194.944
31
 237.730
39
 0
62
 5
 0
LINE
8
default
6
CONTINUOUS
10
 441.317
20
 194.944
30
 237.730
11
 441.467
21
 193.040
31
 237.730
39
 0
62
 5
 0
LINE
8
default
6
CONTINUOUS
10
-441.317
20
 194.944
30
 237.730
11
-441.467
21
 193.040
31
 237.730
39
 0
62
 5
 0
LINE
8
default
6
CONTINUOUS
10
 441.467
20
 193.040
30
 237.730
11
 441.616
21
 191.150
31
 237.730
39
 0
62
 5
 0
LINE
8
default
6
CONTINUOUS
10
-441.467
20
 193.040
30
 237.730
11
-441.616
21
 191.150
31
 237.730
39
 0
62
 5
 0
LINE
8
default
6
CONTINUOUS
10
 441.616
20
 191.150
30
 237.730
11
 441.763
21
 189.278
31
 237.730
39
 0
62
 5
 0
LINE
8
default
6
CONTINUOUS
10
-441.616
20
 191.150
30
 237.730
11
-441.763
21
 189.278
31
 237.730
39
 0
62
 5
 0
LINE
8
default
6
CONTINUOUS
10
 441.763
20
 189.278
30
 237.730
11
 441.909
21
 187.427
31
 237.730
39
 0
62
 5
 0
LINE
8
default
6
CONTINUOUS
10
-441.763
20
 189.278
30
 237.730
11
-441.909
21
 187.427
31
 237.730
39
 0
62
 5
 0
LINE
8
default
6
CONTINUOUS
10
 441.909
20
 187.427
30
 237.730
11
 442.053
21
 185.604
31
 237.730
39
 0
62
 5
 0
LINE
8
default
6
CONTINUOUS
10
-441.909
20
 187.427
30
 237.730
11
-442.053
21
 185.604
31
 237.730
39
 0
62
 5
 0
LINE
8
default
6
CONTINUOUS
10
 442.053
20
 185.604
30
 237.730
11
 442.194
21
 183.809
31
 237.730
39
 0
62
 5
 0
LINE
8
default
6
CONTINUOUS
10
-442.053
20
 185.604
30
 237.730
11
-442.194
21
 183.809
31
 237.730
39
 0
62
 5
 0
LINE
8
default
6
CONTINUOUS
10
 442.194
20
 183.809
30
 237.730
11
 442.332
21
 182.049
31
 237.730
39
 0
62
 5
 0
LINE
8
default
6
CONTINUOUS
10
-442.194
20
 183.809
30
 237.730
11
-442.332
21
 182.049
31
 237.730
39
 0
62
 5
 0
LINE
8
default
6
CONTINUOUS
10
 442.332
20
 182.049
30
 237.730
11
 442.468
21
 180.327
31
 237.730
39
 0
62
 5
 0
LINE
8
default
6
CONTINUOUS
10
-442.332
20
 182.049
30
 237.730
11
-442.468
21
 180.327
31
 237.730
39
 0
62
 5
 0
LINE
8
default
6
CONTINUOUS
10
 442.468
20
 180.327
30
 237.730
11
 442.600
21
 178.647
31
 237.730
39
 0
62
 5
 0
LINE
8
default
6
CONTINUOUS
10
-442.468
20
 180.327
30
 237.730
11
-442.600
21
 178.647
31
 237.730
39
 0
62
 5
 0
LINE
8
default
6
CONTINUOUS
10
 442.600
20
 178.647
30
 237.730
11
 442.729
21
 177.011
31
 237.730
39
 0
62
 5
 0
LINE
8
default
6
CONTINUOUS
10
-442.600
20
 178.647
30
 237.730
11
-442.729
21
 177.011
31
 237.730
39
 0
62
 5
 0
LINE
8
default
6
CONTINUOUS
10
 442.729
20
 177.011
30
 237.730
11
 442.854
21
 175.422
31
 237.730
39
 0
62
 5
 0
LINE
8
default
6
CONTINUOUS
10
-442.729
20
 177.011
30
 237.730
11
-442.854
21
 175.422
31
 237.730
39
 0
62
 5
 0
LINE
8
default
6
CONTINUOUS
10
 442.854
20
 175.422
30
 237.730
11
 442.975
21
 173.884
31
 237.730
39
 0
62
 5
 0
LINE
8
default
6
CONTINUOUS
10
-442.854
20
 175.422
30
 237.730
11
-442.975
21
 173.884
31
 237.730
39
 0
62
 5
 0
LINE
8
default
6
CONTINUOUS
10
 442.975
20
 173.884
30
 237.730
11
 443.092
21
 172.401
31
 237.730
39
 0
62
 5
 0
LINE
8
default
6
CONTINUOUS
10
-442.975
20
 173.884
30
 237.730
11
-443.092
21
 172.401
31
 237.730
39
 0
62
 5
 0
LINE
8
default
6
CONTINUOUS
10
 443.092
20
 172.401
30
 237.730
11
 443.204
21
 170.976
31
 237.730
39
 0
62
 5
 0
LINE
8
default
6
CONTINUOUS
10
-443.092
20
 172.401
30
 237.730
11
-443.204
21
 170.976
31
 237.730
39
 0
62
 5
 0
LINE
8
default
6
CONTINUOUS
10
 443.204
20
 170.976
30
 237.730
11
 443.311
21
 169.610
31
 237.730
39
 0
62
 5
 0
LINE
8
default
6
CONTINUOUS
10
-443.204
20
 170.976
30
 237.730
11
-443.311
21
 169.610
31
 237.730
39
 0
62
 5
 0
LINE
8
default
6
CONTINUOUS
10
 443.311
20
 169.610
30
 237.730
11
 443.414
21
 168.308
31
 237.730
39
 0
62
 5
 0
LINE
8
default
6
CONTINUOUS
10
-443.311
20
 169.610
30
 237.730
11
-443.414
21
 168.308
31
 237.730
39
 0
62
 5
 0
LINE
8
default
6
CONTINUOUS
10
 443.414
20
 168.308
30
 237.730
11
 443.511
21
 167.072
31
 237.730
39
 0
62
 5
 0
LINE
8
default
6
CONTINUOUS
10
-443.414
20
 168.308
30
 237.730
11
-443.511
21
 167.072
31
 237.730
39
 0
62
 5
 0
LINE
8
default
6
CONTINUOUS
10
 443.511
20
 167.072
30
 237.730
11
 443.603
21
 165.904
31
 237.730
39
 0
62
 5
 0
LINE
8
default
6
CONTINUOUS
10
-443.511
20
 167.072
30
 237.730
11
-443.603
21
 165.904
31
 237.730
39
 0
62
 5
 0
LINE
8
default
6
CONTINUOUS
10
 443.603
20
 165.904
30
 237.730
11
 443.689
21
 164.807
31
 237.730
39
 0
62
 5
 0
LINE
8
default
6
CONTINUOUS
10
-443.603
20
 165.904
30
 237.730
11
-443.689
21
 164.807
31
 237.730
39
 0
62
 5
 0
LINE
8
default
6
CONTINUOUS
10
 443.689
20
 164.807
30
 237.730
11
 443.770
21
 163.784
31
 237.730
39
 0
62
 5
 0
LINE
8
default
6
CONTINUOUS
10
-443.689
20
 164.807
30
 237.730
11
-443.770
21
 163.784
31
 237.730
39
 0
62
 5
 0
LINE
8
default
6
CONTINUOUS
10
 443.770
20
 163.784
30
 237.730
11
 443.844
21
 162.838
31
 237.730
39
 0
62
 5
 0
LINE
8
default
6
CONTINUOUS
10
-443.770
20
 163.784
30
 237.730
11
-443.844
21
 162.838
31
 237.730
39
 0
62
 5
 0
LINE
8
default
6
CONTINUOUS
10
 443.844
20
 162.838
30
 237.730
11
 443.913
21
 161.970
31
 237.730
39
 0
62
 5
 0
LINE
8
default
6
CONTINUOUS
10
-443.844
20
 162.838
30
 237.730
11
-443.913
21
 161.970
31
 237.730
39
 0
62
 5
 0
LINE
8
default
6
CONTINUOUS
10
 443.913
20
 161.970
30
 237.730
11
 443.974
21
 161.185
31
 237.730
39
 0
62
 5
 0
LINE
8
default
6
CONTINUOUS
10
-443.913
20
 161.970
30
 237.730
11
-443.974
21
 161.185
31
 237.730
39
 0
62
 5
 0
LINE
8
default
6
CONTINUOUS
10
 443.974
20
 161.185
30
 237.730
11
 444.030
21
 160.483
31
 237.730
39
 0
62
 5
 0
LINE
8
default
6
CONTINUOUS
10
-443.974
20
 161.185
30
 237.730
11
-444.030
21
 160.483
31
 237.730
39
 0
62
 5
 0
LINE
8
default
6
CONTINUOUS
10
 444.030
20
 160.483
30
 237.730
11
 444.078
21
 159.867
31
 237.730
39
 0
62
 5
 0
LINE
8
default
6
CONTINUOUS
10
-444.030
20
 160.483
30
 237.730
11
-444.078
21
 159.867
31
 237.730
39
 0
62
 5
 0
LINE
8
default
6
CONTINUOUS
10
 444.078
20
 159.867
30
 237.730
11
 444.120
21
 159.339
31
 237.730
39
 0
62
 5
 0
LINE
8
default
6
CONTINUOUS
10
-444.078
20
 159.867
30
 237.730
11
-444.120
21
 159.339
31
 237.730
39
 0
62
 5
 0
LINE
8
default
6
CONTINUOUS
10
 444.120
20
 159.339
30
 237.730
11
 444.154
21
 158.902
31
 237.730
39
 0
62
 5
 0
LINE
8
default
6
CONTINUOUS
10
-444.120
20
 159.339
30
 237.730
11
-444.154
21
 158.902
31
 237.730
39
 0
62
 5
 0
LINE
8
default
6
CONTINUOUS
10
 444.154
20
 158.902
30
 237.730
11
 444.181
21
 158.559
31
 237.730
39
 0
62
 5
 0
LINE
8
default
6
CONTINUOUS
10
-444.154
20
 158.902
30
 237.730
11
-444.181
21
 158.559
31
 237.730
39
 0
62
 5
 0
LINE
8
default
6
CONTINUOUS
10
 444.181
20
 158.559
30
 237.730
11
 444.201
21
 158.310
31
 237.730
39
 0
62
 5
 0
LINE
8
default
6
CONTINUOUS
10
-444.181
20
 158.559
30
 237.730
11
-444.201
21
 158.310
31
 237.730
39
 0
62
 5
 0
LINE
8
default
6
CONTINUOUS
10
 444.201
20
 158.310
30
 237.730
11
 444.212
21
 158.159
31
 237.730
39
 0
62
 5
 0
LINE
8
default
6
CONTINUOUS
10
-444.201
20
 158.310
30
 237.730
11
-444.212
21
 158.159
31
 237.730
39
 0
62
 5
 0
LINE
8
default
6
CONTINUOUS
10
 444.212
20
 158.159
30
 237.730
11
 444.217
21
 158.107
31
 237.730
39
 0
62
 5
 0
LINE
8
default
6
CONTINUOUS
10
-444.212
20
 158.159
30
 237.730
11
-444.217
21
 158.107
31
 237.730
39
 0
62
 5
 0
LINE
8
default
6
CONTINUOUS
10
 444.217
20
 158.107
30
 237.730
11
 444.213
21
 158.158
31
 237.730
39
 0
62
 5
 0
LINE
8
default
6
CONTINUOUS
10
-444.217
20
 158.107
30
 237.730
11
-444.213
21
 158.158
31
 237.730
39
 0
62
 5
 0
LINE
8
default
6
CONTINUOUS
10
 444.213
20
 158.158
30
 237.730
11
 444.201
21
 158.308
31
 237.730
39
 0
62
 5
 0
LINE
8
default
6
CONTINUOUS
10
-444.213
20
 158.158
30
 237.730
11
-444.201
21
 158.308
31
 237.730
39
 0
62
 5
 0
LINE
8
default
6
CONTINUOUS
10
 444.201
20
 158.308
30
 237.730
11
 444.181
21
 158.555
31
 237.730
39
 0
62
 5
 0
LINE
8
default
6
CONTINUOUS
10
-444.201
20
 158.308
30
 237.730
11
-444.181
21
 158.555
31
 237.730
39
 0
62
 5
 0
LINE
8
default
6
CONTINUOUS
10
 444.181
20
 158.555
30
 237.730
11
 444.155
21
 158.888
31
 237.730
39
 0
62
 5
 0
LINE
8
default
6
CONTINUOUS
10
-444.181
20
 158.555
30
 237.730
11
-444.155
21
 158.888
31
 237.730
39
 0
62
 5
 0
LINE
8
default
6
CONTINUOUS
10
 444.155
20
 158.888
30
 237.730
11
 444.154
21
 158.898
31
 237.730
39
 0
62
 1
 0
LINE
8
default
6
CONTINUOUS
10
-444.155
20
 158.888
30
 237.730
11
-444.154
21
 158.898
31
 237.730
39
 0
62
 1
 0
LINE
8
default
6
CONTINUOUS
10
 444.154
20
 158.898
30
 237.730
11
 444.120
21
 159.334
31
 237.730
39
 0
62
 1
 0
LINE
8
default
6
CONTINUOUS
10
-444.154
20
 158.898
30
 237.730
11
-444.120
21
 159.334
31
 237.730
39
 0
62
 1
 0
LINE
8
default
6
CONTINUOUS
10
 444.120
20
 159.334
30
 237.730
11
 444.079
21
 159.860
31
 237.730
39
 0
62
 1
 0
LINE
8
default
6
CONTINUOUS
10
-444.120
20
 159.334
30
 237.730
11
-444.079
21
 159.860
31
 237.730
39
 0
62
 1
 0
LINE
8
default
6
CONTINUOUS
10
 444.079
20
 159.860
30
 237.730
11
 444.030
21
 160.476
31
 237.730
39
 0
62
 1
 0
LINE
8
default
6
CONTINUOUS
10
-444.079
20
 159.860
30
 237.730
11
-444.030
21
 160.476
31
 237.730
39
 0
62
 1
 0
LINE
8
default
6
CONTINUOUS
10
 444.030
20
 160.476
30
 237.730
11
 443.975
21
 161.177
31
 237.730
39
 0
62
 1
 0
LINE
8
default
6
CONTINUOUS
10
-444.030
20
 160.476
30
 237.730
11
-443.975
21
 161.177
31
 237.730
39
 0
62
 1
 0
LINE
8
default
6
CONTINUOUS
10
 443.975
20
 161.177
30
 237.730
11
 443.935
21
 161.685
31
 237.730
39
 0
62
 1
 0
LINE
8
default
6
CONTINUOUS
10
-443.975
20
 161.177
30
 237.730
11
-443.935
21
 161.685
31
 237.730
39
 0
62
 1
 0
LINE
8
default
6
CONTINUOUS
10
 443.935
20
 161.685
30
 237.730
11
 443.913
21
 161.962
31
 237.730
39
 0
62
 3
 0
LINE
8
default
6
CONTINUOUS
10
-443.935
20
 161.685
30
 237.730
11
-443.913
21
 161.962
31
 237.730
39
 0
62
 3
 0
LINE
8
default
6
CONTINUOUS
10
 443.913
20
 161.962
30
 237.730
11
 443.845
21
 162.829
31
 237.730
39
 0
62
 3
 0
LINE
8
default
6
CONTINUOUS
10
-443.913
20
 161.962
30
 237.730
11
-443.845
21
 162.829
31
 237.730
39
 0
62
 3
 0
LINE
8
default
6
CONTINUOUS
10
 443.845
20
 162.829
30
 237.730
11
 443.771
21
 163.774
31
 237.730
39
 0
62
 3
 0
LINE
8
default
6
CONTINUOUS
10
-443.845
20
 162.829
30
 237.730
11
-443.771
21
 163.774
31
 237.730
39
 0
62
 3
 0
LINE
8
default
6
CONTINUOUS
10
 443.771
20
 163.774
30
 237.730
11
 443.690
21
 164.797
31
 237.730
39
 0
62
 3
 0
LINE
8
default
6
CONTINUOUS
10
-443.771
20
 163.774
30
 237.730
11
-443.690
21
 164.797
31
 237.730
39
 0
62
 3
 0
LINE
8
default
6
CONTINUOUS
10
 443.690
20
 164.797
30
 237.730
11
 443.604
21
 165.893
31
 237.730
39
 0
62
 3
 0
LINE
8
default
6
CONTINUOUS
10
-443.690
20
 164.797
30
 237.730
11
-443.604
21
 165.893
31
 237.730
39
 0
62
 3
 0
LINE
8
default
6
CONTINUOUS
10
 443.604
20
 165.893
30
 237.730
11
 443.512
21
 167.060
31
 237.730
39
 0
62
 3
 0
LINE
8
default
6
CONTINUOUS
10
-443.604
20
 165.893
30
 237.730
11
-443.512
21
 167.060
31
 237.730
39
 0
62
 3
 0
LINE
8
default
6
CONTINUOUS
10
 443.512
20
 167.060
30
 237.730
11
 443.415
21
 168.297
31
 237.730
39
 0
62
 3
 0
LINE
8
default
6
CONTINUOUS
10
-443.512
20
 167.060
30
 237.730
11
-443.415
21
 168.297
31
 237.730
39
 0
62
 3
 0
LINE
8
default
6
CONTINUOUS
10
 443.415
20
 168.297
30
 237.730
11
 443.312
21
 169.599
31
 237.730
39
 0
62
 3
 0
LINE
8
default
6
CONTINUOUS
10
-443.415
20
 168.297
30
 237.730
11
-443.312
21
 169.599
31
 237.730
39
 0
62
 3
 0
LINE
8
default
6
CONTINUOUS
10
 443.312
20
 169.599
30
 237.730
11
 443.205
21
 170.964
31
 237.730
39
 0
62
 3
 0
LINE
8
default
6
CONTINUOUS
10
-443.312
20
 169.599
30
 237.730
11
-443.205
21
 170.964
31
 237.730
39
 0
62
 3
 0
LINE
8
default
6
CONTINUOUS
10
 443.205
20
 170.964
30
 237.730
11
 443.092
21
 172.390
31
 237.730
39
 0
62
 3
 0
LINE
8
default
6
CONTINUOUS
10
-443.205
20
 170.964
30
 237.730
11
-443.092
21
 172.390
31
 237.730
39
 0
62
 3
 0
LINE
8
default
6
CONTINUOUS
10
 443.092
20
 172.390
30
 237.730
11
 442.976
21
 173.873
31
 237.730
39
 0
62
 3
 0
LINE
8
default
6
CONTINUOUS
10
-443.092
20
 172.390
30
 237.730
11
-442.976
21
 173.873
31
 237.730
39
 0
62
 3
 0
LINE
8
default
6
CONTINUOUS
10
 442.976
20
 173.873
30
 237.730
11
 442.855
21
 175.410
31
 237.730
39
 0
62
 3
 0
LINE
8
default
6
CONTINUOUS
10
-442.976
20
 173.873
30
 237.730
11
-442.855
21
 175.410
31
 237.730
39
 0
62
 3
 0
LINE
8
default
6
CONTINUOUS
10
 442.855
20
 175.410
30
 237.730
11
 442.730
21
 176.998
31
 237.730
39
 0
62
 3
 0
LINE
8
default
6
CONTINUOUS
10
-442.855
20
 175.410
30
 237.730
11
-442.730
21
 176.998
31
 237.730
39
 0
62
 3
 0
LINE
8
default
6
CONTINUOUS
10
 442.730
20
 176.998
30
 237.730
11
 442.601
21
 178.635
31
 237.730
39
 0
62
 3
 0
LINE
8
default
6
CONTINUOUS
10
-442.730
20
 176.998
30
 237.730
11
-442.601
21
 178.635
31
 237.730
39
 0
62
 3
 0
LINE
8
default
6
CONTINUOUS
10
 442.601
20
 178.635
30
 237.730
11
 442.469
21
 180.316
31
 237.730
39
 0
62
 3
 0
LINE
8
default
6
CONTINUOUS
10
-442.601
20
 178.635
30
 237.730
11
-442.469
21
 180.316
31
 237.730
39
 0
62
 3
 0
LINE
8
default
6
CONTINUOUS
10
 442.469
20
 180.316
30
 237.730
11
 442.333
21
 182.038
31
 237.730
39
 0
62
 3
 0
LINE
8
default
6
CONTINUOUS
10
-442.469
20
 180.316
30
 237.730
11
-442.333
21
 182.038
31
 237.730
39
 0
62
 3
 0
LINE
8
default
6
CONTINUOUS
10
 442.333
20
 182.038
30
 237.730
11
 442.195
21
 183.799
31
 237.730
39
 0
62
 3
 0
LINE
8
default
6
CONTINUOUS
10
-442.333
20
 182.038
30
 237.730
11
-442.195
21
 183.799
31
 237.730
39
 0
62
 3
 0
LINE
8
default
6
CONTINUOUS
10
 442.195
20
 183.799
30
 237.730
11
 442.053
21
 185.593
31
 237.730
39
 0
62
 3
 0
LINE
8
default
6
CONTINUOUS
10
-442.195
20
 183.799
30
 237.730
11
-442.053
21
 185.593
31
 237.730
39
 0
62
 3
 0
LINE
8
default
6
CONTINUOUS
10
 442.053
20
 185.593
30
 237.730
11
 441.910
21
 187.417
31
 237.730
39
 0
62
 3
 0
LINE
8
default
6
CONTINUOUS
10
-442.053
20
 185.593
30
 237.730
11
-441.910
21
 187.417
31
 237.730
39
 0
62
 3
 0
LINE
8
default
6
CONTINUOUS
10
 441.910
20
 187.417
30
 237.730
11
 441.764
21
 189.268
31
 237.730
39
 0
62
 3
 0
LINE
8
default
6
CONTINUOUS
10
-441.910
20
 187.417
30
 237.730
11
-441.764
21
 189.268
31
 237.730
39
 0
62
 3
 0
LINE
8
default
6
CONTINUOUS
10
 441.764
20
 189.268
30
 237.730
11
 441.617
21
 191.141
31
 237.730
39
 0
62
 3
 0
LINE
8
default
6
CONTINUOUS
10
-441.764
20
 189.268
30
 237.730
11
-441.617
21
 191.141
31
 237.730
39
 0
62
 3
 0
LINE
8
default
6
CONTINUOUS
10
 441.617
20
 191.141
30
 237.730
11
 441.468
21
 193.032
31
 237.730
39
 0
62
 3
 0
LINE
8
default
6
CONTINUOUS
10
-441.617
20
 191.141
30
 237.730
11
-441.468
21
 193.032
31
 237.730
39
 0
62
 3
 0
LINE
8
default
6
CONTINUOUS
10
 441.468
20
 193.032
30
 237.730
11
 441.318
21
 194.936
31
 237.730
39
 0
62
 3
 0
LINE
8
default
6
CONTINUOUS
10
-441.468
20
 193.032
30
 237.730
11
-441.318
21
 194.936
31
 237.730
39
 0
62
 3
 0
LINE
8
default
6
CONTINUOUS
10
 441.318
20
 194.936
30
 237.730
11
 441.168
21
 196.848
31
 237.730
39
 0
62
 3
 0
LINE
8
default
6
CONTINUOUS
10
-441.318
20
 194.936
30
 237.730
11
-441.168
21
 196.848
31
 237.730
39
 0
62
 3
 0
LINE
8
default
6
CONTINUOUS
10
 441.168
20
 196.848
30
 237.730
11
 441.017
21
 198.764
31
 237.730
39
 0
62
 3
 0
LINE
8
default
6
CONTINUOUS
10
-441.168
20
 196.848
30
 237.730
11
-441.017
21
 198.764
31
 237.730
39
 0
62
 3
 0
LINE
8
default
6
CONTINUOUS
10
 441.017
20
 198.764
30
 237.730
11
 440.866
21
 200.678
31
 237.730
39
 0
62
 3
 0
LINE
8
default
6
CONTINUOUS
10
-441.017
20
 198.764
30
 237.730
11
-440.866
21
 200.678
31
 237.730
39
 0
62
 3
 0
LINE
8
default
6
CONTINUOUS
10
 440.866
20
 200.678
30
 237.730
11
 440.716
21
 202.585
31
 237.730
39
 0
62
 3
 0
LINE
8
default
6
CONTINUOUS
10
-440.866
20
 200.678
30
 237.730
11
-440.716
21
 202.585
31
 237.730
39
 0
62
 3
 0
LINE
8
default
6
CONTINUOUS
10
 440.716
20
 202.585
30
 237.730
11
 440.567
21
 204.478
31
 237.730
39
 0
62
 3
 0
LINE
8
default
6
CONTINUOUS
10
-440.716
20
 202.585
30
 237.730
11
-440.567
21
 204.478
31
 237.730
39
 0
62
 3
 0
LINE
8
default
6
CONTINUOUS
10
 440.567
20
 204.478
30
 237.730
11
 440.420
21
 206.351
31
 237.730
39
 0
62
 3
 0
LINE
8
default
6
CONTINUOUS
10
-440.567
20
 204.478
30
 237.730
11
-440.420
21
 206.351
31
 237.730
39
 0
62
 3
 0
LINE
8
default
6
CONTINUOUS
10
 440.420
20
 206.351
30
 237.730
11
 440.274
21
 208.196
31
 237.730
39
 0
62
 3
 0
LINE
8
default
6
CONTINUOUS
10
-440.420
20
 206.351
30
 237.730
11
-440.274
21
 208.196
31
 237.730
39
 0
62
 3
 0
LINE
8
default
6
CONTINUOUS
10
 440.274
20
 208.196
30
 237.730
11
 440.132
21
 210.007
31
 237.730
39
 0
62
 3
 0
LINE
8
default
6
CONTINUOUS
10
-440.274
20
 208.196
30
 237.730
11
-440.132
21
 210.007
31
 237.730
39
 0
62
 3
 0
LINE
8
default
6
CONTINUOUS
10
 440.132
20
 210.007
30
 237.730
11
 439.993
21
 211.774
31
 237.730
39
 0
62
 3
 0
LINE
8
default
6
CONTINUOUS
10
-440.132
20
 210.007
30
 237.730
11
-439.993
21
 211.774
31
 237.730
39
 0
62
 3
 0
LINE
8
default
6
CONTINUOUS
10
 439.993
20
 211.774
30
 237.730
11
 439.858
21
 213.488
31
 237.730
39
 0
62
 3
 0
LINE
8
default
6
CONTINUOUS
10
-439.993
20
 211.774
30
 237.730
11
-439.858
21
 213.488
31
 237.730
39
 0
62
 3
 0
LINE
8
default
6
CONTINUOUS
10
 439.858
20
 213.488
30
 237.730
11
 439.728
21
 215.137
31
 237.730
39
 0
62
 3
 0
LINE
8
default
6
CONTINUOUS
10
-439.858
20
 213.488
30
 237.730
11
-439.728
21
 215.137
31
 237.730
39
 0
62
 3
 0
LINE
8
default
6
CONTINUOUS
10
 439.728
20
 215.137
30
 237.730
11
 439.605
21
 216.709
31
 237.730
39
 0
62
 3
 0
LINE
8
default
6
CONTINUOUS
10
-439.728
20
 215.137
30
 237.730
11
-439.605
21
 216.709
31
 237.730
39
 0
62
 3
 0
LINE
8
default
6
CONTINUOUS
10
 439.605
20
 216.709
30
 237.730
11
 439.488
21
 218.189
31
 237.730
39
 0
62
 3
 0
LINE
8
default
6
CONTINUOUS
10
-439.605
20
 216.709
30
 237.730
11
-439.488
21
 218.189
31
 237.730
39
 0
62
 3
 0
LINE
8
default
6
CONTINUOUS
10
 439.488
20
 218.189
30
 237.730
11
 439.380
21
 219.558
31
 237.730
39
 0
62
 3
 0
LINE
8
default
6
CONTINUOUS
10
-439.488
20
 218.189
30
 237.730
11
-439.380
21
 219.558
31
 237.730
39
 0
62
 3
 0
LINE
8
default
6
CONTINUOUS
10
 439.380
20
 219.558
30
 237.730
11
 439.283
21
 220.793
31
 237.730
39
 0
62
 3
 0
LINE
8
default
6
CONTINUOUS
10
-439.380
20
 219.558
30
 237.730
11
-439.283
21
 220.793
31
 237.730
39
 0
62
 3
 0
LINE
8
default
6
CONTINUOUS
10
 439.283
20
 220.793
30
 237.730
11
 439.199
21
 221.858
31
 237.730
39
 0
62
 3
 0
LINE
8
default
6
CONTINUOUS
10
-439.283
20
 220.793
30
 237.730
11
-439.199
21
 221.858
31
 237.730
39
 0
62
 3
 0
LINE
8
default
6
CONTINUOUS
10
 439.199
20
 221.858
30
 237.730
11
 439.133
21
 222.697
31
 237.730
39
 0
62
 3
 0
LINE
8
default
6
CONTINUOUS
10
-439.199
20
 221.858
30
 237.730
11
-439.133
21
 222.697
31
 237.730
39
 0
62
 3
 0
LINE
8
default
6
CONTINUOUS
10
 439.133
20
 222.697
30
 237.730
11
 439.096
21
 223.166
31
 237.730
39
 0
62
 3
 0
LINE
8
default
6
CONTINUOUS
10
-439.133
20
 222.697
30
 237.730
11
-439.096
21
 223.166
31
 237.730
39
 0
62
 3
 0
LINE
8
default
6
CONTINUOUS
10
  20.000
20
 286.520
30
   0.300
11
  59.934
21
 286.040
31
   2.615
39
 0
62
 5
 0
LINE
8
default
6
CONTINUOUS
10
 -20.000
20
 286.520
30
   0.300
11
 -59.934
21
 286.040
31
   2.615
39
 0
62
 5
 0
LINE
8
default
6
CONTINUOUS
10
  59.934
20
 286.040
30
   2.615
11
  99.649
21
 285.080
31
   7.305
39
 0
62
 5
 0
LINE
8
default
6
CONTINUOUS
10
 -59.934
20
 286.040
30
   2.615
11
 -99.649
21
 285.080
31
   7.305
39
 0
62
 5
 0
LINE
8
default
6
CONTINUOUS
10
  99.649
20
 285.080
30
   7.305
11
 138.974
21
 283.609
31
  14.481
39
 0
62
 5
 0
LINE
8
default
6
CONTINUOUS
10
 -99.649
20
 285.080
30
   7.305
11
-138.974
21
 283.609
31
  14.481
39
 0
62
 5
 0
LINE
8
default
6
CONTINUOUS
10
 138.974
20
 283.609
30
  14.481
11
 177.845
21
 281.609
31
  23.783
39
 0
62
 5
 0
LINE
8
default
6
CONTINUOUS
10
-138.974
20
 283.609
30
  14.481
11
-177.845
21
 281.609
31
  23.783
39
 0
62
 5
 0
LINE
8
default
6
CONTINUOUS
10
 177.845
20
 281.609
30
  23.783
11
 215.978
21
 279.057
31
  35.860
39
 0
62
 5
 0
LINE
8
default
6
CONTINUOUS
10
-177.845
20
 281.609
30
  23.783
11
-215.978
21
 279.057
31
  35.860
39
 0
62
 5
 0
LINE
8
default
6
CONTINUOUS
10
 215.978
20
 279.057
30
  35.860
11
 253.100
21
 275.894
31
  51.096
39
 0
62
 5
 0
LINE
8
default
6
CONTINUOUS
10
-215.978
20
 279.057
30
  35.860
11
-253.100
21
 275.894
31
  51.096
39
 0
62
 5
 0
LINE
8
default
6
CONTINUOUS
10
 253.100
20
 275.894
30
  51.096
11
 288.970
21
 272.039
31
  68.007
39
 0
62
 5
 0
LINE
8
default
6
CONTINUOUS
10
-253.100
20
 275.894
30
  51.096
11
-288.970
21
 272.039
31
  68.007
39
 0
62
 5
 0
LINE
8
default
6
CONTINUOUS
10
 288.970
20
 272.039
30
  68.007
11
 323.394
21
 267.402
31
  87.981
39
 0
62
 5
 0
LINE
8
default
6
CONTINUOUS
10
-288.970
20
 272.039
30
  68.007
11
-323.394
21
 267.402
31
  87.981
39
 0
62
 5
 0
LINE
8
default
6
CONTINUOUS
10
 323.394
20
 267.402
30
  87.981
11
 355.733
21
 261.821
31
 111.101
39
 0
62
 5
 0
LINE
8
default
6
CONTINUOUS
10
-323.394
20
 267.402
30
  87.981
11
-355.733
21
 261.821
31
 111.101
39
 0
62
 5
 0
LINE
8
default
6
CONTINUOUS
10
 355.733
20
 261.821
30
 111.101
11
 384.954
21
 255.056
31
 136.807
39
 0
62
 5
 0
LINE
8
default
6
CONTINUOUS
10
-355.733
20
 261.821
30
 111.101
11
-384.954
21
 255.056
31
 136.807
39
 0
62
 5
 0
LINE
8
default
6
CONTINUOUS
10
 384.954
20
 255.056
30
 136.807
11
 410.285
21
 247.339
31
 163.576
39
 0
62
 5
 0
LINE
8
default
6
CONTINUOUS
10
-384.954
20
 255.056
30
 136.807
11
-410.285
21
 247.339
31
 163.576
39
 0
62
 5
 0
LINE
8
default
6
CONTINUOUS
10
 410.285
20
 247.339
30
 163.576
11
 428.626
21
 239.093
31
 189.014
39
 0
62
 5
 0
LINE
8
default
6
CONTINUOUS
10
-410.285
20
 247.339
30
 163.576
11
-428.626
21
 239.093
31
 189.014
39
 0
62
 5
 0
LINE
8
default
6
CONTINUOUS
10
 428.626
20
 239.093
30
 189.014
11
 439.835
21
 230.593
31
 213.664
39
 0
62
 5
 0
LINE
8
default
6
CONTINUOUS
10
-428.626
20
 239.093
30
 189.014
11
-439.835
21
 230.593
31
 213.664
39
 0
62
 5
 0
LINE
8
default
6
CONTINUOUS
10
 439.835
20
 230.593
30
 213.664
11
 439.096
21
 223.166
31
 237.730
39
 0
62
 5
 0
LINE
8
default
6
CONTINUOUS
10
-439.835
20
 230.593
30
 213.664
11
-439.096
21
 223.166
31
 237.730
39
 0
62
 5
 0
LINE
8
default
6
CONTINUOUS
10
  20.000
20
 286.520
30
   0.300
11
 -20.000
21
 286.520
31
   0.300
39
 0
62
 5
 0
LINE
8
default
6
CONTINUOUS
10
  19.806
20
   3.438
30
   7.006
11
  59.386
21
   4.388
31
   9.155
39
 0
62
 1
 0
LINE
8
default
6
CONTINUOUS
10
 -19.806
20
   3.438
30
   7.006
11
 -59.386
21
   4.388
31
   9.155
39
 0
62
 1
 0
LINE
8
default
6
CONTINUOUS
10
  59.386
20
   4.388
30
   9.155
11
  98.743
21
   6.160
31
  13.527
39
 0
62
 1
 0
LINE
8
default
6
CONTINUOUS
10
 -59.386
20
   4.388
30
   9.155
11
 -98.743
21
   6.160
31
  13.527
39
 0
62
 1
 0
LINE
8
default
6
CONTINUOUS
10
  98.743
20
   6.160
30
  13.527
11
 137.795
21
   8.872
31
  20.235
39
 0
62
 1
 0
LINE
8
default
6
CONTINUOUS
10
 -98.743
20
   6.160
30
  13.527
11
-137.795
21
   8.872
31
  20.235
39
 0
62
 1
 0
LINE
8
default
6
CONTINUOUS
10
 137.795
20
   8.872
30
  20.235
11
 176.450
21
  12.563
31
  28.923
39
 0
62
 1
 0
LINE
8
default
6
CONTINUOUS
10
-137.795
20
   8.872
30
  20.235
11
-176.450
21
  12.563
31
  28.923
39
 0
62
 1
 0
LINE
8
default
6
CONTINUOUS
10
 176.450
20
  12.563
30
  28.923
11
 214.462
21
  17.313
31
  40.256
39
 0
62
 1
 0
LINE
8
default
6
CONTINUOUS
10
-176.450
20
  12.563
30
  28.923
11
-214.462
21
  17.313
31
  40.256
39
 0
62
 1
 0
LINE
8
default
6
CONTINUOUS
10
 214.462
20
  17.313
30
  40.256
11
 251.600
21
  23.211
31
  54.646
39
 0
62
 1
 0
LINE
8
default
6
CONTINUOUS
10
-214.462
20
  17.313
30
  40.256
11
-251.600
21
  23.211
31
  54.646
39
 0
62
 1
 0
LINE
8
default
6
CONTINUOUS
10
 251.600
20
  23.211
30
  54.646
11
 287.651
21
  30.374
31
  70.641
39
 0
62
 1
 0
LINE
8
default
6
CONTINUOUS
10
-251.600
20
  23.211
30
  54.646
11
-287.651
21
  30.374
31
  70.641
39
 0
62
 1
 0
LINE
8
default
6
CONTINUOUS
10
 287.651
20
  30.374
30
  70.641
11
 322.388
21
  39.711
31
  89.584
39
 0
62
 1
 0
LINE
8
default
6
CONTINUOUS
10
-287.651
20
  30.374
30
  70.641
11
-322.388
21
  39.711
31
  89.584
39
 0
62
 1
 0
LINE
8
default
6
CONTINUOUS
10
 322.388
20
  39.711
30
  89.584
11
 355.304
21
  51.991
31
 111.658
39
 0
62
 1
 0
LINE
8
default
6
CONTINUOUS
10
-322.388
20
  39.711
30
  89.584
11
-355.304
21
  51.991
31
 111.658
39
 0
62
 1
 0
LINE
8
default
6
CONTINUOUS
10
 355.304
20
  51.991
30
 111.658
11
 385.306
21
  67.057
31
 136.440
39
 0
62
 1
 0
LINE
8
default
6
CONTINUOUS
10
-355.304
20
  51.991
30
 111.658
11
-385.306
21
  67.057
31
 136.440
39
 0
62
 1
 0
LINE
8
default
6
CONTINUOUS
10
 385.306
20
  67.057
30
 136.440
11
 411.496
21
  84.883
31
 162.546
39
 0
62
 1
 0
LINE
8
default
6
CONTINUOUS
10
-385.306
20
  67.057
30
 136.440
11
-411.496
21
  84.883
31
 162.546
39
 0
62
 1
 0
LINE
8
default
6
CONTINUOUS
10
 411.496
20
  84.883
30
 162.546
11
 430.666
21
 104.994
31
 187.815
39
 0
62
 1
 0
LINE
8
default
6
CONTINUOUS
10
-411.496
20
  84.883
30
 162.546
11
-430.666
21
 104.994
31
 187.815
39
 0
62
 1
 0
LINE
8
default
6
CONTINUOUS
10
 430.666
20
 104.994
30
 187.815
11
 442.445
21
 128.955
31
 212.939
39
 0
62
 1
 0
LINE
8
default
6
CONTINUOUS
10
-430.666
20
 104.994
30
 187.815
11
-442.445
21
 128.955
31
 212.939
39
 0
62
 1
 0
LINE
8
default
6
CONTINUOUS
10
 442.445
20
 128.955
30
 212.939
11
 444.155
21
 158.888
31
 237.730
39
 0
62
 1
 0
LINE
8
default
6
CONTINUOUS
10
-442.445
20
 128.955
30
 212.939
11
-444.155
21
 158.888
31
 237.730
39
 0
62
 1
 0
LINE
8
default
6
CONTINUOUS
10
  19.806
20
   3.438
30
   7.006
11
 -19.806
21
   3.438
31
   7.006
39
 0
62
 1
 0
LINE
8
default
6
CONTINUOUS
10
  19.617
20
  15.759
30
  13.574
11
  58.840
21
  16.644
31
  15.675
39
 0
62
 1
 0
LINE
8
default
6
CONTINUOUS
10
 -19.617
20
  15.759
30
  13.574
11
 -58.840
21
  16.644
31
  15.675
39
 0
62
 1
 0
LINE
8
default
6
CONTINUOUS
10
  58.840
20
  16.644
30
  15.675
11
  97.808
21
  18.291
31
  19.948
39
 0
62
 1
 0
LINE
8
default
6
CONTINUOUS
10
 -58.840
20
  16.644
30
  15.675
11
 -97.808
21
  18.291
31
  19.948
39
 0
62
 1
 0
LINE
8
default
6
CONTINUOUS
10
  97.808
20
  18.291
30
  19.948
11
 136.509
21
  20.814
31
  26.509
39
 0
62
 1
 0
LINE
8
default
6
CONTINUOUS
10
 -97.808
20
  18.291
30
  19.948
11
-136.509
21
  20.814
31
  26.509
39
 0
62
 1
 0
LINE
8
default
6
CONTINUOUS
10
 136.509
20
  20.814
30
  26.509
11
 174.802
21
  24.247
31
  34.994
39
 0
62
 1
 0
LINE
8
default
6
CONTINUOUS
10
-136.509
20
  20.814
30
  26.509
11
-174.802
21
  24.247
31
  34.994
39
 0
62
 1
 0
LINE
8
default
6
CONTINUOUS
10
 174.802
20
  24.247
30
  34.994
11
 212.458
21
  28.667
31
  46.062
39
 0
62
 1
 0
LINE
8
default
6
CONTINUOUS
10
-174.802
20
  24.247
30
  34.994
11
-212.458
21
  28.667
31
  46.062
39
 0
62
 1
 0
LINE
8
default
6
CONTINUOUS
10
 212.458
20
  28.667
30
  46.062
11
 249.281
21
  34.156
31
  60.133
39
 0
62
 1
 0
LINE
8
default
6
CONTINUOUS
10
-212.458
20
  28.667
30
  46.062
11
-249.281
21
  34.156
31
  60.133
39
 0
62
 1
 0
LINE
8
default
6
CONTINUOUS
10
 249.281
20
  34.156
30
  60.133
11
 285.086
21
  40.824
31
  75.764
39
 0
62
 1
 0
LINE
8
default
6
CONTINUOUS
10
-249.281
20
  34.156
30
  60.133
11
-285.086
21
  40.824
31
  75.764
39
 0
62
 1
 0
LINE
8
default
6
CONTINUOUS
10
 285.086
20
  40.824
30
  75.764
11
 319.498
21
  49.535
31
  94.188
39
 0
62
 1
 0
LINE
8
default
6
CONTINUOUS
10
-285.086
20
  40.824
30
  75.764
11
-319.498
21
  49.535
31
  94.188
39
 0
62
 1
 0
LINE
8
default
6
CONTINUOUS
10
 319.498
20
  49.535
30
  94.188
11
 352.220
21
  61.020
31
 115.662
39
 0
62
 1
 0
LINE
8
default
6
CONTINUOUS
10
-319.498
20
  49.535
30
  94.188
11
-352.220
21
  61.020
31
 115.662
39
 0
62
 1
 0
LINE
8
default
6
CONTINUOUS
10
 352.220
20
  61.020
30
 115.662
11
 382.139
21
  75.118
31
 139.745
39
 0
62
 1
 0
LINE
8
default
6
CONTINUOUS
10
-352.220
20
  61.020
30
 115.662
11
-382.139
21
  75.118
31
 139.745
39
 0
62
 1
 0
LINE
8
default
6
CONTINUOUS
10
 382.139
20
  75.118
30
 139.745
11
 408.444
21
  91.822
31
 165.140
39
 0
62
 1
 0
LINE
8
default
6
CONTINUOUS
10
-382.139
20
  75.118
30
 139.745
11
-408.444
21
  91.822
31
 165.140
39
 0
62
 1
 0
LINE
8
default
6
CONTINUOUS
10
 408.444
20
  91.822
30
 165.140
11
 427.777
21
 110.696
31
 189.512
39
 0
62
 1
 0
LINE
8
default
6
CONTINUOUS
10
-408.444
20
  91.822
30
 165.140
11
-427.777
21
 110.696
31
 189.512
39
 0
62
 1
 0
LINE
8
default
6
CONTINUOUS
10
 427.777
20
 110.696
30
 189.512
11
 439.960
21
 133.255
31
 213.630
39
 0
62
 1
 0
LINE
8
default
6
CONTINUOUS
10
-427.777
20
 110.696
30
 189.512
11
-439.960
21
 133.255
31
 213.630
39
 0
62
 1
 0
LINE
8
default
6
CONTINUOUS
10
 439.960
20
 133.255
30
 213.630
11
 443.935
21
 161.685
31
 237.730
39
 0
62
 1
 0
LINE
8
default
6
CONTINUOUS
10
-439.960
20
 133.255
30
 213.630
11
-443.935
21
 161.685
31
 237.730
39
 0
62
 1
 0
LINE
8
default
6
CONTINUOUS
10
  19.617
20
  15.759
30
  13.574
11
 -19.617
21
  15.759
31
  13.574
39
 0
62
 1
 0
LINE
8
default
6
CONTINUOUS
10
  20.000
20
  57.304
30
 705.000
11
  41.693
21
  58.541
31
 654.474
39
 0
62
 8
 0
LINE
8
default
6
CONTINUOUS
10
 -20.000
20
  57.304
30
 705.000
11
 -41.693
21
  58.541
31
 654.474
39
 0
62
 8
 0
LINE
8
default
6
CONTINUOUS
10
  41.693
20
  58.541
30
 654.474
11
  53.815
21
  34.817
31
 198.721
39
 0
62
 8
 0
LINE
8
default
6
CONTINUOUS
10
 -41.693
20
  58.541
30
 654.474
11
 -53.815
21
  34.817
31
 198.721
39
 0
62
 8
 0
LINE
8
default
6
CONTINUOUS
10
  41.693
20
  58.541
30
 654.474
11
 136.608
21
  40.167
31
 214.234
39
 0
62
 8
 0
LINE
8
default
6
CONTINUOUS
10
 -41.693
20
  58.541
30
 654.474
11
-136.608
21
  40.167
31
 214.234
39
 0
62
 8
 0
LINE
8
default
6
CONTINUOUS
10
  41.693
20
  58.541
30
 654.474
11
 214.213
21
  51.657
31
 244.770
39
 0
62
 8
 0
LINE
8
default
6
CONTINUOUS
10
 -41.693
20
  58.541
30
 654.474
11
-214.213
21
  51.657
31
 244.770
39
 0
62
 8
 0
LINE
8
default
6
CONTINUOUS
10
  41.693
20
  58.541
30
 654.474
11
 281.358
21
  74.993
31
 291.936
39
 0
62
 8
 0
LINE
8
default
6
CONTINUOUS
10
 -41.693
20
  58.541
30
 654.474
11
-281.358
21
  74.993
31
 291.936
39
 0
62
 8
 0
LINE
8
default
6
CONTINUOUS
10
  41.693
20
  58.541
30
 654.474
11
 318.056
21
 119.594
31
 338.415
39
 0
62
 8
 0
LINE
8
default
6
CONTINUOUS
10
 -41.693
20
  58.541
30
 654.474
11
-318.056
21
 119.594
31
 338.415
39
 0
62
 8
 0
LINE
8
default
6
CONTINUOUS
10
  53.815
20
  34.817
30
 198.721
11
  19.541
21
  24.354
31
  16.207
39
 0
62
 8
 0
LINE
8
default
6
CONTINUOUS
10
 -53.815
20
  34.817
30
 198.721
11
 -19.541
21
  24.354
31
  16.207
39
 0
62
 8
 0
LINE
8
default
6
CONTINUOUS
10
  53.815
20
  34.817
30
 198.721
11
  58.621
21
  25.195
31
  18.290
39
 0
62
 8
 0
LINE
8
default
6
CONTINUOUS
10
 -53.815
20
  34.817
30
 198.721
11
 -58.621
21
  25.195
31
  18.290
39
 0
62
 8
 0
LINE
8
default
6
CONTINUOUS
10
  53.815
20
  34.817
30
 198.721
11
  97.433
21
  26.757
31
  22.526
39
 0
62
 8
 0
LINE
8
default
6
CONTINUOUS
10
 -53.815
20
  34.817
30
 198.721
11
 -97.433
21
  26.757
31
  22.526
39
 0
62
 8
 0
LINE
8
default
6
CONTINUOUS
10
 136.608
20
  40.167
30
 214.234
11
 135.992
21
  29.149
31
  29.033
39
 0
62
 8
 0
LINE
8
default
6
CONTINUOUS
10
-136.608
20
  40.167
30
 214.234
11
-135.992
21
  29.149
31
  29.033
39
 0
62
 8
 0
LINE
8
default
6
CONTINUOUS
10
 136.608
20
  40.167
30
 214.234
11
 174.138
21
  32.406
31
  37.441
39
 0
62
 8
 0
LINE
8
default
6
CONTINUOUS
10
-136.608
20
  40.167
30
 214.234
11
-174.138
21
  32.406
31
  37.441
39
 0
62
 8
 0
LINE
8
default
6
CONTINUOUS
10
 136.608
20
  40.167
30
 214.234
11
 211.649
21
  36.600
31
  48.409
39
 0
62
 8
 0
LINE
8
default
6
CONTINUOUS
10
-136.608
20
  40.167
30
 214.234
11
-211.649
21
  36.600
31
  48.409
39
 0
62
 8
 0
LINE
8
default
6
CONTINUOUS
10
 214.213
20
  51.657
30
 244.770
11
 248.341
21
  41.808
31
  62.358
39
 0
62
 8
 0
LINE
8
default
6
CONTINUOUS
10
-214.213
20
  51.657
30
 244.770
11
-248.341
21
  41.808
31
  62.358
39
 0
62
 8
 0
LINE
8
default
6
CONTINUOUS
10
 214.213
20
  51.657
30
 244.770
11
 284.042
21
  48.135
31
  77.850
39
 0
62
 8
 0
LINE
8
default
6
CONTINUOUS
10
-214.213
20
  51.657
30
 244.770
11
-284.042
21
  48.135
31
  77.850
39
 0
62
 8
 0
LINE
8
default
6
CONTINUOUS
10
 214.213
20
  51.657
30
 244.770
11
 318.315
21
  56.414
31
  96.072
39
 0
62
 8
 0
LINE
8
default
6
CONTINUOUS
10
-214.213
20
  51.657
30
 244.770
11
-318.315
21
  56.414
31
  96.072
39
 0
62
 8
 0
LINE
8
default
6
CONTINUOUS
10
 281.358
20
  74.993
30
 291.936
11
 350.950
21
  67.348
31
 117.311
39
 0
62
 8
 0
LINE
8
default
6
CONTINUOUS
10
-281.358
20
  74.993
30
 291.936
11
-350.950
21
  67.348
31
 117.311
39
 0
62
 8
 0
LINE
8
default
6
CONTINUOUS
10
 281.358
20
  74.993
30
 291.936
11
 380.825
21
  80.777
31
 141.116
39
 0
62
 8
 0
LINE
8
default
6
CONTINUOUS
10
-281.358
20
  74.993
30
 291.936
11
-380.825
21
  80.777
31
 141.116
39
 0
62
 8
 0
LINE
8
default
6
CONTINUOUS
10
 281.358
20
  74.993
30
 291.936
11
 407.168
21
  96.700
31
 166.225
39
 0
62
 8
 0
LINE
8
default
6
CONTINUOUS
10
-281.358
20
  74.993
30
 291.936
11
-407.168
21
  96.700
31
 166.225
39
 0
62
 8
 0
LINE
8
default
6
CONTINUOUS
10
 318.056
20
 119.594
30
 338.415
11
 426.557
21
 114.713
31
 190.229
39
 0
62
 8
 0
LINE
8
default
6
CONTINUOUS
10
-318.056
20
 119.594
30
 338.415
11
-426.557
21
 114.713
31
 190.229
39
 0
62
 8
 0
LINE
8
default
6
CONTINUOUS
10
 318.056
20
 119.594
30
 338.415
11
 438.900
21
 136.290
31
 213.924
39
 0
62
 8
 0
LINE
8
default
6
CONTINUOUS
10
-318.056
20
 119.594
30
 338.415
11
-438.900
21
 136.290
31
 213.924
39
 0
62
 8
 0
LINE
8
default
6
CONTINUOUS
10
 318.056
20
 119.594
30
 338.415
11
 424.232
21
 157.386
31
 191.594
39
 0
62
 8
 0
LINE
8
default
6
CONTINUOUS
10
-318.056
20
 119.594
30
 338.415
11
-424.232
21
 157.386
31
 191.594
39
 0
62
 8
 0
LINE
8
default
6
CONTINUOUS
10
 318.056
20
 119.594
30
 338.415
11
 436.650
21
 168.620
31
 214.550
39
 0
62
 8
 0
LINE
8
default
6
CONTINUOUS
10
-318.056
20
 119.594
30
 338.415
11
-436.650
21
 168.620
31
 214.550
39
 0
62
 8
 0
LINE
8
default
6
CONTINUOUS
10
  20.000
20
  57.304
30
 705.000
11
  42.005
21
  62.538
31
 654.867
39
 0
62
 8
 0
LINE
8
default
6
CONTINUOUS
10
 -20.000
20
  57.304
30
 705.000
11
 -42.005
21
  62.538
31
 654.867
39
 0
62
 8
 0
LINE
8
default
6
CONTINUOUS
10
  42.005
20
  62.538
30
 654.867
11
  53.618
21
  74.740
31
 203.012
39
 0
62
 8
 0
LINE
8
default
6
CONTINUOUS
10
 -42.005
20
  62.538
30
 654.867
11
 -53.618
21
  74.740
31
 203.012
39
 0
62
 8
 0
LINE
8
default
6
CONTINUOUS
10
  42.005
20
  62.538
30
 654.867
11
 135.685
21
  78.277
31
 218.289
39
 0
62
 8
 0
LINE
8
default
6
CONTINUOUS
10
 -42.005
20
  62.538
30
 654.867
11
-135.685
21
  78.277
31
 218.289
39
 0
62
 8
 0
LINE
8
default
6
CONTINUOUS
10
  42.005
20
  62.538
30
 654.867
11
 212.654
21
  85.729
31
 248.241
39
 0
62
 8
 0
LINE
8
default
6
CONTINUOUS
10
 -42.005
20
  62.538
30
 654.867
11
-212.654
21
  85.729
31
 248.241
39
 0
62
 8
 0
LINE
8
default
6
CONTINUOUS
10
  42.005
20
  62.538
30
 654.867
11
 279.449
21
 101.523
31
 294.268
39
 0
62
 8
 0
LINE
8
default
6
CONTINUOUS
10
 -42.005
20
  62.538
30
 654.867
11
-279.449
21
 101.523
31
 294.268
39
 0
62
 8
 0
LINE
8
default
6
CONTINUOUS
10
  42.005
20
  62.538
30
 654.867
11
 323.550
21
 152.618
31
 360.746
39
 0
62
 8
 0
LINE
8
default
6
CONTINUOUS
10
 -42.005
20
  62.538
30
 654.867
11
-323.550
21
 152.618
31
 360.746
39
 0
62
 8
 0
LINE
8
default
6
CONTINUOUS
10
  53.618
20
  74.740
30
 203.012
11
  19.422
21
  78.793
31
  20.329
39
 0
62
 8
 0
LINE
8
default
6
CONTINUOUS
10
 -53.618
20
  74.740
30
 203.012
11
 -19.422
21
  78.793
31
  20.329
39
 0
62
 8
 0
LINE
8
default
6
CONTINUOUS
10
  53.618
20
  74.740
30
 203.012
11
  58.277
21
  79.356
31
  22.400
39
 0
62
 8
 0
LINE
8
default
6
CONTINUOUS
10
 -53.618
20
  74.740
30
 203.012
11
 -58.277
21
  79.356
31
  22.400
39
 0
62
 8
 0
LINE
8
default
6
CONTINUOUS
10
  53.618
20
  74.740
30
 203.012
11
  96.839
21
  80.390
31
  26.608
39
 0
62
 8
 0
LINE
8
default
6
CONTINUOUS
10
 -53.618
20
  74.740
30
 203.012
11
 -96.839
21
  80.390
31
  26.608
39
 0
62
 8
 0
LINE
8
default
6
CONTINUOUS
10
 135.685
20
  78.277
30
 218.289
11
 135.164
21
  81.971
31
  33.073
39
 0
62
 8
 0
LINE
8
default
6
CONTINUOUS
10
-135.685
20
  78.277
30
 218.289
11
-135.164
21
  81.971
31
  33.073
39
 0
62
 8
 0
LINE
8
default
6
CONTINUOUS
10
 135.685
20
  78.277
30
 218.289
11
 173.059
21
  84.126
31
  41.418
39
 0
62
 8
 0
LINE
8
default
6
CONTINUOUS
10
-135.685
20
  78.277
30
 218.289
11
-173.059
21
  84.126
31
  41.418
39
 0
62
 8
 0
LINE
8
default
6
CONTINUOUS
10
 135.685
20
  78.277
30
 218.289
11
 210.308
21
  86.905
31
  52.295
39
 0
62
 8
 0
LINE
8
default
6
CONTINUOUS
10
-135.685
20
  78.277
30
 218.289
11
-210.308
21
  86.905
31
  52.295
39
 0
62
 8
 0
LINE
8
default
6
CONTINUOUS
10
 212.654
20
  85.729
30
 248.241
11
 246.749
21
  90.360
31
  66.126
39
 0
62
 8
 0
LINE
8
default
6
CONTINUOUS
10
-212.654
20
  85.729
30
 248.241
11
-246.749
21
  90.360
31
  66.126
39
 0
62
 8
 0
LINE
8
default
6
CONTINUOUS
10
 212.654
20
  85.729
30
 248.241
11
 282.227
21
  94.555
31
  81.475
39
 0
62
 8
 0
LINE
8
default
6
CONTINUOUS
10
-212.654
20
  85.729
30
 248.241
11
-282.227
21
  94.555
31
  81.475
39
 0
62
 8
 0
LINE
8
default
6
CONTINUOUS
10
 212.654
20
  85.729
30
 248.241
11
 316.194
21
 100.134
31
  99.451
39
 0
62
 8
 0
LINE
8
default
6
CONTINUOUS
10
-212.654
20
  85.729
30
 248.241
11
-316.194
21
 100.134
31
  99.451
39
 0
62
 8
 0
LINE
8
default
6
CONTINUOUS
10
 279.449
20
 101.523
30
 294.268
11
 348.585
21
 107.619
31
 120.382
39
 0
62
 8
 0
LINE
8
default
6
CONTINUOUS
10
-279.449
20
 101.523
30
 294.268
11
-348.585
21
 107.619
31
 120.382
39
 0
62
 8
 0
LINE
8
default
6
CONTINUOUS
10
 279.449
20
 101.523
30
 294.268
11
 378.272
21
 116.836
31
 143.781
39
 0
62
 8
 0
LINE
8
default
6
CONTINUOUS
10
-279.449
20
 101.523
30
 294.268
11
-378.272
21
 116.836
31
 143.781
39
 0
62
 8
 0
LINE
8
default
6
CONTINUOUS
10
 279.449
20
 101.523
30
 294.268
11
 404.569
21
 127.838
31
 168.433
39
 0
62
 8
 0
LINE
8
default
6
CONTINUOUS
10
-279.449
20
 101.523
30
 294.268
11
-404.569
21
 127.838
31
 168.433
39
 0
62
 8
 0
LINE
8
default
6
CONTINUOUS
10
 323.550
20
 152.618
30
 360.746
11
 443.781
21
 163.637
31
 237.730
39
 0
62
 8
 0
LINE
8
default
6
CONTINUOUS
10
-323.550
20
 152.618
30
 360.746
11
-443.781
21
 163.637
31
 237.730
39
 0
62
 8
 0
LINE
8
default
6
CONTINUOUS
10
 323.550
20
 152.618
30
 360.746
11
 442.168
21
 184.131
31
 237.730
39
 0
62
 8
 0
LINE
8
default
6
CONTINUOUS
10
-323.550
20
 152.618
30
 360.746
11
-442.168
21
 184.131
31
 237.730
39
 0
62
 8
 0
LINE
8
default
6
CONTINUOUS
10
 323.550
20
 152.618
30
 360.746
11
 440.376
21
 206.901
31
 237.730
39
 0
62
 8
 0
LINE
8
default
6
CONTINUOUS
10
-323.550
20
 152.618
30
 360.746
11
-440.376
21
 206.901
31
 237.730
39
 0
62
 8
 0
LINE
8
default
6
CONTINUOUS
10
 323.550
20
 152.618
30
 360.746
11
 438.766
21
 204.785
31
 213.961
39
 0
62
 8
 0
LINE
8
default
6
CONTINUOUS
10
-323.550
20
 152.618
30
 360.746
11
-438.766
21
 204.785
31
 213.961
39
 0
62
 8
 0
LINE
8
default
6
CONTINUOUS
10
  20.000
20
  57.304
30
 705.000
11
  36.642
21
  65.465
31
 653.217
39
 0
62
 8
 0
LINE
8
default
6
CONTINUOUS
10
 -20.000
20
  57.304
30
 705.000
11
 -36.642
21
  65.465
31
 653.217
39
 0
62
 8
 0
LINE
8
default
6
CONTINUOUS
10
  36.642
20
  65.465
30
 653.217
11
  52.538
21
 127.927
31
 195.643
39
 0
62
 8
 0
LINE
8
default
6
CONTINUOUS
10
 -36.642
20
  65.465
30
 653.217
11
 -52.538
21
 127.927
31
 195.643
39
 0
62
 8
 0
LINE
8
default
6
CONTINUOUS
10
  36.642
20
  65.465
30
 653.217
11
 135.785
21
 129.119
31
 211.251
39
 0
62
 8
 0
LINE
8
default
6
CONTINUOUS
10
 -36.642
20
  65.465
30
 653.217
11
-135.785
21
 129.119
31
 211.251
39
 0
62
 8
 0
LINE
8
default
6
CONTINUOUS
10
  36.642
20
  65.465
30
 653.217
11
 213.670
21
 131.262
31
 242.274
39
 0
62
 8
 0
LINE
8
default
6
CONTINUOUS
10
 -36.642
20
  65.465
30
 653.217
11
-213.670
21
 131.262
31
 242.274
39
 0
62
 8
 0
LINE
8
default
6
CONTINUOUS
10
  36.642
20
  65.465
30
 653.217
11
 280.700
21
 137.039
31
 290.079
39
 0
62
 8
 0
LINE
8
default
6
CONTINUOUS
10
 -36.642
20
  65.465
30
 653.217
11
-280.700
21
 137.039
31
 290.079
39
 0
62
 8
 0
LINE
8
default
6
CONTINUOUS
10
  52.538
20
 127.927
30
 195.643
11
  19.590
21
 151.856
31
  14.500
39
 0
62
 8
 0
LINE
8
default
6
CONTINUOUS
10
 -52.538
20
 127.927
30
 195.643
11
 -19.590
21
 151.856
31
  14.500
39
 0
62
 8
 0
LINE
8
default
6
CONTINUOUS
10
  52.538
20
 127.927
30
 195.643
11
  58.759
21
 152.051
31
  16.647
39
 0
62
 8
 0
LINE
8
default
6
CONTINUOUS
10
 -52.538
20
 127.927
30
 195.643
11
 -58.759
21
 152.051
31
  16.647
39
 0
62
 8
 0
LINE
8
default
6
CONTINUOUS
10
  52.538
20
 127.927
30
 195.643
11
  97.655
21
 152.383
31
  21.004
39
 0
62
 8
 0
LINE
8
default
6
CONTINUOUS
10
 -52.538
20
 127.927
30
 195.643
11
 -97.655
21
 152.383
31
  21.004
39
 0
62
 8
 0
LINE
8
default
6
CONTINUOUS
10
 135.785
20
 129.119
30
 211.251
11
 136.267
21
 152.890
31
  27.690
39
 0
62
 8
 0
LINE
8
default
6
CONTINUOUS
10
-135.785
20
 129.119
30
 211.251
11
-136.267
21
 152.890
31
  27.690
39
 0
62
 8
 0
LINE
8
default
6
CONTINUOUS
10
 135.785
20
 129.119
30
 211.251
11
 174.440
21
 153.581
31
  36.331
39
 0
62
 8
 0
LINE
8
default
6
CONTINUOUS
10
-135.785
20
 129.119
30
 211.251
11
-174.440
21
 153.581
31
  36.331
39
 0
62
 8
 0
LINE
8
default
6
CONTINUOUS
10
 135.785
20
 129.119
30
 211.251
11
 211.936
21
 154.483
31
  47.577
39
 0
62
 8
 0
LINE
8
default
6
CONTINUOUS
10
-135.785
20
 129.119
30
 211.251
11
-211.936
21
 154.483
31
  47.577
39
 0
62
 8
 0
LINE
8
default
6
CONTINUOUS
10
 213.670
20
 131.262
30
 242.274
11
 248.560
21
 155.607
31
  61.839
39
 0
62
 8
 0
LINE
8
default
6
CONTINUOUS
10
-213.670
20
 131.262
30
 242.274
11
-248.560
21
 155.607
31
  61.839
39
 0
62
 8
 0
LINE
8
default
6
CONTINUOUS
10
 213.670
20
 131.262
30
 242.274
11
 284.134
21
 156.969
31
  77.666
39
 0
62
 8
 0
LINE
8
default
6
CONTINUOUS
10
-213.670
20
 131.262
30
 242.274
11
-284.134
21
 156.969
31
  77.666
39
 0
62
 8
 0
LINE
8
default
6
CONTINUOUS
10
 213.670
20
 131.262
30
 242.274
11
 318.207
21
 158.951
31
  96.245
39
 0
62
 8
 0
LINE
8
default
6
CONTINUOUS
10
-213.670
20
 131.262
30
 242.274
11
-318.207
21
 158.951
31
  96.245
39
 0
62
 8
 0
LINE
8
default
6
CONTINUOUS
10
 280.700
20
 137.039
30
 290.079
11
 350.549
21
 161.837
31
 117.831
39
 0
62
 8
 0
LINE
8
default
6
CONTINUOUS
10
-280.700
20
 137.039
30
 290.079
11
-350.549
21
 161.837
31
 117.831
39
 0
62
 8
 0
LINE
8
default
6
CONTINUOUS
10
 280.700
20
 137.039
30
 290.079
11
 380.064
21
 165.430
31
 141.911
39
 0
62
 8
 0
LINE
8
default
6
CONTINUOUS
10
-280.700
20
 137.039
30
 290.079
11
-380.064
21
 165.430
31
 141.911
39
 0
62
 8
 0
LINE
8
default
6
CONTINUOUS
10
 280.700
20
 137.039
30
 290.079
11
 406.048
21
 169.846
31
 167.176
39
 0
62
 8
 0
LINE
8
default
6
CONTINUOUS
10
-280.700
20
 137.039
30
 290.079
11
-406.048
21
 169.846
31
 167.176
39
 0
62
 8
 0
LINE
8
default
6
CONTINUOUS
10
  20.000
20
  57.304
30
 705.000
11
  37.781
21
  70.041
31
 654.536
39
 0
62
 8
 0
LINE
8
default
6
CONTINUOUS
10
 -20.000
20
  57.304
30
 705.000
11
 -37.781
21
  70.041
31
 654.536
39
 0
62
 8
 0
LINE
8
default
6
CONTINUOUS
10
  37.781
20
  70.041
30
 654.536
11
  53.540
21
 179.749
31
 184.580
39
 0
62
 8
 0
LINE
8
default
6
CONTINUOUS
10
 -37.781
20
  70.041
30
 654.536
11
 -53.540
21
 179.749
31
 184.580
39
 0
62
 8
 0
LINE
8
default
6
CONTINUOUS
10
  37.781
20
  70.041
30
 654.536
11
 138.678
21
 178.650
31
 201.202
39
 0
62
 8
 0
LINE
8
default
6
CONTINUOUS
10
 -37.781
20
  70.041
30
 654.536
11
-138.678
21
 178.650
31
 201.202
39
 0
62
 8
 0
LINE
8
default
6
CONTINUOUS
10
  37.781
20
  70.041
30
 654.536
11
 217.860
21
 175.586
31
 234.370
39
 0
62
 8
 0
LINE
8
default
6
CONTINUOUS
10
 -37.781
20
  70.041
30
 654.536
11
-217.860
21
 175.586
31
 234.370
39
 0
62
 8
 0
LINE
8
default
6
CONTINUOUS
10
  37.781
20
  70.041
30
 654.536
11
 293.341
21
 170.674
31
 295.660
39
 0
62
 8
 0
LINE
8
default
6
CONTINUOUS
10
 -37.781
20
  70.041
30
 654.536
11
-293.341
21
 170.674
31
 295.660
39
 0
62
 8
 0
LINE
8
default
6
CONTINUOUS
10
  53.540
20
 179.749
30
 184.580
11
  19.825
21
 220.620
31
   6.369
39
 0
62
 8
 0
LINE
8
default
6
CONTINUOUS
10
 -53.540
20
 179.749
30
 184.580
11
 -19.825
21
 220.620
31
   6.369
39
 0
62
 8
 0
LINE
8
default
6
CONTINUOUS
10
  53.540
20
 179.749
30
 184.580
11
  59.432
21
 220.471
31
   8.609
39
 0
62
 8
 0
LINE
8
default
6
CONTINUOUS
10
 -53.540
20
 179.749
30
 184.580
11
 -59.432
21
 220.471
31
   8.609
39
 0
62
 8
 0
LINE
8
default
6
CONTINUOUS
10
  53.540
20
 179.749
30
 184.580
11
  98.798
21
 220.144
31
  13.151
39
 0
62
 8
 0
LINE
8
default
6
CONTINUOUS
10
 -53.540
20
 179.749
30
 184.580
11
 -98.798
21
 220.144
31
  13.151
39
 0
62
 8
 0
LINE
8
default
6
CONTINUOUS
10
 138.678
20
 178.650
30
 201.202
11
 137.821
21
 219.642
31
  20.108
39
 0
62
 8
 0
LINE
8
default
6
CONTINUOUS
10
-138.678
20
 178.650
30
 201.202
11
-137.821
21
 219.642
31
  20.108
39
 0
62
 8
 0
LINE
8
default
6
CONTINUOUS
10
 138.678
20
 178.650
30
 201.202
11
 176.397
21
 218.960
31
  29.116
39
 0
62
 8
 0
LINE
8
default
6
CONTINUOUS
10
-138.678
20
 178.650
30
 201.202
11
-176.397
21
 218.960
31
  29.116
39
 0
62
 8
 0
LINE
8
default
6
CONTINUOUS
10
 138.678
20
 178.650
30
 201.202
11
 214.266
21
 218.100
31
  40.824
39
 0
62
 8
 0
LINE
8
default
6
CONTINUOUS
10
-138.678
20
 178.650
30
 201.202
11
-214.266
21
 218.100
31
  40.824
39
 0
62
 8
 0
LINE
8
default
6
CONTINUOUS
10
 217.860
20
 175.586
30
 234.370
11
 251.184
21
 217.037
31
  55.630
39
 0
62
 8
 0
LINE
8
default
6
CONTINUOUS
10
-217.860
20
 175.586
30
 234.370
11
-251.184
21
 217.037
31
  55.630
39
 0
62
 8
 0
LINE
8
default
6
CONTINUOUS
10
 217.860
20
 175.586
30
 234.370
11
 286.940
21
 215.737
31
  72.062
39
 0
62
 8
 0
LINE
8
default
6
CONTINUOUS
10
-217.860
20
 175.586
30
 234.370
11
-286.940
21
 215.737
31
  72.062
39
 0
62
 8
 0
LINE
8
default
6
CONTINUOUS
10
 217.860
20
 175.586
30
 234.370
11
 321.232
21
 214.341
31
  91.426
39
 0
62
 8
 0
LINE
8
default
6
CONTINUOUS
10
-217.860
20
 175.586
30
 234.370
11
-321.232
21
 214.341
31
  91.426
39
 0
62
 8
 0
LINE
8
default
6
CONTINUOUS
10
 293.341
20
 170.674
30
 295.660
11
 353.594
21
 212.906
31
 113.878
39
 0
62
 8
 0
LINE
8
default
6
CONTINUOUS
10
-293.341
20
 170.674
30
 295.660
11
-353.594
21
 212.906
31
 113.878
39
 0
62
 8
 0
LINE
8
default
6
CONTINUOUS
10
 293.341
20
 170.674
30
 295.660
11
 382.965
21
 211.212
31
 138.883
39
 0
62
 8
 0
LINE
8
default
6
CONTINUOUS
10
-293.341
20
 170.674
30
 295.660
11
-382.965
21
 211.212
31
 138.883
39
 0
62
 8
 0
LINE
8
default
6
CONTINUOUS
10
 293.341
20
 170.674
30
 295.660
11
 408.596
21
 209.433
31
 165.011
39
 0
62
 8
 0
LINE
8
default
6
CONTINUOUS
10
-293.341
20
 170.674
30
 295.660
11
-408.596
21
 209.433
31
 165.011
39
 0
62
 8
 0
LINE
8
default
6
CONTINUOUS
10
 293.341
20
 170.674
30
 295.660
11
 427.100
21
 205.063
31
 189.910
39
 0
62
 8
 0
LINE
8
default
6
CONTINUOUS
10
-293.341
20
 170.674
30
 295.660
11
-427.100
21
 205.063
31
 189.910
39
 0
62
 8
 0
LINE
8
default
6
CONTINUOUS
10
  37.781
20
  70.041
30
 654.536
11
 134.864
21
 145.404
31
 436.831
39
 0
62
30
 0
LINE
8
default
6
CONTINUOUS
10
 -37.781
20
  70.041
30
 654.536
11
-134.864
21
 145.404
31
 436.831
39
 0
62
30
 0
LINE
8
default
6
CONTINUOUS
10
 134.864
20
 145.404
30
 436.831
11
 126.151
21
 222.053
31
 202.053
39
 0
62
30
 0
LINE
8
default
6
CONTINUOUS
10
-134.864
20
 145.404
30
 436.831
11
-126.151
21
 222.053
31
 202.053
39
 0
62
30
 0
LINE
8
default
6
CONTINUOUS
10
 134.864
20
 145.404
30
 436.831
11
 205.809
21
 212.526
31
 239.910
39
 0
62
30
 0
LINE
8
default
6
CONTINUOUS
10
-134.864
20
 145.404
30
 436.831
11
-205.809
21
 212.526
31
 239.910
39
 0
62
30
 0
LINE
8
default
6
CONTINUOUS
10
 134.864
20
 145.404
30
 436.831
11
 269.407
21
 193.095
31
 308.835
39
 0
62
30
 0
LINE
8
default
6
CONTINUOUS
10
-134.864
20
 145.404
30
 436.831
11
-269.407
21
 193.095
31
 308.835
39
 0
62
30
 0
LINE
8
default
6
CONTINUOUS
10
 126.151
20
 222.053
30
 202.053
11
  99.934
21
 257.967
31
  90.595
39
 0
62
30
 0
LINE
8
default
6
CONTINUOUS
10
-126.151
20
 222.053
30
 202.053
11
 -99.934
21
 257.967
31
  90.595
39
 0
62
30
 0
LINE
8
default
6
CONTINUOUS
10
 126.151
20
 222.053
30
 202.053
11
 145.965
21
 259.249
31
  89.696
39
 0
62
30
 0
LINE
8
default
6
CONTINUOUS
10
-126.151
20
 222.053
30
 202.053
11
-145.965
21
 259.249
31
  89.696
39
 0
62
30
 0
LINE
8
default
6
CONTINUOUS
10
 205.809
20
 212.526
30
 239.910
11
 222.314
21
 249.839
31
 127.059
39
 0
62
30
 0
LINE
8
default
6
CONTINUOUS
10
-205.809
20
 212.526
30
 239.910
11
-222.314
21
 249.839
31
 127.059
39
 0
62
30
 0
LINE
8
default
6
CONTINUOUS
10
 205.809
20
 212.526
30
 239.910
11
 266.365
21
 247.032
31
 142.225
39
 0
62
30
 0
LINE
8
default
6
CONTINUOUS
10
-205.809
20
 212.526
30
 239.910
11
-266.365
21
 247.032
31
 142.225
39
 0
62
30
 0
LINE
8
default
6
CONTINUOUS
10
 269.407
20
 193.095
30
 308.835
11
 333.106
21
 227.464
31
 213.120
39
 0
62
30
 0
LINE
8
default
6
CONTINUOUS
10
-269.407
20
 193.095
30
 308.835
11
-333.106
21
 227.464
31
 213.120
39
 0
62
30
 0
LINE
8
default
6
CONTINUOUS
10
 269.407
20
 193.095
30
 308.835
11
 371.558
21
 216.328
31
 250.307
39
 0
62
30
 0
LINE
8
default
6
CONTINUOUS
10
-269.407
20
 193.095
30
 308.835
11
-371.558
21
 216.328
31
 250.307
39
 0
62
30
 0
LINE
8
default
6
CONTINUOUS
10
  99.934
20
 257.967
30
  90.595
11
  59.934
21
 286.040
31
   2.615
39
 0
62
30
 0
LINE
8
default
6
CONTINUOUS
10
 -99.934
20
 257.967
30
  90.595
11
 -59.934
21
 286.040
31
   2.615
39
 0
62
30
 0
LINE
8
default
6
CONTINUOUS
10
  99.934
20
 257.967
30
  90.595
11
  99.649
21
 285.080
31
   7.305
39
 0
62
30
 0
LINE
8
default
6
CONTINUOUS
10
 -99.934
20
 257.967
30
  90.595
11
 -99.649
21
 285.080
31
   7.305
39
 0
62
30
 0
LINE
8
default
6
CONTINUOUS
10
 145.965
20
 259.249
30
  89.696
11
 138.974
21
 283.609
31
  14.481
39
 0
62
30
 0
LINE
8
default
6
CONTINUOUS
10
-145.965
20
 259.249
30
  89.696
11
-138.974
21
 283.609
31
  14.481
39
 0
62
30
 0
LINE
8
default
6
CONTINUOUS
10
 145.965
20
 259.249
30
  89.696
11
 177.845
21
 281.609
31
  23.783
39
 0
62
30
 0
LINE
8
default
6
CONTINUOUS
10
-145.965
20
 259.249
30
  89.696
11
-177.845
21
 281.609
31
  23.783
39
 0
62
30
 0
LINE
8
default
6
CONTINUOUS
10
 222.314
20
 249.839
30
 127.059
11
 215.978
21
 279.057
31
  35.860
39
 0
62
30
 0
LINE
8
default
6
CONTINUOUS
10
-222.314
20
 249.839
30
 127.059
11
-215.978
21
 279.057
31
  35.860
39
 0
62
30
 0
LINE
8
default
6
CONTINUOUS
10
 222.314
20
 249.839
30
 127.059
11
 253.100
21
 275.894
31
  51.096
39
 0
62
30
 0
LINE
8
default
6
CONTINUOUS
10
-222.314
20
 249.839
30
 127.059
11
-253.100
21
 275.894
31
  51.096
39
 0
62
30
 0
LINE
8
default
6
CONTINUOUS
10
 266.365
20
 247.032
30
 142.225
11
 288.970
21
 272.039
31
  68.007
39
 0
62
30
 0
LINE
8
default
6
CONTINUOUS
10
-266.365
20
 247.032
30
 142.225
11
-288.970
21
 272.039
31
  68.007
39
 0
62
30
 0
LINE
8
default
6
CONTINUOUS
10
 266.365
20
 247.032
30
 142.225
11
 323.394
21
 267.402
31
  87.981
39
 0
62
30
 0
LINE
8
default
6
CONTINUOUS
10
-266.365
20
 247.032
30
 142.225
11
-323.394
21
 267.402
31
  87.981
39
 0
62
30
 0
LINE
8
default
6
CONTINUOUS
10
 333.106
20
 227.464
30
 213.120
11
 355.733
21
 261.821
31
 111.101
39
 0
62
30
 0
LINE
8
default
6
CONTINUOUS
10
-333.106
20
 227.464
30
 213.120
11
-355.733
21
 261.821
31
 111.101
39
 0
62
30
 0
LINE
8
default
6
CONTINUOUS
10
 333.106
20
 227.464
30
 213.120
11
 384.954
21
 255.056
31
 136.807
39
 0
62
30
 0
LINE
8
default
6
CONTINUOUS
10
-333.106
20
 227.464
30
 213.120
11
-384.954
21
 255.056
31
 136.807
39
 0
62
30
 0
LINE
8
default
6
CONTINUOUS
10
 333.106
20
 227.464
30
 213.120
11
 410.285
21
 247.339
31
 163.576
39
 0
62
30
 0
LINE
8
default
6
CONTINUOUS
10
-333.106
20
 227.464
30
 213.120
11
-410.285
21
 247.339
31
 163.576
39
 0
62
30
 0
LINE
8
default
6
CONTINUOUS
10
 371.558
20
 216.328
30
 250.307
11
 428.626
21
 239.093
31
 189.014
39
 0
62
30
 0
LINE
8
default
6
CONTINUOUS
10
-371.558
20
 216.328
30
 250.307
11
-428.626
21
 239.093
31
 189.014
39
 0
62
30
 0
LINE
8
default
6
CONTINUOUS
10
 371.558
20
 216.328
30
 250.307
11
 439.835
21
 230.593
31
 213.664
39
 0
62
30
 0
LINE
8
default
6
CONTINUOUS
10
-371.558
20
 216.328
30
 250.307
11
-439.835
21
 230.593
31
 213.664
39
 0
62
30
 0
LINE
8
default
6
CONTINUOUS
10
 371.558
20
 216.328
30
 250.307
11
 439.096
21
 223.166
31
 237.730
39
 0
62
30
 0
LINE
8
default
6
CONTINUOUS
10
-371.558
20
 216.328
30
 250.307
11
-439.096
21
 223.166
31
 237.730
39
 0
62
30
 0
ENDSEC
0
EOF
