0
SECTION
2
HEADER
9
$EXTMAX
10
600
20
100
9
$EXTMIN
10
-600
20
-600
0
ENDSEC
0
SECTION
2
ENTITIES
0
LINE
8
default
6
CONTINOUS
10
0
20
-0
11
252.7800
21
-212.1570
39
0
62
12
0
LINE
8
default
6
CONTINOUS
10
-0
20
-0
11
-252.7800
21
-212.1570
39
0
62
12
0
LINE
8
default
6
CONTINOUS
10
252.7800
20
-212.1570
11
478.7500
21
-401.8125
39
0
62
12
0
LINE
8
default
6
CONTINOUS
10
-252.7800
20
-212.1570
11
-478.7500
21
-401.8125
39
0
62
12
0
LINE
8
default
6
CONTINOUS
10
252.7800
20
-212.1570
11
310.0437
21
-258.6515
39
0
62
9
0
LINE
8
default
6
CONTINOUS
10
310.0437
20
-258.6515
11
368.0787
21
-304.2268
39
0
62
10
0
LINE
8
default
6
CONTINOUS
10
368.0787
20
-304.2268
11
426.7306
21
-349.0666
39
0
62
13
0
LINE
8
default
6
CONTINOUS
10
426.7306
20
-349.0666
11
486.463444
21
-392.619972
39
0
62
8
0
LINE
8
default
6
CONTINOUS
10
-252.7800
20
-212.1570
11
-310.0437
21
-258.6515
39
0
62
9
0
LINE
8
default
6
CONTINOUS
10
-310.0437
20
-258.6515
11
-368.0787
21
-304.2268
39
0
62
10
0
LINE
8
default
6
CONTINOUS
10
-368.0787
20
-304.2268
11
-426.7306
21
-349.0666
39
0
62
13
0
LINE
8
default
6
CONTINOUS
10
-426.7306
20
-349.0666
11
-486.463444
21
-392.619972
39
0
62
8
0
LINE
8
default
6
CONTINOUS
10
0
20
-0
11
0
21
-426
39
0
62
12
0
LINE
8
default
6
CONTINOUS
10
252.7800
20
-212.1570
11
0
21
-200
39
0
62
12
0
LINE
8
default
6
CONTINOUS
10
-252.7800
20
-212.1570
11
-0
21
-200
39
0
62
12
0
LINE
8
default
6
CONTINOUS
10
0
20
-340
11
50
21
-330
39
0
62
9
0
LINE
8
default
6
CONTINOUS
10
-0
20
-340
11
-50
21
-330
39
0
62
9
0
LINE
8
default
6
CONTINOUS
10
50
20
-330
11
100
21
-325
39
0
62
9
0
LINE
8
default
6
CONTINOUS
10
-50
20
-330
11
-100
21
-325
39
0
62
9
0
LINE
8
default
6
CONTINOUS
10
100
20
-325
11
200
21
-340
39
0
62
9
0
LINE
8
default
6
CONTINOUS
10
-100
20
-325
11
-200
21
-340
39
0
62
9
0
LINE
8
default
6
CONTINOUS
10
200
20
-340
11
300
21
-370
39
0
62
9
0
LINE
8
default
6
CONTINOUS
10
-200
20
-340
11
-300
21
-370
39
0
62
9
0
LINE
8
default
6
CONTINOUS
10
300
20
-370
11
380
21
-395
39
0
62
9
0
LINE
8
default
6
CONTINOUS
10
-300
20
-370
11
-380
21
-395
39
0
62
9
0
LINE
8
default
6
CONTINOUS
10
380
20
-395
11
435
21
-410
39
0
62
9
0
LINE
8
default
6
CONTINOUS
10
-380
20
-395
11
-435
21
-410
39
0
62
9
0
LINE
8
default
6
CONTINOUS
10
435
20
-410
11
475
21
-410
39
0
62
9
0
LINE
8
default
6
CONTINOUS
10
-435
20
-410
11
-475
21
-410
39
0
62
9
0
LINE
8
default
6
CONTINOUS
10
475
20
-410
11
486.463444
21
-392.619972
39
0
62
9
0
LINE
8
default
6
CONTINOUS
10
-475
20
-410
11
-486.463444
21
-392.619972
39
0
62
9
0
LINE
8
default
6
CONTINOUS
10
248.9500
20
-208.9425
11
258.5905
21
-197.4510
39
0
62
9
0
LINE
8
default
6
CONTINOUS
10
-248.9500
20
-208.9425
11
-258.5905
21
-197.4510
39
0
62
9
0
LINE
8
default
6
CONTINOUS
10
100
20
-325
11
100.0000
21
-89.0000
39
0
62
7
0
LINE
8
default
6
CONTINOUS
10
-100
20
-325
11
-100.0000
21
-89.0000
39
0
62
7
0
LINE
8
default
6
CONTINOUS
10
200
20
-340
11
200.0000
21
-170.0000
39
0
62
7
0
LINE
8
default
6
CONTINOUS
10
-200
20
-340
11
-200.0000
21
-170.0000
39
0
62
7
0
LINE
8
default
6
CONTINOUS
10
300
20
-370
11
300.0000
21
-250.0000
39
0
62
7
0
LINE
8
default
6
CONTINOUS
10
-300
20
-370
11
-300.0000
21
-250.0000
39
0
62
7
0
LINE
8
default
6
CONTINOUS
10
380
20
-395
11
360.6746
21
-304.0367
39
0
62
7
0
LINE
8
default
6
CONTINOUS
10
-380
20
-395
11
-360.6746
21
-304.0367
39
0
62
7
0
LINE
8
default
6
CONTINOUS
10
435
20
-410
11
424.6100
21
-361.0950
39
0
62
7
0
LINE
8
default
6
CONTINOUS
10
-435
20
-410
11
-424.6100
21
-361.0950
39
0
62
7
0
LINE
8
default
6
CONTINOUS
10
475
20
-410
11
465.7330
21
-381.4670
39
0
62
7
0
LINE
8
default
6
CONTINOUS
10
-475
20
-410
11
-465.7330
21
-381.4670
39
0
62
7
0
LINE
8
default
6
CONTINOUS
10
452.091444
20
-372.159972
11
405.001444
21
-409.424972
39
0
62
30
0
LINE
8
default
6
CONTINOUS
10
-452.091444
20
-372.159972
11
-405.001444
21
-409.424972
39
0
62
30
0
ENDSEC
0
EOF
